ISO-10303-21;
HEADER;
FILE_DESCRIPTION (( 'STEP AP203' ),
    '1' );
FILE_NAME ('159e.STEP',
    '2022-07-10T09:17:22',
    ( '' ),
    ( '' ),
    'SwSTEP 2.0',
    'SolidWorks 2019',
    '' );
FILE_SCHEMA (( 'CONFIG_CONTROL_DESIGN' ));
ENDSEC;

DATA;
#1 = LOCAL_TIME ( 11, 17, 22.00000000000000000, #226 ) ;
#2 = CARTESIAN_POINT ( 'NONE',  ( -5.000000000000000000, 0.000000000000000000, 0.000000000000000000 ) ) ;
#3 = EDGE_CURVE ( 'NONE', #329, #122, #59, .T. ) ;
#4 = DIRECTION ( 'NONE',  ( 1.000000000000000000, 0.000000000000000000, 0.000000000000000000 ) ) ;
#5 = DIRECTION ( 'NONE',  ( -0.000000000000000000, -0.000000000000000000, -1.000000000000000000 ) ) ;
#6 = FACE_OUTER_BOUND ( 'NONE', #51, .T. ) ;
#7 = DIRECTION ( 'NONE',  ( -1.000000000000000000, 0.000000000000000000, 0.000000000000000000 ) ) ;
#8 = DIRECTION ( 'NONE',  ( -0.000000000000000000, -0.000000000000000000, -1.000000000000000000 ) ) ;
#9 = FACE_BOUND ( 'NONE', #46, .T. ) ;
#10 = PERSON_AND_ORGANIZATION ( #11, #238 ) ;
#11 = PERSON ( 'NEURÈENÝ', 'NEURÈENÝ', 'NEURÈENÝ', ('NEURÈENÝ'), ('NEURÈENÝ'), ('NEURÈENÝ') ) ;
#12 = CYLINDRICAL_SURFACE ( 'NONE', #322, 1.500000000000000222 ) ;
#13 = AXIS2_PLACEMENT_3D ( 'NONE', #34, #301, #155 ) ;
#14 = PERSON_AND_ORGANIZATION ( #11, #238 ) ;
#15 = DIRECTION ( 'NONE',  ( 0.000000000000000000, 0.000000000000000000, 1.000000000000000000 ) ) ;
#16 = DATE_AND_TIME ( #285, #28 ) ;
#17 = APPLICATION_CONTEXT ( 'configuration controlled 3d designs of mechanical parts and assemblies' ) ;
#18 = EDGE_CURVE ( 'NONE', #68, #122, #64, .T. ) ;
#19 = DIRECTION ( 'NONE',  ( 1.000000000000000000, 0.000000000000000000, 0.000000000000000000 ) ) ;
#20 = EDGE_LOOP ( 'NONE', ( #146, #107, #163, #244 ) ) ;
#21 = EDGE_LOOP ( 'NONE', ( #123, #277, #239, #38 ) ) ;
#22 = CARTESIAN_POINT ( 'NONE',  ( 5.000000000000000000, 6.123233995736766282E-16, 0.000000000000000000 ) ) ;
#23 = TOROIDAL_SURFACE ( 'NONE', #294, 2.799999999999999822, 0.2999999999999999889 ) ;
#24 = DIRECTION ( 'NONE',  ( -1.000000000000000000, 0.000000000000000000, 0.000000000000000000 ) ) ;
#25 = APPROVAL ( #104, 'NEURÈENÝ' ) ;
#26 = ORIENTED_EDGE ( 'NONE', *, *, #18, .T. ) ;
#27 = CIRCLE ( 'NONE', #197, 2.500000000000000000 ) ;
#28 = LOCAL_TIME ( 11, 17, 22.00000000000000000, #199 ) ;
#29 = CIRCLE ( 'NONE', #96, 2.799999999999999822 ) ;
#30 = DIRECTION ( 'NONE',  ( 0.000000000000000000, 0.000000000000000000, 1.000000000000000000 ) ) ;
#31 = CIRCLE ( 'NONE', #124, 2.500000000000000000 ) ;
#32 = PLANE ( 'NONE',  #13 ) ;
#33 = EDGE_CURVE ( 'NONE', #135, #371, #355, .T. ) ;
#34 = CARTESIAN_POINT ( 'NONE',  ( 0.000000000000000000, 0.000000000000000000, 0.000000000000000000 ) ) ;
#35 = ORIENTED_EDGE ( 'NONE', *, *, #33, .T. ) ;
#36 = FACE_OUTER_BOUND ( 'NONE', #21, .T. ) ;
#37 = ADVANCED_FACE ( 'NONE', ( #166 ), #12, .F. ) ;
#38 = ORIENTED_EDGE ( 'NONE', *, *, #3, .T. ) ;
#39 = CARTESIAN_POINT ( 'NONE',  ( 5.000000000000000000, 6.123233995736766282E-16, 3.000000000000000000 ) ) ;
#40 = AXIS2_PLACEMENT_3D ( 'NONE', #210, #159, #275 ) ;
#41 = ORIENTED_EDGE ( 'NONE', *, *, #3, .F. ) ;
#42 = PERSON_AND_ORGANIZATION_ROLE ( 'design_supplier' ) ;
#43 = CYLINDRICAL_SURFACE ( 'NONE', #98, 2.500000000000000000 ) ;
#44 = ORIENTED_EDGE ( 'NONE', *, *, #111, .T. ) ;
#45 = DATE_AND_TIME ( #191, #145 ) ;
#46 = EDGE_LOOP ( 'NONE', ( #95, #67 ) ) ;
#47 =( GEOMETRIC_REPRESENTATION_CONTEXT ( 3 ) GLOBAL_UNCERTAINTY_ASSIGNED_CONTEXT ( ( #178 ) ) GLOBAL_UNIT_ASSIGNED_CONTEXT ( ( #97, #100, #154 ) ) REPRESENTATION_CONTEXT ( 'NONE', 'WORKASPACE' ) );
#48 = APPROVAL_STATUS ( 'not_yet_approved' ) ;
#49 = DIRECTION ( 'NONE',  ( 0.000000000000000000, -1.000000000000000000, 0.000000000000000000 ) ) ;
#50 = PERSON_AND_ORGANIZATION ( #11, #238 ) ;
#51 = EDGE_LOOP ( 'NONE', ( #176, #364, #108, #216 ) ) ;
#52 = DIRECTION ( 'NONE',  ( 0.000000000000000000, 0.000000000000000000, 1.000000000000000000 ) ) ;
#53 = ORIENTED_EDGE ( 'NONE', *, *, #181, .T. ) ;
#54 = CARTESIAN_POINT ( 'NONE',  ( 0.000000000000000000, 0.000000000000000000, 0.000000000000000000 ) ) ;
#55 = ORIENTED_EDGE ( 'NONE', *, *, #181, .F. ) ;
#56 = CC_DESIGN_DATE_AND_TIME_ASSIGNMENT ( #365, #340, ( #143 ) ) ;
#57 = AXIS2_PLACEMENT_3D ( 'NONE', #63, #8, #62 ) ;
#58 = DIRECTION ( 'NONE',  ( -0.000000000000000000, -0.000000000000000000, -1.000000000000000000 ) ) ;
#59 = CIRCLE ( 'NONE', #265, 1.500000000000000222 ) ;
#60 = EDGE_CURVE ( 'NONE', #299, #329, #184, .T. ) ;
#61 = EDGE_CURVE ( 'NONE', #347, #320, #150, .T. ) ;
#62 = DIRECTION ( 'NONE',  ( 1.000000000000000000, 0.000000000000000000, 0.000000000000000000 ) ) ;
#63 = CARTESIAN_POINT ( 'NONE',  ( 0.000000000000000000, 0.000000000000000000, 3.000000000000000000 ) ) ;
#64 = LINE ( 'NONE', #279, #148 ) ;
#65 = CARTESIAN_POINT ( 'NONE',  ( -1.500000000000000222, 0.000000000000000000, 153.0000000000000000 ) ) ;
#66 = EDGE_CURVE ( 'NONE', #189, #164, #291, .T. ) ;
#67 = ORIENTED_EDGE ( 'NONE', *, *, #295, .F. ) ;
#68 = VERTEX_POINT ( 'NONE', #71 ) ;
#69 = CARTESIAN_POINT ( 'NONE',  ( 2.500000000000000000, 3.061616997868383141E-16, 153.0000000000000000 ) ) ;
#70 = AXIS2_PLACEMENT_3D ( 'NONE', #126, #241, #258 ) ;
#71 = CARTESIAN_POINT ( 'NONE',  ( 1.500000000000000222, 1.836970198721030181E-16, 153.0000000000000000 ) ) ;
#72 = ORIENTED_EDGE ( 'NONE', *, *, #170, .T. ) ;
#73 = APPROVAL_ROLE ( '' ) ;
#74 = DIRECTION ( 'NONE',  ( -0.000000000000000000, -0.000000000000000000, -1.000000000000000000 ) ) ;
#75 = VERTEX_POINT ( 'NONE', #248 ) ;
#76 = ORIENTED_EDGE ( 'NONE', *, *, #302, .F. ) ;
#77 = PERSON_AND_ORGANIZATION_ROLE ( 'creator' ) ;
#78 = CC_DESIGN_PERSON_AND_ORGANIZATION_ASSIGNMENT ( #50, #373, ( #353 ) ) ;
#79 = PRODUCT ( '159e', '159e', '', ( #281 ) ) ;
#80 = CARTESIAN_POINT ( 'NONE',  ( 0.000000000000000000, 0.000000000000000000, 3.299999999999997158 ) ) ;
#81 = PERSON_AND_ORGANIZATION ( #11, #238 ) ;
#82 = DIRECTION ( 'NONE',  ( 1.000000000000000000, 0.000000000000000000, 0.000000000000000000 ) ) ;
#83 = ORIENTED_EDGE ( 'NONE', *, *, #204, .T. ) ;
#84 = ADVANCED_FACE ( 'NONE', ( #9, #303 ), #99, .T. ) ;
#85 = CARTESIAN_POINT ( 'NONE',  ( -2.500000000000000000, 0.000000000000000000, 3.299999999999997158 ) ) ;
#86 = FACE_BOUND ( 'NONE', #338, .T. ) ;
#87 = CC_DESIGN_APPROVAL ( #336, ( #353 ) ) ;
#88 = EDGE_CURVE ( 'NONE', #347, #135, #106, .T. ) ;
#89 = CIRCLE ( 'NONE', #57, 2.799999999999999822 ) ;
#90 = CIRCLE ( 'NONE', #232, 1.500000000000000222 ) ;
#91 = CC_DESIGN_DATE_AND_TIME_ASSIGNMENT ( #138, #311, ( #353 ) ) ;
#92 = CYLINDRICAL_SURFACE ( 'NONE', #117, 2.500000000000000000 ) ;
#93 = DIRECTION ( 'NONE',  ( 1.000000000000000000, 0.000000000000000000, 0.000000000000000000 ) ) ;
#94 = VECTOR ( 'NONE', #200, 1000.000000000000000 ) ;
#95 = ORIENTED_EDGE ( 'NONE', *, *, #377, .F. ) ;
#96 = AXIS2_PLACEMENT_3D ( 'NONE', #337, #74, #222 ) ;
#97 =( LENGTH_UNIT ( ) NAMED_UNIT ( * ) SI_UNIT ( .MILLI., .METRE. ) );
#98 = AXIS2_PLACEMENT_3D ( 'NONE', #312, #287, #120 ) ;
#99 = PLANE ( 'NONE',  #40 ) ;
#100 =( NAMED_UNIT ( * ) PLANE_ANGLE_UNIT ( ) SI_UNIT ( $, .RADIAN. ) );
#101 = EDGE_CURVE ( 'NONE', #320, #371, #251, .T. ) ;
#102 = DIRECTION ( 'NONE',  ( 1.000000000000000000, 0.000000000000000000, 0.000000000000000000 ) ) ;
#103 = ORIENTED_EDGE ( 'NONE', *, *, #177, .T. ) ;
#104 = APPROVAL_STATUS ( 'not_yet_approved' ) ;
#105 = AXIS2_PLACEMENT_3D ( 'NONE', #363, #127, #160 ) ;
#106 = LINE ( 'NONE', #133, #319 ) ;
#107 = ORIENTED_EDGE ( 'NONE', *, *, #208, .F. ) ;
#108 = ORIENTED_EDGE ( 'NONE', *, *, #111, .F. ) ;
#109 = DATE_AND_TIME ( #369, #203 ) ;
#110 = AXIS2_PLACEMENT_3D ( 'NONE', #134, #140, #129 ) ;
#111 = EDGE_CURVE ( 'NONE', #125, #164, #29, .T. ) ;
#112 = DIRECTION ( 'NONE',  ( 1.000000000000000000, 0.000000000000000000, 0.000000000000000000 ) ) ;
#113 = CALENDAR_DATE ( 2022, 10, 7 ) ;
#114 = DIRECTION ( 'NONE',  ( 1.000000000000000000, 0.000000000000000000, 0.000000000000000000 ) ) ;
#115 = PERSON_AND_ORGANIZATION_ROLE ( 'creator' ) ;
#116 = DIRECTION ( 'NONE',  ( 0.000000000000000000, 0.000000000000000000, 1.000000000000000000 ) ) ;
#117 = AXIS2_PLACEMENT_3D ( 'NONE', #354, #297, #207 ) ;
#118 = ORIENTED_EDGE ( 'NONE', *, *, #302, .T. ) ;
#119 = DIRECTION ( 'NONE',  ( -0.000000000000000000, -0.000000000000000000, -1.000000000000000000 ) ) ;
#120 = DIRECTION ( 'NONE',  ( -1.000000000000000000, 0.000000000000000000, 0.000000000000000000 ) ) ;
#121 = AXIS2_PLACEMENT_3D ( 'NONE', #292, #116, #231 ) ;
#122 = VERTEX_POINT ( 'NONE', #193 ) ;
#123 = ORIENTED_EDGE ( 'NONE', *, *, #18, .F. ) ;
#124 = AXIS2_PLACEMENT_3D ( 'NONE', #183, #298, #180 ) ;
#125 = VERTEX_POINT ( 'NONE', #339 ) ;
#126 = CARTESIAN_POINT ( 'NONE',  ( 0.000000000000000000, 0.000000000000000000, 0.000000000000000000 ) ) ;
#127 = DIRECTION ( 'NONE',  ( 0.000000000000000000, 0.000000000000000000, 1.000000000000000000 ) ) ;
#128 = VECTOR ( 'NONE', #324, 1000.000000000000000 ) ;
#129 = DIRECTION ( 'NONE',  ( -1.000000000000000000, 1.224646799147353207E-16, 0.000000000000000000 ) ) ;
#130 = CIRCLE ( 'NONE', #344, 2.500000000000000000 ) ;
#131 = ADVANCED_FACE ( 'NONE', ( #309 ), #43, .T. ) ;
#132 = CARTESIAN_POINT ( 'NONE',  ( -2.500000000000000000, 0.000000000000000000, 153.0000000000000000 ) ) ;
#133 = CARTESIAN_POINT ( 'NONE',  ( 5.000000000000000000, 6.123233995736766282E-16, 3.000000000000000000 ) ) ;
#134 = CARTESIAN_POINT ( 'NONE',  ( -2.799999999999999822, 3.429011037612588783E-16, 3.299999999999997158 ) ) ;
#135 = VERTEX_POINT ( 'NONE', #22 ) ;
#136 = APPROVAL_ROLE ( '' ) ;
#137 = CARTESIAN_POINT ( 'NONE',  ( 0.000000000000000000, 0.000000000000000000, 153.0000000000000000 ) ) ;
#138 = DATE_AND_TIME ( #113, #351 ) ;
#139 = VECTOR ( 'NONE', #255, 1000.000000000000000 ) ;
#140 = DIRECTION ( 'NONE',  ( 1.224646799147353207E-16, 1.000000000000000000, -0.000000000000000000 ) ) ;
#141 = PERSON_AND_ORGANIZATION_ROLE ( 'design_owner' ) ;
#142 = PLANE ( 'NONE',  #358 ) ;
#143 = PRODUCT_DEFINITION ( 'NEZNÁMÝ', '', #381, #267 ) ;
#144 = DIRECTION ( 'NONE',  ( 0.000000000000000000, 0.000000000000000000, 1.000000000000000000 ) ) ;
#145 = LOCAL_TIME ( 11, 17, 22.00000000000000000, #217 ) ;
#146 = ORIENTED_EDGE ( 'NONE', *, *, #66, .F. ) ;
#147 = CARTESIAN_POINT ( 'NONE',  ( -2.799999999999999822, 3.429011037612589276E-16, 2.999999999999998668 ) ) ;
#148 = VECTOR ( 'NONE', #250, 1000.000000000000000 ) ;
#149 = ADVANCED_FACE ( 'NONE', ( #376 ), #341, .T. ) ;
#150 = CIRCLE ( 'NONE', #370, 5.000000000000000000 ) ;
#151 = EDGE_CURVE ( 'NONE', #189, #380, #130, .T. ) ;
#152 = APPLICATION_PROTOCOL_DEFINITION ( 'international standard', 'config_control_design', 1994, #17 ) ;
#153 = CC_DESIGN_APPROVAL ( #25, ( #381 ) ) ;
#154 =( NAMED_UNIT ( * ) SI_UNIT ( $, .STERADIAN. ) SOLID_ANGLE_UNIT ( ) );
#155 = DIRECTION ( 'NONE',  ( 1.000000000000000000, 0.000000000000000000, -0.000000000000000000 ) ) ;
#156 = ADVANCED_FACE ( 'NONE', ( #374 ), #262, .F. ) ;
#157 = DIRECTION ( 'NONE',  ( 0.000000000000000000, 0.000000000000000000, 1.000000000000000000 ) ) ;
#158 = CARTESIAN_POINT ( 'NONE',  ( 2.500000000000000000, 3.061616997868383141E-16, 3.299999999999997158 ) ) ;
#159 = DIRECTION ( 'NONE',  ( 0.000000000000000000, 0.000000000000000000, 1.000000000000000000 ) ) ;
#160 = DIRECTION ( 'NONE',  ( 1.000000000000000000, 0.000000000000000000, 0.000000000000000000 ) ) ;
#161 = DIRECTION ( 'NONE',  ( 1.000000000000000000, 0.000000000000000000, 0.000000000000000000 ) ) ;
#162 = CALENDAR_DATE ( 2022, 10, 7 ) ;
#163 = ORIENTED_EDGE ( 'NONE', *, *, #215, .T. ) ;
#164 = VERTEX_POINT ( 'NONE', #147 ) ;
#165 = AXIS2_PLACEMENT_3D ( 'NONE', #315, #49, #168 ) ;
#166 = FACE_OUTER_BOUND ( 'NONE', #272, .T. ) ;
#167 = PERSON_AND_ORGANIZATION ( #11, #238 ) ;
#168 = DIRECTION ( 'NONE',  ( 0.000000000000000000, 0.000000000000000000, -1.000000000000000000 ) ) ;
#169 = APPROVAL_ROLE ( '' ) ;
#170 = EDGE_CURVE ( 'NONE', #122, #329, #90, .T. ) ;
#171 = FACE_BOUND ( 'NONE', #362, .T. ) ;
#172 = ORIENTED_EDGE ( 'NONE', *, *, #101, .T. ) ;
#173 = DIRECTION ( 'NONE',  ( 0.000000000000000000, 0.000000000000000000, 1.000000000000000000 ) ) ;
#174 = DIRECTION ( 'NONE',  ( -1.000000000000000000, 0.000000000000000000, 0.000000000000000000 ) ) ;
#175 = ADVANCED_FACE ( 'NONE', ( #378 ), #286, .T. ) ;
#176 = ORIENTED_EDGE ( 'NONE', *, *, #151, .F. ) ;
#177 = EDGE_CURVE ( 'NONE', #310, #189, #317, .T. ) ;
#178 = UNCERTAINTY_MEASURE_WITH_UNIT (LENGTH_MEASURE( 1.000000000000000082E-05 ), #97, 'distance_accuracy_value', 'NONE');
#179 = AXIS2_PLACEMENT_3D ( 'NONE', #234, #119, #24 ) ;
#180 = DIRECTION ( 'NONE',  ( 1.000000000000000000, 0.000000000000000000, 0.000000000000000000 ) ) ;
#181 = EDGE_CURVE ( 'NONE', #320, #347, #268, .T. ) ;
#182 = CARTESIAN_POINT ( 'NONE',  ( 0.000000000000000000, 0.000000000000000000, 0.000000000000000000 ) ) ;
#183 = CARTESIAN_POINT ( 'NONE',  ( 0.000000000000000000, 0.000000000000000000, 153.0000000000000000 ) ) ;
#184 = LINE ( 'NONE', #276, #139 ) ;
#185 = ORIENTED_EDGE ( 'NONE', *, *, #61, .T. ) ;
#186 = EDGE_LOOP ( 'NONE', ( #118, #228 ) ) ;
#187 = CC_DESIGN_SECURITY_CLASSIFICATION ( #353, ( #381 ) ) ;
#188 = CC_DESIGN_PERSON_AND_ORGANIZATION_ASSIGNMENT ( #167, #115, ( #143 ) ) ;
#189 = VERTEX_POINT ( 'NONE', #85 ) ;
#190 = ORIENTED_EDGE ( 'NONE', *, *, #377, .T. ) ;
#191 = CALENDAR_DATE ( 2022, 10, 7 ) ;
#192 = AXIS2_PLACEMENT_3D ( 'NONE', #182, #15, #161 ) ;
#193 = CARTESIAN_POINT ( 'NONE',  ( 1.500000000000000222, 1.836970198721030181E-16, 0.000000000000000000 ) ) ;
#194 = APPROVAL_STATUS ( 'not_yet_approved' ) ;
#195 = DIRECTION ( 'NONE',  ( 0.000000000000000000, 0.000000000000000000, -1.000000000000000000 ) ) ;
#196 = COORDINATED_UNIVERSAL_TIME_OFFSET ( 1, 0, .AHEAD. ) ;
#197 = AXIS2_PLACEMENT_3D ( 'NONE', #330, #30, #212 ) ;
#198 = DIRECTION ( 'NONE',  ( 0.000000000000000000, 0.000000000000000000, 1.000000000000000000 ) ) ;
#199 = COORDINATED_UNIVERSAL_TIME_OFFSET ( 1, 0, .AHEAD. ) ;
#200 = DIRECTION ( 'NONE',  ( -0.000000000000000000, -0.000000000000000000, -1.000000000000000000 ) ) ;
#201 = DIRECTION ( 'NONE',  ( -0.000000000000000000, -0.000000000000000000, -1.000000000000000000 ) ) ;
#202 = FACE_OUTER_BOUND ( 'NONE', #274, .T. ) ;
#203 = LOCAL_TIME ( 11, 17, 22.00000000000000000, #278 ) ;
#204 = EDGE_CURVE ( 'NONE', #371, #135, #282, .T. ) ;
#205 = ORIENTED_EDGE ( 'NONE', *, *, #88, .T. ) ;
#206 = MANIFOLD_SOLID_BREP ( 'Odebrat vysunutím3', #230 ) ;
#207 = DIRECTION ( 'NONE',  ( -1.000000000000000000, 0.000000000000000000, 0.000000000000000000 ) ) ;
#208 = EDGE_CURVE ( 'NONE', #380, #189, #246, .T. ) ;
#209 = CARTESIAN_POINT ( 'NONE',  ( 0.000000000000000000, 0.000000000000000000, 153.0000000000000000 ) ) ;
#210 = CARTESIAN_POINT ( 'NONE',  ( 0.000000000000000000, 0.000000000000000000, 153.0000000000000000 ) ) ;
#211 = EDGE_LOOP ( 'NONE', ( #307, #260, #300, #218 ) ) ;
#212 = DIRECTION ( 'NONE',  ( 1.000000000000000000, 0.000000000000000000, 0.000000000000000000 ) ) ;
#213 = ORIENTED_EDGE ( 'NONE', *, *, #151, .T. ) ;
#214 = ORIENTED_EDGE ( 'NONE', *, *, #88, .F. ) ;
#215 = EDGE_CURVE ( 'NONE', #380, #125, #304, .T. ) ;
#216 = ORIENTED_EDGE ( 'NONE', *, *, #215, .F. ) ;
#217 = COORDINATED_UNIVERSAL_TIME_OFFSET ( 1, 0, .AHEAD. ) ;
#218 = ORIENTED_EDGE ( 'NONE', *, *, #177, .F. ) ;
#219 = CIRCLE ( 'NONE', #334, 1.500000000000000222 ) ;
#220 = DIRECTION ( 'NONE',  ( -0.000000000000000000, -0.000000000000000000, -1.000000000000000000 ) ) ;
#221 = APPROVAL_DATE_TIME ( #109, #336 ) ;
#222 = DIRECTION ( 'NONE',  ( 1.000000000000000000, 0.000000000000000000, 0.000000000000000000 ) ) ;
#223 = APPLICATION_PROTOCOL_DEFINITION ( 'international standard', 'config_control_design', 1994, #242 ) ;
#224 = ADVANCED_BREP_SHAPE_REPRESENTATION ( '159e', ( #206, #70 ), #47 ) ;
#225 = DIRECTION ( 'NONE',  ( 1.000000000000000000, 0.000000000000000000, 0.000000000000000000 ) ) ;
#226 = COORDINATED_UNIVERSAL_TIME_OFFSET ( 1, 0, .AHEAD. ) ;
#227 = ADVANCED_FACE ( 'NONE', ( #86, #202 ), #142, .T. ) ;
#228 = ORIENTED_EDGE ( 'NONE', *, *, #288, .T. ) ;
#229 = CARTESIAN_POINT ( 'NONE',  ( 0.000000000000000000, 0.000000000000000000, 3.299999999999997158 ) ) ;
#230 = CLOSED_SHELL ( 'NONE', ( #37, #293, #131, #149, #175, #227, #237, #323, #84, #156, #263 ) ) ;
#231 = DIRECTION ( 'NONE',  ( 1.000000000000000000, 0.000000000000000000, 0.000000000000000000 ) ) ;
#232 = AXIS2_PLACEMENT_3D ( 'NONE', #54, #58, #225 ) ;
#233 = CC_DESIGN_PERSON_AND_ORGANIZATION_ASSIGNMENT ( #14, #77, ( #381 ) ) ;
#234 = CARTESIAN_POINT ( 'NONE',  ( 0.000000000000000000, 0.000000000000000000, 3.000000000000000000 ) ) ;
#235 = ORIENTED_EDGE ( 'NONE', *, *, #266, .T. ) ;
#236 = APPROVAL_PERSON_ORGANIZATION ( #81, #366, #73 ) ;
#237 = ADVANCED_FACE ( 'NONE', ( #171, #259 ), #32, .F. ) ;
#238 = ORGANIZATION ( 'NEURÈENÝ', 'NEURÈENÝ', '' ) ;
#239 = ORIENTED_EDGE ( 'NONE', *, *, #60, .T. ) ;
#240 = FACE_OUTER_BOUND ( 'NONE', #346, .T. ) ;
#241 = DIRECTION ( 'NONE',  ( 0.000000000000000000, 0.000000000000000000, 1.000000000000000000 ) ) ;
#242 = APPLICATION_CONTEXT ( 'configuration controlled 3d designs of mechanical parts and assemblies' ) ;
#243 = ORIENTED_EDGE ( 'NONE', *, *, #101, .F. ) ;
#244 = ORIENTED_EDGE ( 'NONE', *, *, #266, .F. ) ;
#245 = AXIS2_PLACEMENT_3D ( 'NONE', #345, #173, #19 ) ;
#246 = CIRCLE ( 'NONE', #326, 2.500000000000000000 ) ;
#247 = AXIS2_PLACEMENT_3D ( 'NONE', #379, #201, #174 ) ;
#248 = CARTESIAN_POINT ( 'NONE',  ( 2.500000000000000000, 3.061616997868383141E-16, 153.0000000000000000 ) ) ;
#249 = EDGE_CURVE ( 'NONE', #75, #380, #332, .T. ) ;
#250 = DIRECTION ( 'NONE',  ( 0.000000000000000000, 0.000000000000000000, -1.000000000000000000 ) ) ;
#251 = LINE ( 'NONE', #367, #328 ) ;
#252 = ORIENTED_EDGE ( 'NONE', *, *, #249, .F. ) ;
#253 = PERSON_AND_ORGANIZATION ( #11, #238 ) ;
#254 = AXIS2_PLACEMENT_3D ( 'NONE', #209, #271, #273 ) ;
#255 = DIRECTION ( 'NONE',  ( 0.000000000000000000, 0.000000000000000000, -1.000000000000000000 ) ) ;
#256 = SHAPE_DEFINITION_REPRESENTATION ( #375, #224 ) ;
#257 = DIRECTION ( 'NONE',  ( -0.000000000000000000, -0.000000000000000000, -1.000000000000000000 ) ) ;
#258 = DIRECTION ( 'NONE',  ( 1.000000000000000000, 0.000000000000000000, 0.000000000000000000 ) ) ;
#259 = FACE_OUTER_BOUND ( 'NONE', #331, .T. ) ;
#260 = ORIENTED_EDGE ( 'NONE', *, *, #249, .T. ) ;
#261 = DIRECTION ( 'NONE',  ( 1.000000000000000000, 0.000000000000000000, 0.000000000000000000 ) ) ;
#262 = TOROIDAL_SURFACE ( 'NONE', #306, 2.799999999999999822, 0.2999999999999999889 ) ;
#263 = ADVANCED_FACE ( 'NONE', ( #36 ), #327, .F. ) ;
#264 = CARTESIAN_POINT ( 'NONE',  ( 0.000000000000000000, 0.000000000000000000, 3.000000000000000000 ) ) ;
#265 = AXIS2_PLACEMENT_3D ( 'NONE', #284, #5, #102 ) ;
#266 = EDGE_CURVE ( 'NONE', #164, #125, #89, .T. ) ;
#267 = DESIGN_CONTEXT ( 'detailed design', #242, 'design' ) ;
#268 = CIRCLE ( 'NONE', #121, 5.000000000000000000 ) ;
#269 = DIRECTION ( 'NONE',  ( 0.000000000000000000, 0.000000000000000000, 1.000000000000000000 ) ) ;
#270 = PRODUCT_RELATED_PRODUCT_CATEGORY ( 'detail', '', ( #79 ) ) ;
#271 = DIRECTION ( 'NONE',  ( 0.000000000000000000, 0.000000000000000000, -1.000000000000000000 ) ) ;
#272 = EDGE_LOOP ( 'NONE', ( #190, #26, #72, #350 ) ) ;
#273 = DIRECTION ( 'NONE',  ( -1.000000000000000000, 0.000000000000000000, 0.000000000000000000 ) ) ;
#274 = EDGE_LOOP ( 'NONE', ( #53, #185 ) ) ;
#275 = DIRECTION ( 'NONE',  ( 1.000000000000000000, 0.000000000000000000, -0.000000000000000000 ) ) ;
#276 = CARTESIAN_POINT ( 'NONE',  ( -1.500000000000000222, 0.000000000000000000, 153.0000000000000000 ) ) ;
#277 = ORIENTED_EDGE ( 'NONE', *, *, #295, .T. ) ;
#278 = COORDINATED_UNIVERSAL_TIME_OFFSET ( 1, 0, .AHEAD. ) ;
#279 = CARTESIAN_POINT ( 'NONE',  ( 1.500000000000000222, 1.836970198721030181E-16, 153.0000000000000000 ) ) ;
#280 = EDGE_LOOP ( 'NONE', ( #361, #205, #35, #243 ) ) ;
#281 = MECHANICAL_CONTEXT ( 'NONE', #17, 'mechanical' ) ;
#282 = CIRCLE ( 'NONE', #245, 5.000000000000000000 ) ;
#283 = CC_DESIGN_PERSON_AND_ORGANIZATION_ASSIGNMENT ( #335, #42, ( #381 ) ) ;
#284 = CARTESIAN_POINT ( 'NONE',  ( 0.000000000000000000, 0.000000000000000000, 0.000000000000000000 ) ) ;
#285 = CALENDAR_DATE ( 2022, 10, 7 ) ;
#286 = CYLINDRICAL_SURFACE ( 'NONE', #179, 5.000000000000000000 ) ;
#287 = DIRECTION ( 'NONE',  ( -0.000000000000000000, -0.000000000000000000, -1.000000000000000000 ) ) ;
#288 = EDGE_CURVE ( 'NONE', #75, #310, #27, .T. ) ;
#289 = DIRECTION ( 'NONE',  ( 0.000000000000000000, 0.000000000000000000, 1.000000000000000000 ) ) ;
#290 = ORIENTED_EDGE ( 'NONE', *, *, #204, .F. ) ;
#291 = CIRCLE ( 'NONE', #110, 0.2999999999999999334 ) ;
#292 = CARTESIAN_POINT ( 'NONE',  ( 0.000000000000000000, 0.000000000000000000, 3.000000000000000000 ) ) ;
#293 = ADVANCED_FACE ( 'NONE', ( #6 ), #23, .F. ) ;
#294 = AXIS2_PLACEMENT_3D ( 'NONE', #357, #305, #93 ) ;
#295 = EDGE_CURVE ( 'NONE', #68, #299, #219, .T. ) ;
#296 = ORIENTED_EDGE ( 'NONE', *, *, #170, .F. ) ;
#297 = DIRECTION ( 'NONE',  ( -0.000000000000000000, -0.000000000000000000, -1.000000000000000000 ) ) ;
#298 = DIRECTION ( 'NONE',  ( 0.000000000000000000, 0.000000000000000000, 1.000000000000000000 ) ) ;
#299 = VERTEX_POINT ( 'NONE', #65 ) ;
#300 = ORIENTED_EDGE ( 'NONE', *, *, #208, .T. ) ;
#301 = DIRECTION ( 'NONE',  ( 0.000000000000000000, 0.000000000000000000, 1.000000000000000000 ) ) ;
#302 = EDGE_CURVE ( 'NONE', #310, #75, #31, .T. ) ;
#303 = FACE_OUTER_BOUND ( 'NONE', #186, .T. ) ;
#304 = CIRCLE ( 'NONE', #165, 0.2999999999999999334 ) ;
#305 = DIRECTION ( 'NONE',  ( 0.000000000000000000, 0.000000000000000000, 1.000000000000000000 ) ) ;
#306 = AXIS2_PLACEMENT_3D ( 'NONE', #348, #52, #261 ) ;
#307 = ORIENTED_EDGE ( 'NONE', *, *, #288, .F. ) ;
#308 = APPROVAL_DATE_TIME ( #45, #25 ) ;
#309 = FACE_OUTER_BOUND ( 'NONE', #211, .T. ) ;
#310 = VERTEX_POINT ( 'NONE', #132 ) ;
#311 = DATE_TIME_ROLE ( 'classification_date' ) ;
#312 = CARTESIAN_POINT ( 'NONE',  ( 0.000000000000000000, 0.000000000000000000, 153.0000000000000000 ) ) ;
#313 = PERSON_AND_ORGANIZATION ( #11, #238 ) ;
#314 = CC_DESIGN_APPROVAL ( #366, ( #143 ) ) ;
#315 = CARTESIAN_POINT ( 'NONE',  ( 2.799999999999999822, 0.000000000000000000, 3.299999999999997158 ) ) ;
#316 = SECURITY_CLASSIFICATION_LEVEL ( 'unclassified' ) ;
#317 = LINE ( 'NONE', #349, #94 ) ;
#318 = DIRECTION ( 'NONE',  ( 1.000000000000000000, 0.000000000000000000, -0.000000000000000000 ) ) ;
#319 = VECTOR ( 'NONE', #257, 1000.000000000000000 ) ;
#320 = VERTEX_POINT ( 'NONE', #325 ) ;
#321 = APPROVAL_PERSON_ORGANIZATION ( #10, #25, #136 ) ;
#322 = AXIS2_PLACEMENT_3D ( 'NONE', #137, #195, #7 ) ;
#323 = ADVANCED_FACE ( 'NONE', ( #240 ), #92, .T. ) ;
#324 = DIRECTION ( 'NONE',  ( -0.000000000000000000, -0.000000000000000000, -1.000000000000000000 ) ) ;
#325 = CARTESIAN_POINT ( 'NONE',  ( -5.000000000000000000, 0.000000000000000000, 3.000000000000000000 ) ) ;
#326 = AXIS2_PLACEMENT_3D ( 'NONE', #229, #289, #82 ) ;
#327 = CYLINDRICAL_SURFACE ( 'NONE', #254, 1.500000000000000222 ) ;
#328 = VECTOR ( 'NONE', #220, 1000.000000000000000 ) ;
#329 = VERTEX_POINT ( 'NONE', #360 ) ;
#330 = CARTESIAN_POINT ( 'NONE',  ( 0.000000000000000000, 0.000000000000000000, 153.0000000000000000 ) ) ;
#331 = EDGE_LOOP ( 'NONE', ( #290, #359 ) ) ;
#332 = LINE ( 'NONE', #69, #128 ) ;
#333 = CARTESIAN_POINT ( 'NONE',  ( 0.000000000000000000, 0.000000000000000000, 3.000000000000000000 ) ) ;
#334 = AXIS2_PLACEMENT_3D ( 'NONE', #356, #269, #4 ) ;
#335 = PERSON_AND_ORGANIZATION ( #11, #238 ) ;
#336 = APPROVAL ( #48, 'NEURÈENÝ' ) ;
#337 = CARTESIAN_POINT ( 'NONE',  ( 0.000000000000000000, 0.000000000000000000, 3.000000000000000000 ) ) ;
#338 = EDGE_LOOP ( 'NONE', ( #44, #235 ) ) ;
#339 = CARTESIAN_POINT ( 'NONE',  ( 2.799999999999999822, 0.000000000000000000, 2.999999999999998668 ) ) ;
#340 = DATE_TIME_ROLE ( 'creation_date' ) ;
#341 = CYLINDRICAL_SURFACE ( 'NONE', #247, 5.000000000000000000 ) ;
#342 = APPROVAL_DATE_TIME ( #16, #366 ) ;
#343 = CIRCLE ( 'NONE', #105, 1.500000000000000222 ) ;
#344 = AXIS2_PLACEMENT_3D ( 'NONE', #80, #198, #114 ) ;
#345 = CARTESIAN_POINT ( 'NONE',  ( 0.000000000000000000, 0.000000000000000000, 0.000000000000000000 ) ) ;
#346 = EDGE_LOOP ( 'NONE', ( #252, #76, #103, #213 ) ) ;
#347 = VERTEX_POINT ( 'NONE', #39 ) ;
#348 = CARTESIAN_POINT ( 'NONE',  ( 0.000000000000000000, 0.000000000000000000, 3.299999999999997158 ) ) ;
#349 = CARTESIAN_POINT ( 'NONE',  ( -2.500000000000000000, 0.000000000000000000, 153.0000000000000000 ) ) ;
#350 = ORIENTED_EDGE ( 'NONE', *, *, #60, .F. ) ;
#351 = LOCAL_TIME ( 11, 17, 22.00000000000000000, #196 ) ;
#352 = CC_DESIGN_PERSON_AND_ORGANIZATION_ASSIGNMENT ( #313, #141, ( #79 ) ) ;
#353 = SECURITY_CLASSIFICATION ( '', '', #316 ) ;
#354 = CARTESIAN_POINT ( 'NONE',  ( 0.000000000000000000, 0.000000000000000000, 153.0000000000000000 ) ) ;
#355 = CIRCLE ( 'NONE', #192, 5.000000000000000000 ) ;
#356 = CARTESIAN_POINT ( 'NONE',  ( 0.000000000000000000, 0.000000000000000000, 153.0000000000000000 ) ) ;
#357 = CARTESIAN_POINT ( 'NONE',  ( 0.000000000000000000, 0.000000000000000000, 3.299999999999997158 ) ) ;
#358 = AXIS2_PLACEMENT_3D ( 'NONE', #264, #144, #318 ) ;
#359 = ORIENTED_EDGE ( 'NONE', *, *, #33, .F. ) ;
#360 = CARTESIAN_POINT ( 'NONE',  ( -1.500000000000000222, 0.000000000000000000, 0.000000000000000000 ) ) ;
#361 = ORIENTED_EDGE ( 'NONE', *, *, #61, .F. ) ;
#362 = EDGE_LOOP ( 'NONE', ( #41, #296 ) ) ;
#363 = CARTESIAN_POINT ( 'NONE',  ( 0.000000000000000000, 0.000000000000000000, 153.0000000000000000 ) ) ;
#364 = ORIENTED_EDGE ( 'NONE', *, *, #66, .T. ) ;
#365 = DATE_AND_TIME ( #162, #1 ) ;
#366 = APPROVAL ( #194, 'NEURÈENÝ' ) ;
#367 = CARTESIAN_POINT ( 'NONE',  ( -5.000000000000000000, 0.000000000000000000, 3.000000000000000000 ) ) ;
#368 = APPROVAL_PERSON_ORGANIZATION ( #253, #336, #169 ) ;
#369 = CALENDAR_DATE ( 2022, 10, 7 ) ;
#370 = AXIS2_PLACEMENT_3D ( 'NONE', #333, #157, #112 ) ;
#371 = VERTEX_POINT ( 'NONE', #2 ) ;
#372 = EDGE_LOOP ( 'NONE', ( #214, #55, #172, #83 ) ) ;
#373 = PERSON_AND_ORGANIZATION_ROLE ( 'classification_officer' ) ;
#374 = FACE_OUTER_BOUND ( 'NONE', #20, .T. ) ;
#375 = PRODUCT_DEFINITION_SHAPE ( 'NONE', 'NONE',  #143 ) ;
#376 = FACE_OUTER_BOUND ( 'NONE', #280, .T. ) ;
#377 = EDGE_CURVE ( 'NONE', #299, #68, #343, .T. ) ;
#378 = FACE_OUTER_BOUND ( 'NONE', #372, .T. ) ;
#379 = CARTESIAN_POINT ( 'NONE',  ( 0.000000000000000000, 0.000000000000000000, 3.000000000000000000 ) ) ;
#380 = VERTEX_POINT ( 'NONE', #158 ) ;
#381 = PRODUCT_DEFINITION_FORMATION_WITH_SPECIFIED_SOURCE ( 'LIBOVOLNÝ', '', #79, .NOT_KNOWN. ) ;
ENDSEC;
END-ISO-10303-21;
