ISO-10303-21;
HEADER;
FILE_DESCRIPTION (( 'STEP AP203' ),
    '1' );
FILE_NAME ('28b1.STEP',
    '2022-07-10T09:00:33',
    ( '' ),
    ( '' ),
    'SwSTEP 2.0',
    'SolidWorks 2019',
    '' );
FILE_SCHEMA (( 'CONFIG_CONTROL_DESIGN' ));
ENDSEC;

DATA;
#1 = CARTESIAN_POINT ( 'NONE',  ( 0.000000000000000000, 0.000000000000000000, 257.0000000000000000 ) ) ;
#2 = ORIENTED_EDGE ( 'NONE', *, *, #232, .T. ) ;
#3 = CARTESIAN_POINT ( 'NONE',  ( 0.000000000000000000, 0.000000000000000000, 7.000000000000000000 ) ) ;
#4 = ORIENTED_EDGE ( 'NONE', *, *, #357, .T. ) ;
#5 = DIRECTION ( 'NONE',  ( -1.000000000000000000, 0.000000000000000000, 0.000000000000000000 ) ) ;
#6 = CIRCLE ( 'NONE', #20, 11.00000000000000000 ) ;
#7 = LOCAL_TIME ( 11, 0, 33.00000000000000000, #192 ) ;
#8 = DIRECTION ( 'NONE',  ( -0.000000000000000000, -0.000000000000000000, -1.000000000000000000 ) ) ;
#9 = EDGE_CURVE ( 'NONE', #234, #221, #317, .T. ) ;
#10 = COORDINATED_UNIVERSAL_TIME_OFFSET ( 1, 0, .AHEAD. ) ;
#11 = ORIENTED_EDGE ( 'NONE', *, *, #217, .F. ) ;
#12 = DIRECTION ( 'NONE',  ( 0.000000000000000000, 0.000000000000000000, 1.000000000000000000 ) ) ;
#13 = CC_DESIGN_SECURITY_CLASSIFICATION ( #80, ( #240 ) ) ;
#14 = DIRECTION ( 'NONE',  ( 0.000000000000000000, 0.000000000000000000, -1.000000000000000000 ) ) ;
#15 = EDGE_LOOP ( 'NONE', ( #121, #276 ) ) ;
#16 = DIRECTION ( 'NONE',  ( 0.000000000000000000, 0.000000000000000000, 1.000000000000000000 ) ) ;
#17 = VERTEX_POINT ( 'NONE', #244 ) ;
#18 = CALENDAR_DATE ( 2022, 10, 7 ) ;
#19 = ORIENTED_EDGE ( 'NONE', *, *, #123, .F. ) ;
#20 = AXIS2_PLACEMENT_3D ( 'NONE', #21, #369, #54 ) ;
#21 = CARTESIAN_POINT ( 'NONE',  ( 0.000000000000000000, 0.000000000000000000, 0.000000000000000000 ) ) ;
#22 = PRODUCT_DEFINITION ( 'NEZNÁMÝ', '', #240, #27 ) ;
#23 = CARTESIAN_POINT ( 'NONE',  ( 7.000000000000000888, 8.572527594031474176E-16, 257.0000000000000000 ) ) ;
#24 = DATE_AND_TIME ( #130, #246 ) ;
#25 = DIRECTION ( 'NONE',  ( 1.000000000000000000, 0.000000000000000000, -0.000000000000000000 ) ) ;
#26 = AXIS2_PLACEMENT_3D ( 'NONE', #324, #34, #5 ) ;
#27 = DESIGN_CONTEXT ( 'detailed design', #105, 'design' ) ;
#28 = APPROVAL ( #55, 'NEURÈENÝ' ) ;
#29 = CARTESIAN_POINT ( 'NONE',  ( 0.000000000000000000, 0.000000000000000000, 257.0000000000000000 ) ) ;
#30 = AXIS2_PLACEMENT_3D ( 'NONE', #157, #14, #156 ) ;
#31 = CYLINDRICAL_SURFACE ( 'NONE', #289, 7.000000000000000888 ) ;
#32 = DIRECTION ( 'NONE',  ( 1.000000000000000000, 0.000000000000000000, 0.000000000000000000 ) ) ;
#33 = ORIENTED_EDGE ( 'NONE', *, *, #123, .T. ) ;
#34 = DIRECTION ( 'NONE',  ( -0.000000000000000000, -0.000000000000000000, -1.000000000000000000 ) ) ;
#35 = FACE_OUTER_BOUND ( 'NONE', #110, .T. ) ;
#36 = EDGE_CURVE ( 'NONE', #193, #134, #360, .T. ) ;
#37 = DIRECTION ( 'NONE',  ( 1.000000000000000000, 0.000000000000000000, 0.000000000000000000 ) ) ;
#38 = CARTESIAN_POINT ( 'NONE',  ( 5.000000000000000000, 6.123233995736766282E-16, 0.000000000000000000 ) ) ;
#39 = ORIENTED_EDGE ( 'NONE', *, *, #36, .T. ) ;
#40 = EDGE_CURVE ( 'NONE', #100, #320, #347, .T. ) ;
#41 = CALENDAR_DATE ( 2022, 10, 7 ) ;
#42 = EDGE_LOOP ( 'NONE', ( #108, #11, #39, #45 ) ) ;
#43 = ORGANIZATION ( 'NEURÈENÝ', 'NEURÈENÝ', '' ) ;
#44 = DIRECTION ( 'NONE',  ( 0.000000000000000000, 0.000000000000000000, 1.000000000000000000 ) ) ;
#45 = ORIENTED_EDGE ( 'NONE', *, *, #53, .T. ) ;
#46 = DIRECTION ( 'NONE',  ( -1.000000000000000000, 1.224646799147351975E-16, 0.000000000000000000 ) ) ;
#47 = DIRECTION ( 'NONE',  ( 1.000000000000000000, 0.000000000000000000, 0.000000000000000000 ) ) ;
#48 = SHAPE_DEFINITION_REPRESENTATION ( #64, #166 ) ;
#49 = EDGE_LOOP ( 'NONE', ( #132, #4, #364, #251 ) ) ;
#50 = AXIS2_PLACEMENT_3D ( 'NONE', #233, #270, #236 ) ;
#51 = CC_DESIGN_DATE_AND_TIME_ASSIGNMENT ( #308, #253, ( #22 ) ) ;
#52 = CARTESIAN_POINT ( 'NONE',  ( -7.000000000000000888, 0.000000000000000000, 7.700000000000012612 ) ) ;
#53 = EDGE_CURVE ( 'NONE', #134, #17, #312, .T. ) ;
#54 = DIRECTION ( 'NONE',  ( 1.000000000000000000, 0.000000000000000000, 0.000000000000000000 ) ) ;
#55 = APPROVAL_STATUS ( 'not_yet_approved' ) ;
#56 = FACE_OUTER_BOUND ( 'NONE', #219, .T. ) ;
#57 = EDGE_CURVE ( 'NONE', #279, #298, #154, .T. ) ;
#58 = ADVANCED_FACE ( 'NONE', ( #230 ), #143, .F. ) ;
#59 = LINE ( 'NONE', #346, #107 ) ;
#60 = DIRECTION ( 'NONE',  ( 0.000000000000000000, 0.000000000000000000, 1.000000000000000000 ) ) ;
#61 = FACE_OUTER_BOUND ( 'NONE', #93, .T. ) ;
#62 = EDGE_LOOP ( 'NONE', ( #69, #2, #363, #81 ) ) ;
#63 = AXIS2_PLACEMENT_3D ( 'NONE', #381, #352, #125 ) ;
#64 = PRODUCT_DEFINITION_SHAPE ( 'NONE', 'NONE',  #22 ) ;
#65 = CC_DESIGN_APPROVAL ( #229, ( #22 ) ) ;
#66 = CARTESIAN_POINT ( 'NONE',  ( 5.000000000000000000, 6.123233995736766282E-16, 257.0000000000000000 ) ) ;
#67 = ADVANCED_FACE ( 'NONE', ( #115, #56 ), #287, .T. ) ;
#68 = CARTESIAN_POINT ( 'NONE',  ( 11.00000000000000000, 1.347111479062088405E-15, 0.000000000000000000 ) ) ;
#69 = ORIENTED_EDGE ( 'NONE', *, *, #191, .F. ) ;
#70 = EDGE_CURVE ( 'NONE', #268, #248, #59, .T. ) ;
#71 = DIRECTION ( 'NONE',  ( 0.000000000000000000, 0.000000000000000000, 1.000000000000000000 ) ) ;
#72 = DIRECTION ( 'NONE',  ( -1.000000000000000000, 0.000000000000000000, 0.000000000000000000 ) ) ;
#73 = AXIS2_PLACEMENT_3D ( 'NONE', #179, #181, #119 ) ;
#74 = APPLICATION_PROTOCOL_DEFINITION ( 'international standard', 'config_control_design', 1994, #329 ) ;
#75 = ORIENTED_EDGE ( 'NONE', *, *, #273, .T. ) ;
#76 = ADVANCED_FACE ( 'NONE', ( #261 ), #228, .T. ) ;
#77 = CARTESIAN_POINT ( 'NONE',  ( 0.000000000000000000, 0.000000000000000000, 7.000000000000000000 ) ) ;
#78 = FACE_OUTER_BOUND ( 'NONE', #306, .T. ) ;
#79 = ORIENTED_EDGE ( 'NONE', *, *, #118, .T. ) ;
#80 = SECURITY_CLASSIFICATION ( '', '', #257 ) ;
#81 = ORIENTED_EDGE ( 'NONE', *, *, #307, .T. ) ;
#82 = ORIENTED_EDGE ( 'NONE', *, *, #299, .T. ) ;
#83 = CC_DESIGN_PERSON_AND_ORGANIZATION_ASSIGNMENT ( #106, #185, ( #177 ) ) ;
#84 = DIRECTION ( 'NONE',  ( 0.000000000000000000, 0.000000000000000000, 1.000000000000000000 ) ) ;
#85 = EDGE_CURVE ( 'NONE', #268, #169, #135, .T. ) ;
#86 = VECTOR ( 'NONE', #358, 1000.000000000000000 ) ;
#87 = DIRECTION ( 'NONE',  ( 0.000000000000000000, 0.000000000000000000, -1.000000000000000000 ) ) ;
#88 = CALENDAR_DATE ( 2022, 10, 7 ) ;
#89 = AXIS2_PLACEMENT_3D ( 'NONE', #301, #353, #321 ) ;
#90 = CARTESIAN_POINT ( 'NONE',  ( 0.000000000000000000, 0.000000000000000000, 7.000000000000000000 ) ) ;
#91 = FACE_BOUND ( 'NONE', #250, .T. ) ;
#92 = DIRECTION ( 'NONE',  ( -0.000000000000000000, -0.000000000000000000, -1.000000000000000000 ) ) ;
#93 = EDGE_LOOP ( 'NONE', ( #102, #355 ) ) ;
#94 = VECTOR ( 'NONE', #292, 1000.000000000000000 ) ;
#95 = DIRECTION ( 'NONE',  ( 0.000000000000000000, 0.000000000000000000, 1.000000000000000000 ) ) ;
#96 = ORIENTED_EDGE ( 'NONE', *, *, #322, .T. ) ;
#97 = CARTESIAN_POINT ( 'NONE',  ( 7.700000000000001066, 0.000000000000000000, 7.700000000000012612 ) ) ;
#98 = CARTESIAN_POINT ( 'NONE',  ( -11.00000000000000000, 0.000000000000000000, 0.000000000000000000 ) ) ;
#99 = VECTOR ( 'NONE', #122, 1000.000000000000000 ) ;
#100 = VERTEX_POINT ( 'NONE', #286 ) ;
#101 = CARTESIAN_POINT ( 'NONE',  ( 0.000000000000000000, 0.000000000000000000, 0.000000000000000000 ) ) ;
#102 = ORIENTED_EDGE ( 'NONE', *, *, #217, .T. ) ;
#103 = DIRECTION ( 'NONE',  ( -0.000000000000000000, -0.000000000000000000, -1.000000000000000000 ) ) ;
#104 = ADVANCED_FACE ( 'NONE', ( #316 ), #295, .F. ) ;
#105 = APPLICATION_CONTEXT ( 'configuration controlled 3d designs of mechanical parts and assemblies' ) ;
#106 = PERSON_AND_ORGANIZATION ( #288, #43 ) ;
#107 = VECTOR ( 'NONE', #340, 1000.000000000000000 ) ;
#108 = ORIENTED_EDGE ( 'NONE', *, *, #152, .F. ) ;
#109 =( LENGTH_UNIT ( ) NAMED_UNIT ( * ) SI_UNIT ( .MILLI., .METRE. ) );
#110 = EDGE_LOOP ( 'NONE', ( #284, #310, #149, #190 ) ) ;
#111 = PERSON_AND_ORGANIZATION ( #288, #43 ) ;
#112 = CARTESIAN_POINT ( 'NONE',  ( 5.000000000000000000, 6.123233995736766282E-16, 257.0000000000000000 ) ) ;
#113 = APPROVAL_DATE_TIME ( #24, #222 ) ;
#114 = CARTESIAN_POINT ( 'NONE',  ( 11.00000000000000000, 1.347111479062088405E-15, 7.000000000000000000 ) ) ;
#115 = FACE_BOUND ( 'NONE', #325, .T. ) ;
#116 = CARTESIAN_POINT ( 'NONE',  ( 0.000000000000000000, 0.000000000000000000, 7.700000000000012612 ) ) ;
#117 = TOROIDAL_SURFACE ( 'NONE', #327, 7.700000000000001066, 0.6999999999999999556 ) ;
#118 = EDGE_CURVE ( 'NONE', #298, #279, #6, .T. ) ;
#119 = DIRECTION ( 'NONE',  ( 1.000000000000000000, 0.000000000000000000, 0.000000000000000000 ) ) ;
#120 = CARTESIAN_POINT ( 'NONE',  ( -5.000000000000000000, 0.000000000000000000, 0.000000000000000000 ) ) ;
#121 = ORIENTED_EDGE ( 'NONE', *, *, #307, .F. ) ;
#122 = DIRECTION ( 'NONE',  ( 0.000000000000000000, 0.000000000000000000, -1.000000000000000000 ) ) ;
#123 = EDGE_CURVE ( 'NONE', #100, #279, #259, .T. ) ;
#124 = AXIS2_PLACEMENT_3D ( 'NONE', #272, #8, #72 ) ;
#125 = DIRECTION ( 'NONE',  ( 1.000000000000000000, 0.000000000000000000, 0.000000000000000000 ) ) ;
#126 = CARTESIAN_POINT ( 'NONE',  ( 7.700000000000001066, 0.000000000000000000, 7.000000000000006217 ) ) ;
#127 = ORIENTED_EDGE ( 'NONE', *, *, #377, .F. ) ;
#128 = AXIS2_PLACEMENT_3D ( 'NONE', #116, #60, #174 ) ;
#129 = DIRECTION ( 'NONE',  ( 1.000000000000000000, 0.000000000000000000, 0.000000000000000000 ) ) ;
#130 = CALENDAR_DATE ( 2022, 10, 7 ) ;
#131 = ADVANCED_FACE ( 'NONE', ( #227, #256 ), #137, .F. ) ;
#132 = ORIENTED_EDGE ( 'NONE', *, *, #53, .F. ) ;
#133 = CARTESIAN_POINT ( 'NONE',  ( -7.700000000000001066, 9.429780353434621002E-16, 7.700000000000012612 ) ) ;
#134 = VERTEX_POINT ( 'NONE', #52 ) ;
#135 = CIRCLE ( 'NONE', #245, 5.000000000000000000 ) ;
#136 = ORIENTED_EDGE ( 'NONE', *, *, #57, .T. ) ;
#137 = PLANE ( 'NONE',  #182 ) ;
#138 = DIRECTION ( 'NONE',  ( -0.000000000000000000, -0.000000000000000000, -1.000000000000000000 ) ) ;
#139 = PERSON_AND_ORGANIZATION ( #288, #43 ) ;
#140 = CIRCLE ( 'NONE', #188, 11.00000000000000000 ) ;
#141 = AXIS2_PLACEMENT_3D ( 'NONE', #247, #16, #37 ) ;
#142 = DATE_AND_TIME ( #88, #266 ) ;
#143 = CYLINDRICAL_SURFACE ( 'NONE', #172, 5.000000000000000000 ) ;
#144 = DIRECTION ( 'NONE',  ( 0.000000000000000000, 0.000000000000000000, 1.000000000000000000 ) ) ;
#145 = DIRECTION ( 'NONE',  ( 1.000000000000000000, 0.000000000000000000, 0.000000000000000000 ) ) ;
#146 = CIRCLE ( 'NONE', #147, 0.7000000000000000666 ) ;
#147 = AXIS2_PLACEMENT_3D ( 'NONE', #133, #330, #46 ) ;
#148 = CARTESIAN_POINT ( 'NONE',  ( -5.000000000000000000, 0.000000000000000000, 257.0000000000000000 ) ) ;
#149 = ORIENTED_EDGE ( 'NONE', *, *, #377, .T. ) ;
#150 = DIRECTION ( 'NONE',  ( 1.000000000000000000, 0.000000000000000000, 0.000000000000000000 ) ) ;
#151 = DIRECTION ( 'NONE',  ( -1.000000000000000000, 0.000000000000000000, 0.000000000000000000 ) ) ;
#152 = EDGE_CURVE ( 'NONE', #161, #17, #170, .T. ) ;
#153 = CC_DESIGN_DATE_AND_TIME_ASSIGNMENT ( #142, #342, ( #80 ) ) ;
#154 = CIRCLE ( 'NONE', #371, 11.00000000000000000 ) ;
#155 = CARTESIAN_POINT ( 'NONE',  ( -7.000000000000000888, 0.000000000000000000, 257.0000000000000000 ) ) ;
#156 = DIRECTION ( 'NONE',  ( -1.000000000000000000, 0.000000000000000000, 0.000000000000000000 ) ) ;
#157 = CARTESIAN_POINT ( 'NONE',  ( 0.000000000000000000, 0.000000000000000000, 257.0000000000000000 ) ) ;
#158 = CARTESIAN_POINT ( 'NONE',  ( 0.000000000000000000, 0.000000000000000000, 7.000000000000000000 ) ) ;
#159 = VECTOR ( 'NONE', #303, 1000.000000000000000 ) ;
#160 = PERSON_AND_ORGANIZATION ( #288, #43 ) ;
#161 = VERTEX_POINT ( 'NONE', #370 ) ;
#162 = COORDINATED_UNIVERSAL_TIME_OFFSET ( 1, 0, .AHEAD. ) ;
#163 = ORIENTED_EDGE ( 'NONE', *, *, #322, .F. ) ;
#164 = APPROVAL_DATE_TIME ( #280, #229 ) ;
#165 = ORIENTED_EDGE ( 'NONE', *, *, #85, .F. ) ;
#166 = ADVANCED_BREP_SHAPE_REPRESENTATION ( '28b1', ( #187, #348 ), #328 ) ;
#167 = CC_DESIGN_PERSON_AND_ORGANIZATION_ASSIGNMENT ( #218, #338, ( #22 ) ) ;
#168 = AXIS2_PLACEMENT_3D ( 'NONE', #3, #297, #264 ) ;
#169 = VERTEX_POINT ( 'NONE', #112 ) ;
#170 = LINE ( 'NONE', #23, #231 ) ;
#171 = APPROVAL_DATE_TIME ( #375, #28 ) ;
#172 = AXIS2_PLACEMENT_3D ( 'NONE', #201, #87, #349 ) ;
#173 = DIRECTION ( 'NONE',  ( 1.000000000000000000, 0.000000000000000000, -0.000000000000000000 ) ) ;
#174 = DIRECTION ( 'NONE',  ( 1.000000000000000000, 0.000000000000000000, 0.000000000000000000 ) ) ;
#175 = PLANE ( 'NONE',  #239 ) ;
#176 = AXIS2_PLACEMENT_3D ( 'NONE', #29, #269, #150 ) ;
#177 = PRODUCT ( '28b1', '28b1', '', ( #359 ) ) ;
#178 = APPROVAL_PERSON_ORGANIZATION ( #194, #28, #368 ) ;
#179 = CARTESIAN_POINT ( 'NONE',  ( 0.000000000000000000, 0.000000000000000000, 257.0000000000000000 ) ) ;
#180 = EDGE_CURVE ( 'NONE', #320, #298, #224, .T. ) ;
#181 = DIRECTION ( 'NONE',  ( 0.000000000000000000, 0.000000000000000000, 1.000000000000000000 ) ) ;
#182 = AXIS2_PLACEMENT_3D ( 'NONE', #313, #84, #25 ) ;
#183 = APPROVAL_STATUS ( 'not_yet_approved' ) ;
#184 = CARTESIAN_POINT ( 'NONE',  ( -7.000000000000000888, 0.000000000000000000, 257.0000000000000000 ) ) ;
#185 = PERSON_AND_ORGANIZATION_ROLE ( 'design_owner' ) ;
#186 = CARTESIAN_POINT ( 'NONE',  ( 0.000000000000000000, 0.000000000000000000, 7.700000000000012612 ) ) ;
#187 = MANIFOLD_SOLID_BREP ( 'Odebrat vysunutím3', #361 ) ;
#188 = AXIS2_PLACEMENT_3D ( 'NONE', #350, #95, #32 ) ;
#189 = APPROVAL_STATUS ( 'not_yet_approved' ) ;
#190 = ORIENTED_EDGE ( 'NONE', *, *, #36, .F. ) ;
#191 = EDGE_CURVE ( 'NONE', #169, #337, #356, .T. ) ;
#192 = COORDINATED_UNIVERSAL_TIME_OFFSET ( 1, 0, .AHEAD. ) ;
#193 = VERTEX_POINT ( 'NONE', #155 ) ;
#194 = PERSON_AND_ORGANIZATION ( #288, #43 ) ;
#195 = ORIENTED_EDGE ( 'NONE', *, *, #118, .F. ) ;
#196 = CIRCLE ( 'NONE', #73, 7.000000000000000888 ) ;
#197 = CARTESIAN_POINT ( 'NONE',  ( 0.000000000000000000, 0.000000000000000000, 0.000000000000000000 ) ) ;
#198 = PERSON_AND_ORGANIZATION_ROLE ( 'design_supplier' ) ;
#199 = CARTESIAN_POINT ( 'NONE',  ( -11.00000000000000000, 0.000000000000000000, 7.000000000000000000 ) ) ;
#200 = EDGE_CURVE ( 'NONE', #161, #193, #196, .T. ) ;
#201 = CARTESIAN_POINT ( 'NONE',  ( 0.000000000000000000, 0.000000000000000000, 257.0000000000000000 ) ) ;
#202 = DIRECTION ( 'NONE',  ( 1.000000000000000000, 0.000000000000000000, 0.000000000000000000 ) ) ;
#203 = CIRCLE ( 'NONE', #176, 7.000000000000000888 ) ;
#204 = DIRECTION ( 'NONE',  ( 0.000000000000000000, 0.000000000000000000, 1.000000000000000000 ) ) ;
#205 = CARTESIAN_POINT ( 'NONE',  ( -7.700000000000001066, 9.429780353434621002E-16, 7.000000000000006217 ) ) ;
#206 = ORIENTED_EDGE ( 'NONE', *, *, #40, .F. ) ;
#207 = DIRECTION ( 'NONE',  ( 0.000000000000000000, 0.000000000000000000, 1.000000000000000000 ) ) ;
#208 = APPROVAL_PERSON_ORGANIZATION ( #220, #229, #215 ) ;
#209 = CARTESIAN_POINT ( 'NONE',  ( 0.000000000000000000, 0.000000000000000000, 257.0000000000000000 ) ) ;
#210 = FACE_OUTER_BOUND ( 'NONE', #237, .T. ) ;
#211 = CYLINDRICAL_SURFACE ( 'NONE', #124, 7.000000000000000888 ) ;
#212 = CIRCLE ( 'NONE', #63, 5.000000000000000000 ) ;
#213 = ORIENTED_EDGE ( 'NONE', *, *, #180, .T. ) ;
#214 = ORIENTED_EDGE ( 'NONE', *, *, #357, .F. ) ;
#215 = APPROVAL_ROLE ( '' ) ;
#216 = ORIENTED_EDGE ( 'NONE', *, *, #180, .F. ) ;
#217 = EDGE_CURVE ( 'NONE', #193, #161, #203, .T. ) ;
#218 = PERSON_AND_ORGANIZATION ( #288, #43 ) ;
#219 = EDGE_LOOP ( 'NONE', ( #96, #242 ) ) ;
#220 = PERSON_AND_ORGANIZATION ( #288, #43 ) ;
#221 = VERTEX_POINT ( 'NONE', #126 ) ;
#222 = APPROVAL ( #183, 'NEURÈENÝ' ) ;
#223 = AXIS2_PLACEMENT_3D ( 'NONE', #97, #267, #241 ) ;
#224 = LINE ( 'NONE', #199, #86 ) ;
#225 = CIRCLE ( 'NONE', #141, 7.000000000000000888 ) ;
#226 = PERSON_AND_ORGANIZATION ( #288, #43 ) ;
#227 = FACE_BOUND ( 'NONE', #15, .T. ) ;
#228 = CYLINDRICAL_SURFACE ( 'NONE', #341, 11.00000000000000000 ) ;
#229 = APPROVAL ( #189, 'NEURÈENÝ' ) ;
#230 = FACE_OUTER_BOUND ( 'NONE', #62, .T. ) ;
#231 = VECTOR ( 'NONE', #138, 1000.000000000000000 ) ;
#232 = EDGE_CURVE ( 'NONE', #169, #268, #252, .T. ) ;
#233 = CARTESIAN_POINT ( 'NONE',  ( 0.000000000000000000, 0.000000000000000000, 0.000000000000000000 ) ) ;
#234 = VERTEX_POINT ( 'NONE', #205 ) ;
#235 = UNCERTAINTY_MEASURE_WITH_UNIT (LENGTH_MEASURE( 1.000000000000000082E-05 ), #109, 'distance_accuracy_value', 'NONE');
#236 = DIRECTION ( 'NONE',  ( 1.000000000000000000, 0.000000000000000000, 0.000000000000000000 ) ) ;
#237 = EDGE_LOOP ( 'NONE', ( #214, #127, #75, #311 ) ) ;
#238 = ADVANCED_FACE ( 'NONE', ( #35 ), #211, .T. ) ;
#239 = AXIS2_PLACEMENT_3D ( 'NONE', #209, #71, #294 ) ;
#240 = PRODUCT_DEFINITION_FORMATION_WITH_SPECIFIED_SOURCE ( 'LIBOVOLNÝ', '', #177, .NOT_KNOWN. ) ;
#241 = DIRECTION ( 'NONE',  ( 0.000000000000000000, 0.000000000000000000, -1.000000000000000000 ) ) ;
#242 = ORIENTED_EDGE ( 'NONE', *, *, #40, .T. ) ;
#243 = FACE_OUTER_BOUND ( 'NONE', #333, .T. ) ;
#244 = CARTESIAN_POINT ( 'NONE',  ( 7.000000000000000888, 8.572527594031474176E-16, 7.700000000000012612 ) ) ;
#245 = AXIS2_PLACEMENT_3D ( 'NONE', #376, #144, #379 ) ;
#246 = LOCAL_TIME ( 11, 0, 33.00000000000000000, #10 ) ;
#247 = CARTESIAN_POINT ( 'NONE',  ( 0.000000000000000000, 0.000000000000000000, 7.700000000000012612 ) ) ;
#248 = VERTEX_POINT ( 'NONE', #120 ) ;
#249 =( NAMED_UNIT ( * ) PLANE_ANGLE_UNIT ( ) SI_UNIT ( $, .RADIAN. ) );
#250 = EDGE_LOOP ( 'NONE', ( #165, #254 ) ) ;
#251 = ORIENTED_EDGE ( 'NONE', *, *, #273, .F. ) ;
#252 = CIRCLE ( 'NONE', #89, 5.000000000000000000 ) ;
#253 = DATE_TIME_ROLE ( 'creation_date' ) ;
#254 = ORIENTED_EDGE ( 'NONE', *, *, #232, .F. ) ;
#255 = CARTESIAN_POINT ( 'NONE',  ( 0.000000000000000000, 0.000000000000000000, 7.000000000000000000 ) ) ;
#256 = FACE_OUTER_BOUND ( 'NONE', #365, .T. ) ;
#257 = SECURITY_CLASSIFICATION_LEVEL ( 'unclassified' ) ;
#258 = AXIS2_PLACEMENT_3D ( 'NONE', #186, #304, #343 ) ;
#259 = LINE ( 'NONE', #114, #94 ) ;
#260 = CALENDAR_DATE ( 2022, 10, 7 ) ;
#261 = FACE_OUTER_BOUND ( 'NONE', #367, .T. ) ;
#262 = ADVANCED_FACE ( 'NONE', ( #243 ), #319, .T. ) ;
#263 = DIRECTION ( 'NONE',  ( -0.000000000000000000, -0.000000000000000000, -1.000000000000000000 ) ) ;
#264 = DIRECTION ( 'NONE',  ( 1.000000000000000000, 0.000000000000000000, 0.000000000000000000 ) ) ;
#265 = CIRCLE ( 'NONE', #223, 0.7000000000000000666 ) ;
#266 = LOCAL_TIME ( 11, 0, 33.00000000000000000, #373 ) ;
#267 = DIRECTION ( 'NONE',  ( 0.000000000000000000, -1.000000000000000000, 0.000000000000000000 ) ) ;
#268 = VERTEX_POINT ( 'NONE', #148 ) ;
#269 = DIRECTION ( 'NONE',  ( 0.000000000000000000, 0.000000000000000000, 1.000000000000000000 ) ) ;
#270 = DIRECTION ( 'NONE',  ( -0.000000000000000000, -0.000000000000000000, -1.000000000000000000 ) ) ;
#271 = AXIS2_PLACEMENT_3D ( 'NONE', #77, #103, #47 ) ;
#272 = CARTESIAN_POINT ( 'NONE',  ( 0.000000000000000000, 0.000000000000000000, 257.0000000000000000 ) ) ;
#273 = EDGE_CURVE ( 'NONE', #17, #221, #265, .T. ) ;
#274 = PRODUCT_RELATED_PRODUCT_CATEGORY ( 'detail', '', ( #177 ) ) ;
#275 = APPLICATION_PROTOCOL_DEFINITION ( 'international standard', 'config_control_design', 1994, #105 ) ;
#276 = ORIENTED_EDGE ( 'NONE', *, *, #309, .F. ) ;
#277 = CIRCLE ( 'NONE', #50, 5.000000000000000000 ) ;
#278 = APPROVAL_ROLE ( '' ) ;
#279 = VERTEX_POINT ( 'NONE', #68 ) ;
#280 = DATE_AND_TIME ( #18, #296 ) ;
#281 = ORIENTED_EDGE ( 'NONE', *, *, #309, .T. ) ;
#282 =( NAMED_UNIT ( * ) SI_UNIT ( $, .STERADIAN. ) SOLID_ANGLE_UNIT ( ) );
#283 = ORIENTED_EDGE ( 'NONE', *, *, #9, .T. ) ;
#284 = ORIENTED_EDGE ( 'NONE', *, *, #200, .F. ) ;
#285 = PERSON_AND_ORGANIZATION_ROLE ( 'creator' ) ;
#286 = CARTESIAN_POINT ( 'NONE',  ( 11.00000000000000000, 1.347111479062088405E-15, 7.000000000000000000 ) ) ;
#287 = PLANE ( 'NONE',  #380 ) ;
#288 = PERSON ( 'NEURÈENÝ', 'NEURÈENÝ', 'NEURÈENÝ', ('NEURÈENÝ'), ('NEURÈENÝ'), ('NEURÈENÝ') ) ;
#289 = AXIS2_PLACEMENT_3D ( 'NONE', #1, #92, #151 ) ;
#290 = ADVANCED_FACE ( 'NONE', ( #210 ), #117, .F. ) ;
#291 = LOCAL_TIME ( 11, 0, 33.00000000000000000, #314 ) ;
#292 = DIRECTION ( 'NONE',  ( -0.000000000000000000, -0.000000000000000000, -1.000000000000000000 ) ) ;
#293 = CARTESIAN_POINT ( 'NONE',  ( 0.000000000000000000, 0.000000000000000000, 7.700000000000012612 ) ) ;
#294 = DIRECTION ( 'NONE',  ( 1.000000000000000000, 0.000000000000000000, -0.000000000000000000 ) ) ;
#295 = TOROIDAL_SURFACE ( 'NONE', #128, 7.700000000000001066, 0.6999999999999999556 ) ;
#296 = LOCAL_TIME ( 11, 0, 33.00000000000000000, #162 ) ;
#297 = DIRECTION ( 'NONE',  ( -0.000000000000000000, -0.000000000000000000, -1.000000000000000000 ) ) ;
#298 = VERTEX_POINT ( 'NONE', #98 ) ;
#299 = EDGE_CURVE ( 'NONE', #221, #234, #305, .T. ) ;
#300 = FACE_OUTER_BOUND ( 'NONE', #42, .T. ) ;
#301 = CARTESIAN_POINT ( 'NONE',  ( 0.000000000000000000, 0.000000000000000000, 257.0000000000000000 ) ) ;
#302 = DIRECTION ( 'NONE',  ( 1.000000000000000000, 0.000000000000000000, 0.000000000000000000 ) ) ;
#303 = DIRECTION ( 'NONE',  ( -0.000000000000000000, -0.000000000000000000, -1.000000000000000000 ) ) ;
#304 = DIRECTION ( 'NONE',  ( 0.000000000000000000, 0.000000000000000000, 1.000000000000000000 ) ) ;
#305 = CIRCLE ( 'NONE', #168, 7.700000000000001066 ) ;
#306 = EDGE_LOOP ( 'NONE', ( #334, #331, #281, #351 ) ) ;
#307 = EDGE_CURVE ( 'NONE', #248, #337, #212, .T. ) ;
#308 = DATE_AND_TIME ( #41, #7 ) ;
#309 = EDGE_CURVE ( 'NONE', #337, #248, #277, .T. ) ;
#310 = ORIENTED_EDGE ( 'NONE', *, *, #152, .T. ) ;
#311 = ORIENTED_EDGE ( 'NONE', *, *, #9, .F. ) ;
#312 = CIRCLE ( 'NONE', #258, 7.000000000000000888 ) ;
#313 = CARTESIAN_POINT ( 'NONE',  ( 0.000000000000000000, 0.000000000000000000, 0.000000000000000000 ) ) ;
#314 = COORDINATED_UNIVERSAL_TIME_OFFSET ( 1, 0, .AHEAD. ) ;
#315 = CC_DESIGN_PERSON_AND_ORGANIZATION_ASSIGNMENT ( #226, #345, ( #80 ) ) ;
#316 = FACE_OUTER_BOUND ( 'NONE', #49, .T. ) ;
#317 = CIRCLE ( 'NONE', #271, 7.700000000000001066 ) ;
#318 = DIRECTION ( 'NONE',  ( -1.000000000000000000, 0.000000000000000000, 0.000000000000000000 ) ) ;
#319 = CYLINDRICAL_SURFACE ( 'NONE', #26, 11.00000000000000000 ) ;
#320 = VERTEX_POINT ( 'NONE', #326 ) ;
#321 = DIRECTION ( 'NONE',  ( 1.000000000000000000, 0.000000000000000000, 0.000000000000000000 ) ) ;
#322 = EDGE_CURVE ( 'NONE', #320, #100, #140, .T. ) ;
#323 = ADVANCED_FACE ( 'NONE', ( #91, #61 ), #175, .T. ) ;
#324 = CARTESIAN_POINT ( 'NONE',  ( 0.000000000000000000, 0.000000000000000000, 7.000000000000000000 ) ) ;
#325 = EDGE_LOOP ( 'NONE', ( #82, #283 ) ) ;
#326 = CARTESIAN_POINT ( 'NONE',  ( -11.00000000000000000, 0.000000000000000000, 7.000000000000000000 ) ) ;
#327 = AXIS2_PLACEMENT_3D ( 'NONE', #293, #207, #145 ) ;
#328 =( GEOMETRIC_REPRESENTATION_CONTEXT ( 3 ) GLOBAL_UNCERTAINTY_ASSIGNED_CONTEXT ( ( #235 ) ) GLOBAL_UNIT_ASSIGNED_CONTEXT ( ( #109, #249, #282 ) ) REPRESENTATION_CONTEXT ( 'NONE', 'WORKASPACE' ) );
#329 = APPLICATION_CONTEXT ( 'configuration controlled 3d designs of mechanical parts and assemblies' ) ;
#330 = DIRECTION ( 'NONE',  ( 1.224646799147353207E-16, 1.000000000000000000, -0.000000000000000000 ) ) ;
#331 = ORIENTED_EDGE ( 'NONE', *, *, #191, .T. ) ;
#332 = CC_DESIGN_PERSON_AND_ORGANIZATION_ASSIGNMENT ( #111, #285, ( #240 ) ) ;
#333 = EDGE_LOOP ( 'NONE', ( #206, #33, #136, #216 ) ) ;
#334 = ORIENTED_EDGE ( 'NONE', *, *, #85, .T. ) ;
#335 = AXIS2_PLACEMENT_3D ( 'NONE', #158, #12, #129 ) ;
#336 = ADVANCED_FACE ( 'NONE', ( #300 ), #31, .T. ) ;
#337 = VERTEX_POINT ( 'NONE', #38 ) ;
#338 = PERSON_AND_ORGANIZATION_ROLE ( 'creator' ) ;
#339 = ORIENTED_EDGE ( 'NONE', *, *, #57, .F. ) ;
#340 = DIRECTION ( 'NONE',  ( 0.000000000000000000, 0.000000000000000000, -1.000000000000000000 ) ) ;
#341 = AXIS2_PLACEMENT_3D ( 'NONE', #255, #263, #318 ) ;
#342 = DATE_TIME_ROLE ( 'classification_date' ) ;
#343 = DIRECTION ( 'NONE',  ( 1.000000000000000000, 0.000000000000000000, 0.000000000000000000 ) ) ;
#344 = CC_DESIGN_PERSON_AND_ORGANIZATION_ASSIGNMENT ( #139, #198, ( #240 ) ) ;
#345 = PERSON_AND_ORGANIZATION_ROLE ( 'classification_officer' ) ;
#346 = CARTESIAN_POINT ( 'NONE',  ( -5.000000000000000000, 0.000000000000000000, 257.0000000000000000 ) ) ;
#347 = CIRCLE ( 'NONE', #335, 11.00000000000000000 ) ;
#348 = AXIS2_PLACEMENT_3D ( 'NONE', #101, #44, #302 ) ;
#349 = DIRECTION ( 'NONE',  ( -1.000000000000000000, 0.000000000000000000, 0.000000000000000000 ) ) ;
#350 = CARTESIAN_POINT ( 'NONE',  ( 0.000000000000000000, 0.000000000000000000, 7.000000000000000000 ) ) ;
#351 = ORIENTED_EDGE ( 'NONE', *, *, #70, .F. ) ;
#352 = DIRECTION ( 'NONE',  ( -0.000000000000000000, -0.000000000000000000, -1.000000000000000000 ) ) ;
#353 = DIRECTION ( 'NONE',  ( 0.000000000000000000, 0.000000000000000000, 1.000000000000000000 ) ) ;
#354 = APPROVAL_PERSON_ORGANIZATION ( #160, #222, #278 ) ;
#355 = ORIENTED_EDGE ( 'NONE', *, *, #200, .T. ) ;
#356 = LINE ( 'NONE', #66, #99 ) ;
#357 = EDGE_CURVE ( 'NONE', #134, #234, #146, .T. ) ;
#358 = DIRECTION ( 'NONE',  ( -0.000000000000000000, -0.000000000000000000, -1.000000000000000000 ) ) ;
#359 = MECHANICAL_CONTEXT ( 'NONE', #329, 'mechanical' ) ;
#360 = LINE ( 'NONE', #184, #159 ) ;
#361 = CLOSED_SHELL ( 'NONE', ( #378, #104, #238, #262, #76, #67, #131, #336, #323, #290, #58 ) ) ;
#362 = CYLINDRICAL_SURFACE ( 'NONE', #30, 5.000000000000000000 ) ;
#363 = ORIENTED_EDGE ( 'NONE', *, *, #70, .T. ) ;
#364 = ORIENTED_EDGE ( 'NONE', *, *, #299, .F. ) ;
#365 = EDGE_LOOP ( 'NONE', ( #195, #339 ) ) ;
#366 = CC_DESIGN_APPROVAL ( #28, ( #80 ) ) ;
#367 = EDGE_LOOP ( 'NONE', ( #19, #163, #213, #79 ) ) ;
#368 = APPROVAL_ROLE ( '' ) ;
#369 = DIRECTION ( 'NONE',  ( 0.000000000000000000, 0.000000000000000000, 1.000000000000000000 ) ) ;
#370 = CARTESIAN_POINT ( 'NONE',  ( 7.000000000000000888, 8.572527594031474176E-16, 257.0000000000000000 ) ) ;
#371 = AXIS2_PLACEMENT_3D ( 'NONE', #197, #374, #202 ) ;
#372 = CC_DESIGN_APPROVAL ( #222, ( #240 ) ) ;
#373 = COORDINATED_UNIVERSAL_TIME_OFFSET ( 1, 0, .AHEAD. ) ;
#374 = DIRECTION ( 'NONE',  ( 0.000000000000000000, 0.000000000000000000, 1.000000000000000000 ) ) ;
#375 = DATE_AND_TIME ( #260, #291 ) ;
#376 = CARTESIAN_POINT ( 'NONE',  ( 0.000000000000000000, 0.000000000000000000, 257.0000000000000000 ) ) ;
#377 = EDGE_CURVE ( 'NONE', #17, #134, #225, .T. ) ;
#378 = ADVANCED_FACE ( 'NONE', ( #78 ), #362, .F. ) ;
#379 = DIRECTION ( 'NONE',  ( 1.000000000000000000, 0.000000000000000000, 0.000000000000000000 ) ) ;
#380 = AXIS2_PLACEMENT_3D ( 'NONE', #90, #204, #173 ) ;
#381 = CARTESIAN_POINT ( 'NONE',  ( 0.000000000000000000, 0.000000000000000000, 0.000000000000000000 ) ) ;
ENDSEC;
END-ISO-10303-21;
