ISO-10303-21;
HEADER;
FILE_DESCRIPTION (( 'STEP AP203' ),
    '1' );
FILE_NAME ('f7f6.STEP',
    '2022-07-10T09:16:55',
    ( '' ),
    ( '' ),
    'SwSTEP 2.0',
    'SolidWorks 2019',
    '' );
FILE_SCHEMA (( 'CONFIG_CONTROL_DESIGN' ));
ENDSEC;

DATA;
#1 = CARTESIAN_POINT ( 'NONE',  ( 2.799999999999999822, 0.000000000000000000, 2.999999999999998668 ) ) ;
#2 = PRODUCT_DEFINITION_SHAPE ( 'NONE', 'NONE',  #115 ) ;
#3 = CC_DESIGN_APPROVAL ( #212, ( #44 ) ) ;
#4 = DIRECTION ( 'NONE',  ( 0.000000000000000000, 0.000000000000000000, 1.000000000000000000 ) ) ;
#5 = FACE_OUTER_BOUND ( 'NONE', #56, .T. ) ;
#6 = ORIENTED_EDGE ( 'NONE', *, *, #57, .F. ) ;
#7 = EDGE_CURVE ( 'NONE', #281, #245, #215, .T. ) ;
#8 = APPLICATION_PROTOCOL_DEFINITION ( 'international standard', 'config_control_design', 1994, #53 ) ;
#9 = ORIENTED_EDGE ( 'NONE', *, *, #319, .F. ) ;
#10 = DIRECTION ( 'NONE',  ( 1.000000000000000000, 0.000000000000000000, 0.000000000000000000 ) ) ;
#11 = AXIS2_PLACEMENT_3D ( 'NONE', #141, #374, #50 ) ;
#12 = VERTEX_POINT ( 'NONE', #54 ) ;
#13 = DIRECTION ( 'NONE',  ( 1.000000000000000000, 0.000000000000000000, -0.000000000000000000 ) ) ;
#14 = ORIENTED_EDGE ( 'NONE', *, *, #307, .T. ) ;
#15 = ORIENTED_EDGE ( 'NONE', *, *, #7, .T. ) ;
#16 = EDGE_CURVE ( 'NONE', #349, #232, #110, .T. ) ;
#17 = APPROVAL_STATUS ( 'not_yet_approved' ) ;
#18 = DIRECTION ( 'NONE',  ( 1.224646799147353207E-16, 1.000000000000000000, -0.000000000000000000 ) ) ;
#19 = CARTESIAN_POINT ( 'NONE',  ( -5.000000000000000000, 0.000000000000000000, 3.000000000000000000 ) ) ;
#20 = DIRECTION ( 'NONE',  ( 1.000000000000000000, 0.000000000000000000, 0.000000000000000000 ) ) ;
#21 = PLANE ( 'NONE',  #142 ) ;
#22 = SECURITY_CLASSIFICATION_LEVEL ( 'unclassified' ) ;
#23 = CARTESIAN_POINT ( 'NONE',  ( 0.000000000000000000, 0.000000000000000000, 3.000000000000000000 ) ) ;
#24 = CARTESIAN_POINT ( 'NONE',  ( 5.000000000000000000, 6.123233995736766282E-16, 3.000000000000000000 ) ) ;
#25 = APPLICATION_CONTEXT ( 'configuration controlled 3d designs of mechanical parts and assemblies' ) ;
#26 = VERTEX_POINT ( 'NONE', #24 ) ;
#27 = AXIS2_PLACEMENT_3D ( 'NONE', #23, #370, #108 ) ;
#28 = DIRECTION ( 'NONE',  ( -0.000000000000000000, -0.000000000000000000, -1.000000000000000000 ) ) ;
#29 = CARTESIAN_POINT ( 'NONE',  ( -1.500000000000000222, 0.000000000000000000, 203.0000000000000000 ) ) ;
#30 = ORIENTED_EDGE ( 'NONE', *, *, #90, .F. ) ;
#31 = EDGE_CURVE ( 'NONE', #366, #102, #262, .T. ) ;
#32 = DIRECTION ( 'NONE',  ( 0.000000000000000000, 0.000000000000000000, -1.000000000000000000 ) ) ;
#33 = DIRECTION ( 'NONE',  ( -0.000000000000000000, -0.000000000000000000, -1.000000000000000000 ) ) ;
#34 = CIRCLE ( 'NONE', #86, 0.2999999999999999334 ) ;
#35 = AXIS2_PLACEMENT_3D ( 'NONE', #78, #315, #163 ) ;
#36 =( NAMED_UNIT ( * ) SI_UNIT ( $, .STERADIAN. ) SOLID_ANGLE_UNIT ( ) );
#37 = DIRECTION ( 'NONE',  ( 0.000000000000000000, 0.000000000000000000, 1.000000000000000000 ) ) ;
#38 = ADVANCED_FACE ( 'NONE', ( #375, #139 ), #21, .T. ) ;
#39 = DIRECTION ( 'NONE',  ( 1.000000000000000000, 0.000000000000000000, 0.000000000000000000 ) ) ;
#40 = AXIS2_PLACEMENT_3D ( 'NONE', #276, #28, #176 ) ;
#41 = VECTOR ( 'NONE', #32, 1000.000000000000000 ) ;
#42 = CIRCLE ( 'NONE', #264, 5.000000000000000000 ) ;
#43 = CARTESIAN_POINT ( 'NONE',  ( 0.000000000000000000, 0.000000000000000000, 203.0000000000000000 ) ) ;
#44 = SECURITY_CLASSIFICATION ( '', '', #22 ) ;
#45 = CARTESIAN_POINT ( 'NONE',  ( 0.000000000000000000, 0.000000000000000000, 0.000000000000000000 ) ) ;
#46 = EDGE_CURVE ( 'NONE', #274, #249, #166, .T. ) ;
#47 = EDGE_LOOP ( 'NONE', ( #306, #334, #285, #51 ) ) ;
#48 = DIRECTION ( 'NONE',  ( -0.000000000000000000, -0.000000000000000000, -1.000000000000000000 ) ) ;
#49 = ORIENTED_EDGE ( 'NONE', *, *, #31, .F. ) ;
#50 = DIRECTION ( 'NONE',  ( 1.000000000000000000, 0.000000000000000000, 0.000000000000000000 ) ) ;
#51 = ORIENTED_EDGE ( 'NONE', *, *, #46, .F. ) ;
#52 = PERSON_AND_ORGANIZATION ( #318, #101 ) ;
#53 = APPLICATION_CONTEXT ( 'configuration controlled 3d designs of mechanical parts and assemblies' ) ;
#54 = CARTESIAN_POINT ( 'NONE',  ( -2.500000000000000000, 0.000000000000000000, 203.0000000000000000 ) ) ;
#55 = EDGE_CURVE ( 'NONE', #245, #102, #34, .T. ) ;
#56 = EDGE_LOOP ( 'NONE', ( #241, #114 ) ) ;
#57 = EDGE_CURVE ( 'NONE', #102, #366, #300, .T. ) ;
#58 = CIRCLE ( 'NONE', #217, 5.000000000000000000 ) ;
#59 = CARTESIAN_POINT ( 'NONE',  ( 5.000000000000000000, 6.123233995736766282E-16, 3.000000000000000000 ) ) ;
#60 = CC_DESIGN_SECURITY_CLASSIFICATION ( #44, ( #225 ) ) ;
#61 = CARTESIAN_POINT ( 'NONE',  ( 0.000000000000000000, 0.000000000000000000, 3.000000000000000000 ) ) ;
#62 = COORDINATED_UNIVERSAL_TIME_OFFSET ( 1, 0, .AHEAD. ) ;
#63 = CARTESIAN_POINT ( 'NONE',  ( 0.000000000000000000, 0.000000000000000000, 203.0000000000000000 ) ) ;
#64 = ORIENTED_EDGE ( 'NONE', *, *, #269, .F. ) ;
#65 = LOCAL_TIME ( 11, 16, 55.00000000000000000, #62 ) ;
#66 = DESIGN_CONTEXT ( 'detailed design', #25, 'design' ) ;
#67 = PERSON_AND_ORGANIZATION ( #318, #101 ) ;
#68 = DIRECTION ( 'NONE',  ( -0.000000000000000000, -0.000000000000000000, -1.000000000000000000 ) ) ;
#69 = EDGE_LOOP ( 'NONE', ( #14, #294, #97, #271 ) ) ;
#70 = APPLICATION_PROTOCOL_DEFINITION ( 'international standard', 'config_control_design', 1994, #25 ) ;
#71 = CYLINDRICAL_SURFACE ( 'NONE', #244, 2.500000000000000000 ) ;
#72 = ORIENTED_EDGE ( 'NONE', *, *, #55, .F. ) ;
#73 = ADVANCED_FACE ( 'NONE', ( #204, #325 ), #355, .T. ) ;
#74 = CARTESIAN_POINT ( 'NONE',  ( 1.500000000000000222, 1.836970198721029934E-16, 0.000000000000000000 ) ) ;
#75 = ORIENTED_EDGE ( 'NONE', *, *, #202, .F. ) ;
#76 =( GEOMETRIC_REPRESENTATION_CONTEXT ( 3 ) GLOBAL_UNCERTAINTY_ASSIGNED_CONTEXT ( ( #222 ) ) GLOBAL_UNIT_ASSIGNED_CONTEXT ( ( #193, #280, #36 ) ) REPRESENTATION_CONTEXT ( 'NONE', 'WORKASPACE' ) );
#77 = APPROVAL_ROLE ( '' ) ;
#78 = CARTESIAN_POINT ( 'NONE',  ( 0.000000000000000000, 0.000000000000000000, 203.0000000000000000 ) ) ;
#79 = PERSON_AND_ORGANIZATION_ROLE ( 'creator' ) ;
#80 = DIRECTION ( 'NONE',  ( 0.000000000000000000, 0.000000000000000000, 1.000000000000000000 ) ) ;
#81 = CC_DESIGN_PERSON_AND_ORGANIZATION_ASSIGNMENT ( #67, #250, ( #115 ) ) ;
#82 = DIRECTION ( 'NONE',  ( 1.000000000000000000, 0.000000000000000000, 0.000000000000000000 ) ) ;
#83 = DATE_TIME_ROLE ( 'classification_date' ) ;
#84 = AXIS2_PLACEMENT_3D ( 'NONE', #243, #335, #98 ) ;
#85 = CARTESIAN_POINT ( 'NONE',  ( -2.500000000000000000, 0.000000000000000000, 3.299999999999997158 ) ) ;
#86 = AXIS2_PLACEMENT_3D ( 'NONE', #259, #372, #109 ) ;
#87 = DIRECTION ( 'NONE',  ( 1.000000000000000000, 0.000000000000000000, 0.000000000000000000 ) ) ;
#88 = AXIS2_PLACEMENT_3D ( 'NONE', #63, #231, #104 ) ;
#89 = DIRECTION ( 'NONE',  ( 0.000000000000000000, 0.000000000000000000, -1.000000000000000000 ) ) ;
#90 = EDGE_CURVE ( 'NONE', #245, #281, #253, .T. ) ;
#91 = ADVANCED_BREP_SHAPE_REPRESENTATION ( 'f7f6', ( #313, #207 ), #76 ) ;
#92 = LINE ( 'NONE', #29, #41 ) ;
#93 = CARTESIAN_POINT ( 'NONE',  ( 0.000000000000000000, 0.000000000000000000, 203.0000000000000000 ) ) ;
#94 = TOROIDAL_SURFACE ( 'NONE', #84, 2.799999999999999822, 0.2999999999999999889 ) ;
#95 = ORIENTED_EDGE ( 'NONE', *, *, #46, .T. ) ;
#96 = APPROVAL_STATUS ( 'not_yet_approved' ) ;
#97 = ORIENTED_EDGE ( 'NONE', *, *, #103, .T. ) ;
#98 = DIRECTION ( 'NONE',  ( 1.000000000000000000, 0.000000000000000000, 0.000000000000000000 ) ) ;
#99 = EDGE_CURVE ( 'NONE', #26, #155, #270, .T. ) ;
#100 = ORIENTED_EDGE ( 'NONE', *, *, #252, .T. ) ;
#101 = ORGANIZATION ( 'NEURÈENÝ', 'NEURÈENÝ', '' ) ;
#102 = VERTEX_POINT ( 'NONE', #1 ) ;
#103 = EDGE_CURVE ( 'NONE', #232, #240, #347, .T. ) ;
#104 = DIRECTION ( 'NONE',  ( -1.000000000000000000, 0.000000000000000000, 0.000000000000000000 ) ) ;
#105 = ORIENTED_EDGE ( 'NONE', *, *, #172, .T. ) ;
#106 = AXIS2_PLACEMENT_3D ( 'NONE', #299, #352, #182 ) ;
#107 = COORDINATED_UNIVERSAL_TIME_OFFSET ( 1, 0, .AHEAD. ) ;
#108 = DIRECTION ( 'NONE',  ( -1.000000000000000000, 0.000000000000000000, 0.000000000000000000 ) ) ;
#109 = DIRECTION ( 'NONE',  ( 0.000000000000000000, 0.000000000000000000, -1.000000000000000000 ) ) ;
#110 = LINE ( 'NONE', #368, #178 ) ;
#111 = ADVANCED_FACE ( 'NONE', ( #149 ), #268, .F. ) ;
#112 = AXIS2_PLACEMENT_3D ( 'NONE', #43, #159, #10 ) ;
#113 = VERTEX_POINT ( 'NONE', #121 ) ;
#114 = ORIENTED_EDGE ( 'NONE', *, *, #356, .F. ) ;
#115 = PRODUCT_DEFINITION ( 'NEZNÁMÝ', '', #225, #66 ) ;
#116 = DIRECTION ( 'NONE',  ( 1.000000000000000000, 0.000000000000000000, 0.000000000000000000 ) ) ;
#117 = LOCAL_TIME ( 11, 16, 55.00000000000000000, #303 ) ;
#118 = DIRECTION ( 'NONE',  ( 0.000000000000000000, 0.000000000000000000, 1.000000000000000000 ) ) ;
#119 = EDGE_LOOP ( 'NONE', ( #329, #9 ) ) ;
#120 = CARTESIAN_POINT ( 'NONE',  ( 5.000000000000000000, 6.123233995736766282E-16, 0.000000000000000000 ) ) ;
#121 = CARTESIAN_POINT ( 'NONE',  ( -1.500000000000000222, 0.000000000000000000, 203.0000000000000000 ) ) ;
#122 = PRODUCT ( 'f7f6', 'f7f6', '', ( #311 ) ) ;
#123 = CC_DESIGN_APPROVAL ( #277, ( #115 ) ) ;
#124 = APPROVAL_DATE_TIME ( #361, #277 ) ;
#125 = EDGE_CURVE ( 'NONE', #26, #274, #58, .T. ) ;
#126 = APPROVAL ( #134, 'NEURÈENÝ' ) ;
#127 = CIRCLE ( 'NONE', #345, 1.500000000000000222 ) ;
#128 = CARTESIAN_POINT ( 'NONE',  ( 0.000000000000000000, 0.000000000000000000, 0.000000000000000000 ) ) ;
#129 = CARTESIAN_POINT ( 'NONE',  ( 0.000000000000000000, 0.000000000000000000, 203.0000000000000000 ) ) ;
#130 = EDGE_LOOP ( 'NONE', ( #209, #189, #95, #100 ) ) ;
#131 = PERSON_AND_ORGANIZATION ( #318, #101 ) ;
#132 = DIRECTION ( 'NONE',  ( -1.000000000000000000, 0.000000000000000000, 0.000000000000000000 ) ) ;
#133 = EDGE_CURVE ( 'NONE', #240, #232, #312, .T. ) ;
#134 = APPROVAL_STATUS ( 'not_yet_approved' ) ;
#135 = AXIS2_PLACEMENT_3D ( 'NONE', #282, #37, #332 ) ;
#136 = DATE_AND_TIME ( #229, #168 ) ;
#137 = FACE_OUTER_BOUND ( 'NONE', #47, .T. ) ;
#138 = DIRECTION ( 'NONE',  ( -0.000000000000000000, -0.000000000000000000, -1.000000000000000000 ) ) ;
#139 = FACE_OUTER_BOUND ( 'NONE', #254, .T. ) ;
#140 = APPROVAL_DATE_TIME ( #136, #212 ) ;
#141 = CARTESIAN_POINT ( 'NONE',  ( 0.000000000000000000, 0.000000000000000000, 3.000000000000000000 ) ) ;
#142 = AXIS2_PLACEMENT_3D ( 'NONE', #238, #346, #260 ) ;
#143 = CYLINDRICAL_SURFACE ( 'NONE', #289, 5.000000000000000000 ) ;
#144 = CARTESIAN_POINT ( 'NONE',  ( 0.000000000000000000, 0.000000000000000000, 3.299999999999997158 ) ) ;
#145 = DIRECTION ( 'NONE',  ( 0.000000000000000000, 0.000000000000000000, 1.000000000000000000 ) ) ;
#146 = DIRECTION ( 'NONE',  ( 0.000000000000000000, 0.000000000000000000, 1.000000000000000000 ) ) ;
#147 = ORIENTED_EDGE ( 'NONE', *, *, #323, .F. ) ;
#148 = CARTESIAN_POINT ( 'NONE',  ( 0.000000000000000000, 0.000000000000000000, 203.0000000000000000 ) ) ;
#149 = FACE_OUTER_BOUND ( 'NONE', #69, .T. ) ;
#150 = CARTESIAN_POINT ( 'NONE',  ( 0.000000000000000000, 0.000000000000000000, 0.000000000000000000 ) ) ;
#151 = CLOSED_SHELL ( 'NONE', ( #111, #358, #216, #272, #257, #38, #194, #211, #73, #338, #263 ) ) ;
#152 = AXIS2_PLACEMENT_3D ( 'NONE', #45, #286, #13 ) ;
#153 = ORIENTED_EDGE ( 'NONE', *, *, #7, .F. ) ;
#154 = EDGE_CURVE ( 'NONE', #113, #240, #92, .T. ) ;
#155 = VERTEX_POINT ( 'NONE', #120 ) ;
#156 = CALENDAR_DATE ( 2022, 10, 7 ) ;
#157 = CC_DESIGN_PERSON_AND_ORGANIZATION_ASSIGNMENT ( #171, #291, ( #225 ) ) ;
#158 = ORIENTED_EDGE ( 'NONE', *, *, #202, .T. ) ;
#159 = DIRECTION ( 'NONE',  ( 0.000000000000000000, 0.000000000000000000, 1.000000000000000000 ) ) ;
#160 = CARTESIAN_POINT ( 'NONE',  ( 2.500000000000000000, 3.061616997868383141E-16, 203.0000000000000000 ) ) ;
#161 = ORIENTED_EDGE ( 'NONE', *, *, #16, .F. ) ;
#162 = DATE_TIME_ROLE ( 'creation_date' ) ;
#163 = DIRECTION ( 'NONE',  ( -1.000000000000000000, 0.000000000000000000, 0.000000000000000000 ) ) ;
#164 = COORDINATED_UNIVERSAL_TIME_OFFSET ( 1, 0, .AHEAD. ) ;
#165 = AXIS2_PLACEMENT_3D ( 'NONE', #144, #80, #320 ) ;
#166 = LINE ( 'NONE', #19, #367 ) ;
#167 = CIRCLE ( 'NONE', #295, 0.2999999999999999334 ) ;
#168 = LOCAL_TIME ( 11, 16, 55.00000000000000000, #364 ) ;
#169 = DIRECTION ( 'NONE',  ( 0.000000000000000000, 0.000000000000000000, 1.000000000000000000 ) ) ;
#170 = ORIENTED_EDGE ( 'NONE', *, *, #354, .T. ) ;
#171 = PERSON_AND_ORGANIZATION ( #318, #101 ) ;
#172 = EDGE_CURVE ( 'NONE', #274, #26, #42, .T. ) ;
#173 = AXIS2_PLACEMENT_3D ( 'NONE', #150, #301, #273 ) ;
#174 = APPROVAL_PERSON_ORGANIZATION ( #131, #212, #369 ) ;
#175 = CARTESIAN_POINT ( 'NONE',  ( 0.000000000000000000, 0.000000000000000000, 3.299999999999997158 ) ) ;
#176 = DIRECTION ( 'NONE',  ( 1.000000000000000000, 0.000000000000000000, 0.000000000000000000 ) ) ;
#177 = ORIENTED_EDGE ( 'NONE', *, *, #354, .F. ) ;
#178 = VECTOR ( 'NONE', #267, 1000.000000000000000 ) ;
#179 = DIRECTION ( 'NONE',  ( 0.000000000000000000, 0.000000000000000000, 1.000000000000000000 ) ) ;
#180 = CC_DESIGN_PERSON_AND_ORGANIZATION_ASSIGNMENT ( #314, #261, ( #44 ) ) ;
#181 = AXIS2_PLACEMENT_3D ( 'NONE', #208, #350, #324 ) ;
#182 = DIRECTION ( 'NONE',  ( 1.000000000000000000, 0.000000000000000000, 0.000000000000000000 ) ) ;
#183 = CALENDAR_DATE ( 2022, 10, 7 ) ;
#184 = CARTESIAN_POINT ( 'NONE',  ( -1.500000000000000222, 0.000000000000000000, 0.000000000000000000 ) ) ;
#185 = ORIENTED_EDGE ( 'NONE', *, *, #103, .F. ) ;
#186 = CC_DESIGN_PERSON_AND_ORGANIZATION_ASSIGNMENT ( #246, #309, ( #122 ) ) ;
#187 = CC_DESIGN_PERSON_AND_ORGANIZATION_ASSIGNMENT ( #198, #79, ( #225 ) ) ;
#188 = FACE_OUTER_BOUND ( 'NONE', #130, .T. ) ;
#189 = ORIENTED_EDGE ( 'NONE', *, *, #172, .F. ) ;
#190 = DATE_AND_TIME ( #156, #117 ) ;
#191 = CARTESIAN_POINT ( 'NONE',  ( -2.500000000000000000, 0.000000000000000000, 203.0000000000000000 ) ) ;
#192 = ORIENTED_EDGE ( 'NONE', *, *, #371, .F. ) ;
#193 =( LENGTH_UNIT ( ) NAMED_UNIT ( * ) SI_UNIT ( .MILLI., .METRE. ) );
#194 = ADVANCED_FACE ( 'NONE', ( #359, #5 ), #365, .F. ) ;
#195 = CARTESIAN_POINT ( 'NONE',  ( 2.500000000000000000, 3.061616997868383141E-16, 3.299999999999997158 ) ) ;
#196 = VECTOR ( 'NONE', #68, 1000.000000000000000 ) ;
#197 = TOROIDAL_SURFACE ( 'NONE', #304, 2.799999999999999822, 0.2999999999999999889 ) ;
#198 = PERSON_AND_ORGANIZATION ( #318, #101 ) ;
#199 = ORIENTED_EDGE ( 'NONE', *, *, #90, .T. ) ;
#200 = APPROVAL_DATE_TIME ( #287, #126 ) ;
#201 = CARTESIAN_POINT ( 'NONE',  ( 0.000000000000000000, 0.000000000000000000, 3.000000000000000000 ) ) ;
#202 = EDGE_CURVE ( 'NONE', #12, #281, #251, .T. ) ;
#203 = CARTESIAN_POINT ( 'NONE',  ( 0.000000000000000000, 0.000000000000000000, 203.0000000000000000 ) ) ;
#204 = FACE_BOUND ( 'NONE', #119, .T. ) ;
#205 = DIRECTION ( 'NONE',  ( -1.000000000000000000, 1.224646799147353207E-16, 0.000000000000000000 ) ) ;
#206 = EDGE_LOOP ( 'NONE', ( #302, #185 ) ) ;
#207 = AXIS2_PLACEMENT_3D ( 'NONE', #128, #4, #227 ) ;
#208 = CARTESIAN_POINT ( 'NONE',  ( 0.000000000000000000, 0.000000000000000000, 203.0000000000000000 ) ) ;
#209 = ORIENTED_EDGE ( 'NONE', *, *, #99, .F. ) ;
#210 = VERTEX_POINT ( 'NONE', #160 ) ;
#211 = ADVANCED_FACE ( 'NONE', ( #363 ), #71, .T. ) ;
#212 = APPROVAL ( #17, 'NEURÈENÝ' ) ;
#213 = DIRECTION ( 'NONE',  ( 1.000000000000000000, 0.000000000000000000, 0.000000000000000000 ) ) ;
#214 = EDGE_LOOP ( 'NONE', ( #153, #351, #6, #72 ) ) ;
#215 = CIRCLE ( 'NONE', #165, 2.500000000000000000 ) ;
#216 = ADVANCED_FACE ( 'NONE', ( #278 ), #248, .T. ) ;
#217 = AXIS2_PLACEMENT_3D ( 'NONE', #327, #179, #116 ) ;
#218 = CARTESIAN_POINT ( 'NONE',  ( 0.000000000000000000, 0.000000000000000000, 203.0000000000000000 ) ) ;
#219 = APPROVAL_PERSON_ORGANIZATION ( #52, #126, #77 ) ;
#220 = EDGE_LOOP ( 'NONE', ( #64, #30, #279, #49 ) ) ;
#221 = ORIENTED_EDGE ( 'NONE', *, *, #323, .T. ) ;
#222 = UNCERTAINTY_MEASURE_WITH_UNIT (LENGTH_MEASURE( 1.000000000000000082E-05 ), #193, 'distance_accuracy_value', 'NONE');
#223 = PERSON_AND_ORGANIZATION ( #318, #101 ) ;
#224 = DIRECTION ( 'NONE',  ( -0.000000000000000000, -0.000000000000000000, -1.000000000000000000 ) ) ;
#225 = PRODUCT_DEFINITION_FORMATION_WITH_SPECIFIED_SOURCE ( 'LIBOVOLNÝ', '', #122, .NOT_KNOWN. ) ;
#226 = ORIENTED_EDGE ( 'NONE', *, *, #31, .T. ) ;
#227 = DIRECTION ( 'NONE',  ( 1.000000000000000000, 0.000000000000000000, 0.000000000000000000 ) ) ;
#228 = EDGE_LOOP ( 'NONE', ( #336, #226 ) ) ;
#229 = CALENDAR_DATE ( 2022, 10, 7 ) ;
#230 = AXIS2_PLACEMENT_3D ( 'NONE', #235, #343, #82 ) ;
#231 = DIRECTION ( 'NONE',  ( -0.000000000000000000, -0.000000000000000000, -1.000000000000000000 ) ) ;
#232 = VERTEX_POINT ( 'NONE', #74 ) ;
#233 = SHAPE_DEFINITION_REPRESENTATION ( #2, #91 ) ;
#234 = CARTESIAN_POINT ( 'NONE',  ( -5.000000000000000000, 0.000000000000000000, 3.000000000000000000 ) ) ;
#235 = CARTESIAN_POINT ( 'NONE',  ( 0.000000000000000000, 0.000000000000000000, 3.000000000000000000 ) ) ;
#236 = CALENDAR_DATE ( 2022, 10, 7 ) ;
#237 = CC_DESIGN_APPROVAL ( #126, ( #225 ) ) ;
#238 = CARTESIAN_POINT ( 'NONE',  ( 0.000000000000000000, 0.000000000000000000, 3.000000000000000000 ) ) ;
#239 = CC_DESIGN_DATE_AND_TIME_ASSIGNMENT ( #292, #83, ( #44 ) ) ;
#240 = VERTEX_POINT ( 'NONE', #184 ) ;
#241 = ORIENTED_EDGE ( 'NONE', *, *, #252, .F. ) ;
#242 = LINE ( 'NONE', #321, #284 ) ;
#243 = CARTESIAN_POINT ( 'NONE',  ( 0.000000000000000000, 0.000000000000000000, 3.299999999999997158 ) ) ;
#244 = AXIS2_PLACEMENT_3D ( 'NONE', #129, #224, #132 ) ;
#245 = VERTEX_POINT ( 'NONE', #195 ) ;
#246 = PERSON_AND_ORGANIZATION ( #318, #101 ) ;
#247 = EDGE_LOOP ( 'NONE', ( #161, #379, #310, #283 ) ) ;
#248 = CYLINDRICAL_SURFACE ( 'NONE', #88, 2.500000000000000000 ) ;
#249 = VERTEX_POINT ( 'NONE', #305 ) ;
#250 = PERSON_AND_ORGANIZATION_ROLE ( 'creator' ) ;
#251 = LINE ( 'NONE', #191, #196 ) ;
#252 = EDGE_CURVE ( 'NONE', #249, #155, #255, .T. ) ;
#253 = CIRCLE ( 'NONE', #344, 2.500000000000000000 ) ;
#254 = EDGE_LOOP ( 'NONE', ( #105, #308 ) ) ;
#255 = CIRCLE ( 'NONE', #135, 5.000000000000000000 ) ;
#256 = AXIS2_PLACEMENT_3D ( 'NONE', #93, #118, #213 ) ;
#257 = ADVANCED_FACE ( 'NONE', ( #188 ), #143, .T. ) ;
#258 = CYLINDRICAL_SURFACE ( 'NONE', #27, 5.000000000000000000 ) ;
#259 = CARTESIAN_POINT ( 'NONE',  ( 2.799999999999999822, 0.000000000000000000, 3.299999999999997158 ) ) ;
#260 = DIRECTION ( 'NONE',  ( 1.000000000000000000, 0.000000000000000000, -0.000000000000000000 ) ) ;
#261 = PERSON_AND_ORGANIZATION_ROLE ( 'classification_officer' ) ;
#262 = CIRCLE ( 'NONE', #11, 2.799999999999999822 ) ;
#263 = ADVANCED_FACE ( 'NONE', ( #339 ), #373, .F. ) ;
#264 = AXIS2_PLACEMENT_3D ( 'NONE', #61, #333, #39 ) ;
#265 = PRODUCT_RELATED_PRODUCT_CATEGORY ( 'detail', '', ( #122 ) ) ;
#266 = DIRECTION ( 'NONE',  ( -1.000000000000000000, 0.000000000000000000, 0.000000000000000000 ) ) ;
#267 = DIRECTION ( 'NONE',  ( 0.000000000000000000, 0.000000000000000000, -1.000000000000000000 ) ) ;
#268 = CYLINDRICAL_SURFACE ( 'NONE', #330, 1.500000000000000222 ) ;
#269 = EDGE_CURVE ( 'NONE', #281, #366, #167, .T. ) ;
#270 = LINE ( 'NONE', #59, #337 ) ;
#271 = ORIENTED_EDGE ( 'NONE', *, *, #154, .F. ) ;
#272 = ADVANCED_FACE ( 'NONE', ( #137 ), #258, .T. ) ;
#273 = DIRECTION ( 'NONE',  ( 1.000000000000000000, 0.000000000000000000, 0.000000000000000000 ) ) ;
#274 = VERTEX_POINT ( 'NONE', #234 ) ;
#275 = CARTESIAN_POINT ( 'NONE',  ( -2.799999999999999822, 3.429011037612589276E-16, 2.999999999999998668 ) ) ;
#276 = CARTESIAN_POINT ( 'NONE',  ( 0.000000000000000000, 0.000000000000000000, 0.000000000000000000 ) ) ;
#277 = APPROVAL ( #96, 'NEURÈENÝ' ) ;
#278 = FACE_OUTER_BOUND ( 'NONE', #342, .T. ) ;
#279 = ORIENTED_EDGE ( 'NONE', *, *, #55, .T. ) ;
#280 =( NAMED_UNIT ( * ) PLANE_ANGLE_UNIT ( ) SI_UNIT ( $, .RADIAN. ) );
#281 = VERTEX_POINT ( 'NONE', #85 ) ;
#282 = CARTESIAN_POINT ( 'NONE',  ( 0.000000000000000000, 0.000000000000000000, 0.000000000000000000 ) ) ;
#283 = ORIENTED_EDGE ( 'NONE', *, *, #133, .T. ) ;
#284 = VECTOR ( 'NONE', #376, 1000.000000000000000 ) ;
#285 = ORIENTED_EDGE ( 'NONE', *, *, #356, .T. ) ;
#286 = DIRECTION ( 'NONE',  ( 0.000000000000000000, 0.000000000000000000, 1.000000000000000000 ) ) ;
#287 = DATE_AND_TIME ( #288, #340 ) ;
#288 = CALENDAR_DATE ( 2022, 10, 7 ) ;
#289 = AXIS2_PLACEMENT_3D ( 'NONE', #201, #48, #266 ) ;
#290 = CIRCLE ( 'NONE', #112, 2.500000000000000000 ) ;
#291 = PERSON_AND_ORGANIZATION_ROLE ( 'design_supplier' ) ;
#292 = DATE_AND_TIME ( #236, #362 ) ;
#293 = AXIS2_PLACEMENT_3D ( 'NONE', #148, #146, #322 ) ;
#294 = ORIENTED_EDGE ( 'NONE', *, *, #16, .T. ) ;
#295 = AXIS2_PLACEMENT_3D ( 'NONE', #316, #18, #205 ) ;
#296 = CARTESIAN_POINT ( 'NONE',  ( 0.000000000000000000, 0.000000000000000000, 3.299999999999997158 ) ) ;
#297 = FACE_OUTER_BOUND ( 'NONE', #220, .T. ) ;
#298 = DIRECTION ( 'NONE',  ( -1.000000000000000000, 0.000000000000000000, 0.000000000000000000 ) ) ;
#299 = CARTESIAN_POINT ( 'NONE',  ( 0.000000000000000000, 0.000000000000000000, 0.000000000000000000 ) ) ;
#300 = CIRCLE ( 'NONE', #230, 2.799999999999999822 ) ;
#301 = DIRECTION ( 'NONE',  ( -0.000000000000000000, -0.000000000000000000, -1.000000000000000000 ) ) ;
#302 = ORIENTED_EDGE ( 'NONE', *, *, #133, .F. ) ;
#303 = COORDINATED_UNIVERSAL_TIME_OFFSET ( 1, 0, .AHEAD. ) ;
#304 = AXIS2_PLACEMENT_3D ( 'NONE', #296, #145, #87 ) ;
#305 = CARTESIAN_POINT ( 'NONE',  ( -5.000000000000000000, 0.000000000000000000, 0.000000000000000000 ) ) ;
#306 = ORIENTED_EDGE ( 'NONE', *, *, #125, .F. ) ;
#307 = EDGE_CURVE ( 'NONE', #113, #349, #127, .T. ) ;
#308 = ORIENTED_EDGE ( 'NONE', *, *, #125, .T. ) ;
#309 = PERSON_AND_ORGANIZATION_ROLE ( 'design_owner' ) ;
#310 = ORIENTED_EDGE ( 'NONE', *, *, #154, .T. ) ;
#311 = MECHANICAL_CONTEXT ( 'NONE', #53, 'mechanical' ) ;
#312 = CIRCLE ( 'NONE', #173, 1.500000000000000222 ) ;
#313 = MANIFOLD_SOLID_BREP ( 'Odebrat vysunutím3', #151 ) ;
#314 = PERSON_AND_ORGANIZATION ( #318, #101 ) ;
#315 = DIRECTION ( 'NONE',  ( 0.000000000000000000, 0.000000000000000000, -1.000000000000000000 ) ) ;
#316 = CARTESIAN_POINT ( 'NONE',  ( -2.799999999999999822, 3.429011037612588783E-16, 3.299999999999997158 ) ) ;
#317 = EDGE_LOOP ( 'NONE', ( #360, #170 ) ) ;
#318 = PERSON ( 'NEURÈENÝ', 'NEURÈENÝ', 'NEURÈENÝ', ('NEURÈENÝ'), ('NEURÈENÝ'), ('NEURÈENÝ') ) ;
#319 = EDGE_CURVE ( 'NONE', #349, #113, #357, .T. ) ;
#320 = DIRECTION ( 'NONE',  ( 1.000000000000000000, 0.000000000000000000, 0.000000000000000000 ) ) ;
#321 = CARTESIAN_POINT ( 'NONE',  ( 2.500000000000000000, 3.061616997868383141E-16, 203.0000000000000000 ) ) ;
#322 = DIRECTION ( 'NONE',  ( 1.000000000000000000, 0.000000000000000000, -0.000000000000000000 ) ) ;
#323 = EDGE_CURVE ( 'NONE', #210, #245, #242, .T. ) ;
#324 = DIRECTION ( 'NONE',  ( 1.000000000000000000, 0.000000000000000000, 0.000000000000000000 ) ) ;
#325 = FACE_OUTER_BOUND ( 'NONE', #317, .T. ) ;
#326 = APPROVAL_PERSON_ORGANIZATION ( #223, #277, #328 ) ;
#327 = CARTESIAN_POINT ( 'NONE',  ( 0.000000000000000000, 0.000000000000000000, 3.000000000000000000 ) ) ;
#328 = APPROVAL_ROLE ( '' ) ;
#329 = ORIENTED_EDGE ( 'NONE', *, *, #307, .F. ) ;
#330 = AXIS2_PLACEMENT_3D ( 'NONE', #218, #89, #298 ) ;
#331 = CIRCLE ( 'NONE', #106, 5.000000000000000000 ) ;
#332 = DIRECTION ( 'NONE',  ( 1.000000000000000000, 0.000000000000000000, 0.000000000000000000 ) ) ;
#333 = DIRECTION ( 'NONE',  ( 0.000000000000000000, 0.000000000000000000, 1.000000000000000000 ) ) ;
#334 = ORIENTED_EDGE ( 'NONE', *, *, #99, .T. ) ;
#335 = DIRECTION ( 'NONE',  ( 0.000000000000000000, 0.000000000000000000, 1.000000000000000000 ) ) ;
#336 = ORIENTED_EDGE ( 'NONE', *, *, #57, .T. ) ;
#337 = VECTOR ( 'NONE', #33, 1000.000000000000000 ) ;
#338 = ADVANCED_FACE ( 'NONE', ( #297 ), #197, .F. ) ;
#339 = FACE_OUTER_BOUND ( 'NONE', #247, .T. ) ;
#340 = LOCAL_TIME ( 11, 16, 55.00000000000000000, #164 ) ;
#341 = EDGE_LOOP ( 'NONE', ( #147, #192, #158, #15 ) ) ;
#342 = EDGE_LOOP ( 'NONE', ( #177, #221, #199, #75 ) ) ;
#343 = DIRECTION ( 'NONE',  ( -0.000000000000000000, -0.000000000000000000, -1.000000000000000000 ) ) ;
#344 = AXIS2_PLACEMENT_3D ( 'NONE', #175, #353, #381 ) ;
#345 = AXIS2_PLACEMENT_3D ( 'NONE', #203, #169, #20 ) ;
#346 = DIRECTION ( 'NONE',  ( 0.000000000000000000, 0.000000000000000000, 1.000000000000000000 ) ) ;
#347 = CIRCLE ( 'NONE', #40, 1.500000000000000222 ) ;
#348 = CC_DESIGN_DATE_AND_TIME_ASSIGNMENT ( #190, #162, ( #115 ) ) ;
#349 = VERTEX_POINT ( 'NONE', #378 ) ;
#350 = DIRECTION ( 'NONE',  ( 0.000000000000000000, 0.000000000000000000, 1.000000000000000000 ) ) ;
#351 = ORIENTED_EDGE ( 'NONE', *, *, #269, .T. ) ;
#352 = DIRECTION ( 'NONE',  ( 0.000000000000000000, 0.000000000000000000, 1.000000000000000000 ) ) ;
#353 = DIRECTION ( 'NONE',  ( 0.000000000000000000, 0.000000000000000000, 1.000000000000000000 ) ) ;
#354 = EDGE_CURVE ( 'NONE', #210, #12, #377, .T. ) ;
#355 = PLANE ( 'NONE',  #293 ) ;
#356 = EDGE_CURVE ( 'NONE', #155, #249, #331, .T. ) ;
#357 = CIRCLE ( 'NONE', #256, 1.500000000000000222 ) ;
#358 = ADVANCED_FACE ( 'NONE', ( #380 ), #94, .F. ) ;
#359 = FACE_BOUND ( 'NONE', #206, .T. ) ;
#360 = ORIENTED_EDGE ( 'NONE', *, *, #371, .T. ) ;
#361 = DATE_AND_TIME ( #183, #65 ) ;
#362 = LOCAL_TIME ( 11, 16, 55.00000000000000000, #107 ) ;
#363 = FACE_OUTER_BOUND ( 'NONE', #341, .T. ) ;
#364 = COORDINATED_UNIVERSAL_TIME_OFFSET ( 1, 0, .AHEAD. ) ;
#365 = PLANE ( 'NONE',  #152 ) ;
#366 = VERTEX_POINT ( 'NONE', #275 ) ;
#367 = VECTOR ( 'NONE', #138, 1000.000000000000000 ) ;
#368 = CARTESIAN_POINT ( 'NONE',  ( 1.500000000000000222, 1.836970198721029934E-16, 203.0000000000000000 ) ) ;
#369 = APPROVAL_ROLE ( '' ) ;
#370 = DIRECTION ( 'NONE',  ( -0.000000000000000000, -0.000000000000000000, -1.000000000000000000 ) ) ;
#371 = EDGE_CURVE ( 'NONE', #12, #210, #290, .T. ) ;
#372 = DIRECTION ( 'NONE',  ( 0.000000000000000000, -1.000000000000000000, 0.000000000000000000 ) ) ;
#373 = CYLINDRICAL_SURFACE ( 'NONE', #35, 1.500000000000000222 ) ;
#374 = DIRECTION ( 'NONE',  ( -0.000000000000000000, -0.000000000000000000, -1.000000000000000000 ) ) ;
#375 = FACE_BOUND ( 'NONE', #228, .T. ) ;
#376 = DIRECTION ( 'NONE',  ( -0.000000000000000000, -0.000000000000000000, -1.000000000000000000 ) ) ;
#377 = CIRCLE ( 'NONE', #181, 2.500000000000000000 ) ;
#378 = CARTESIAN_POINT ( 'NONE',  ( 1.500000000000000222, 1.836970198721029934E-16, 203.0000000000000000 ) ) ;
#379 = ORIENTED_EDGE ( 'NONE', *, *, #319, .T. ) ;
#380 = FACE_OUTER_BOUND ( 'NONE', #214, .T. ) ;
#381 = DIRECTION ( 'NONE',  ( 1.000000000000000000, 0.000000000000000000, 0.000000000000000000 ) ) ;
ENDSEC;
END-ISO-10303-21;
