ISO-10303-21;
HEADER;
FILE_DESCRIPTION (( 'STEP AP203' ),
    '1' );
FILE_NAME ('959b.STEP',
    '2022-07-10T09:02:24',
    ( '' ),
    ( '' ),
    'SwSTEP 2.0',
    'SolidWorks 2019',
    '' );
FILE_SCHEMA (( 'CONFIG_CONTROL_DESIGN' ));
ENDSEC;

DATA;
#1 = EDGE_CURVE ( 'NONE', #47, #105, #232, .T. ) ;
#2 = CIRCLE ( 'NONE', #237, 6.000000000000000888 ) ;
#3 = DATE_TIME_ROLE ( 'creation_date' ) ;
#4 = APPROVAL_DATE_TIME ( #96, #273 ) ;
#5 = DIRECTION ( 'NONE',  ( 0.000000000000000000, 0.000000000000000000, 1.000000000000000000 ) ) ;
#6 = CIRCLE ( 'NONE', #222, 4.099999999999999645 ) ;
#7 = COORDINATED_UNIVERSAL_TIME_OFFSET ( 1, 0, .AHEAD. ) ;
#8 = PRODUCT ( '959b', '959b', '', ( #204 ) ) ;
#9 = CARTESIAN_POINT ( 'NONE',  ( 0.000000000000000000, 0.000000000000000000, 7.000000000000000000 ) ) ;
#10 = PERSON_AND_ORGANIZATION_ROLE ( 'creator' ) ;
#11 = CYLINDRICAL_SURFACE ( 'NONE', #48, 6.000000000000000888 ) ;
#12 = AXIS2_PLACEMENT_3D ( 'NONE', #33, #230, #257 ) ;
#13 = ORIENTED_EDGE ( 'NONE', *, *, #1, .F. ) ;
#14 = FACE_BOUND ( 'NONE', #340, .T. ) ;
#15 = ORIENTED_EDGE ( 'NONE', *, *, #283, .T. ) ;
#16 = FACE_OUTER_BOUND ( 'NONE', #138, .T. ) ;
#17 = AXIS2_PLACEMENT_3D ( 'NONE', #246, #339, #128 ) ;
#18 = AXIS2_PLACEMENT_3D ( 'NONE', #108, #261, #111 ) ;
#19 = ORIENTED_EDGE ( 'NONE', *, *, #110, .F. ) ;
#20 = EDGE_CURVE ( 'NONE', #329, #254, #376, .T. ) ;
#21 = ORIENTED_EDGE ( 'NONE', *, *, #101, .T. ) ;
#22 = ADVANCED_FACE ( 'NONE', ( #27 ), #171, .T. ) ;
#23 = CARTESIAN_POINT ( 'NONE',  ( -4.099999999999999645, 0.000000000000000000, 157.0000000000000000 ) ) ;
#24 = ORIENTED_EDGE ( 'NONE', *, *, #283, .F. ) ;
#25 = ORGANIZATION ( 'NEURÈENÝ', 'NEURÈENÝ', '' ) ;
#26 = APPLICATION_CONTEXT ( 'configuration controlled 3d designs of mechanical parts and assemblies' ) ;
#27 = FACE_OUTER_BOUND ( 'NONE', #129, .T. ) ;
#28 = DIRECTION ( 'NONE',  ( -0.000000000000000000, -0.000000000000000000, -1.000000000000000000 ) ) ;
#29 = DIRECTION ( 'NONE',  ( 1.000000000000000000, 0.000000000000000000, 0.000000000000000000 ) ) ;
#30 = CC_DESIGN_PERSON_AND_ORGANIZATION_ASSIGNMENT ( #36, #239, ( #8 ) ) ;
#31 = DIRECTION ( 'NONE',  ( 1.000000000000000000, 0.000000000000000000, 0.000000000000000000 ) ) ;
#32 = CIRCLE ( 'NONE', #342, 10.00000000000000000 ) ;
#33 = CARTESIAN_POINT ( 'NONE',  ( 0.000000000000000000, 0.000000000000000000, 157.0000000000000000 ) ) ;
#34 = DIRECTION ( 'NONE',  ( -1.000000000000000000, 1.224646799147353454E-16, 0.000000000000000000 ) ) ;
#35 = EDGE_CURVE ( 'NONE', #302, #169, #304, .T. ) ;
#36 = PERSON_AND_ORGANIZATION ( #349, #25 ) ;
#37 = CARTESIAN_POINT ( 'NONE',  ( 0.000000000000000000, 0.000000000000000000, 7.000000000000000000 ) ) ;
#38 = APPROVAL_STATUS ( 'not_yet_approved' ) ;
#39 = VERTEX_POINT ( 'NONE', #348 ) ;
#40 = LINE ( 'NONE', #214, #361 ) ;
#41 = EDGE_LOOP ( 'NONE', ( #197, #313, #259, #51 ) ) ;
#42 = PERSON_AND_ORGANIZATION ( #349, #25 ) ;
#43 = EDGE_CURVE ( 'NONE', #187, #275, #357, .T. ) ;
#44 = DIRECTION ( 'NONE',  ( 1.000000000000000000, 0.000000000000000000, 0.000000000000000000 ) ) ;
#45 = LOCAL_TIME ( 11, 2, 24.00000000000000000, #7 ) ;
#46 = FACE_OUTER_BOUND ( 'NONE', #41, .T. ) ;
#47 = VERTEX_POINT ( 'NONE', #263 ) ;
#48 = AXIS2_PLACEMENT_3D ( 'NONE', #122, #227, #189 ) ;
#49 = VERTEX_POINT ( 'NONE', #350 ) ;
#50 = CARTESIAN_POINT ( 'NONE',  ( 0.000000000000000000, 0.000000000000000000, 157.0000000000000000 ) ) ;
#51 = ORIENTED_EDGE ( 'NONE', *, *, #20, .F. ) ;
#52 = DIRECTION ( 'NONE',  ( 0.000000000000000000, 0.000000000000000000, -1.000000000000000000 ) ) ;
#53 = CARTESIAN_POINT ( 'NONE',  ( 0.000000000000000000, 0.000000000000000000, 0.000000000000000000 ) ) ;
#54 = DIRECTION ( 'NONE',  ( -1.000000000000000000, 0.000000000000000000, 0.000000000000000000 ) ) ;
#55 = CIRCLE ( 'NONE', #269, 4.099999999999999645 ) ;
#56 = ORIENTED_EDGE ( 'NONE', *, *, #365, .F. ) ;
#57 = AXIS2_PLACEMENT_3D ( 'NONE', #50, #344, #130 ) ;
#58 = EDGE_CURVE ( 'NONE', #156, #105, #119, .T. ) ;
#59 = APPROVAL_ROLE ( '' ) ;
#60 = APPROVAL_STATUS ( 'not_yet_approved' ) ;
#61 = DIRECTION ( 'NONE',  ( 0.000000000000000000, 0.000000000000000000, -1.000000000000000000 ) ) ;
#62 = DIRECTION ( 'NONE',  ( -0.000000000000000000, -0.000000000000000000, -1.000000000000000000 ) ) ;
#63 = TOROIDAL_SURFACE ( 'NONE', #326, 6.700000000000001066, 0.6999999999999999556 ) ;
#64 = SECURITY_CLASSIFICATION ( '', '', #180 ) ;
#65 = DATE_AND_TIME ( #67, #301 ) ;
#66 = EDGE_LOOP ( 'NONE', ( #278, #149, #221, #19 ) ) ;
#67 = CALENDAR_DATE ( 2022, 10, 7 ) ;
#68 = CARTESIAN_POINT ( 'NONE',  ( -6.000000000000000888, 0.000000000000000000, 7.700000000000012612 ) ) ;
#69 = CARTESIAN_POINT ( 'NONE',  ( 0.000000000000000000, 0.000000000000000000, 0.000000000000000000 ) ) ;
#70 = EDGE_CURVE ( 'NONE', #329, #199, #6, .T. ) ;
#71 = CYLINDRICAL_SURFACE ( 'NONE', #188, 6.000000000000000888 ) ;
#72 = EDGE_LOOP ( 'NONE', ( #24, #311, #109, #161 ) ) ;
#73 = CARTESIAN_POINT ( 'NONE',  ( 0.000000000000000000, 0.000000000000000000, 7.700000000000012612 ) ) ;
#74 = UNCERTAINTY_MEASURE_WITH_UNIT (LENGTH_MEASURE( 1.000000000000000082E-05 ), #166, 'distance_accuracy_value', 'NONE');
#75 = DIRECTION ( 'NONE',  ( -1.000000000000000000, 0.000000000000000000, 0.000000000000000000 ) ) ;
#76 = ORIENTED_EDGE ( 'NONE', *, *, #106, .T. ) ;
#77 = DIRECTION ( 'NONE',  ( 0.000000000000000000, 0.000000000000000000, 1.000000000000000000 ) ) ;
#78 = ORIENTED_EDGE ( 'NONE', *, *, #264, .F. ) ;
#79 = CARTESIAN_POINT ( 'NONE',  ( 0.000000000000000000, 0.000000000000000000, 157.0000000000000000 ) ) ;
#80 =( NAMED_UNIT ( * ) PLANE_ANGLE_UNIT ( ) SI_UNIT ( $, .RADIAN. ) );
#81 = ORIENTED_EDGE ( 'NONE', *, *, #83, .F. ) ;
#82 = CARTESIAN_POINT ( 'NONE',  ( 0.000000000000000000, 0.000000000000000000, 157.0000000000000000 ) ) ;
#83 = EDGE_CURVE ( 'NONE', #49, #254, #55, .T. ) ;
#84 = EDGE_CURVE ( 'NONE', #228, #187, #316, .T. ) ;
#85 = AXIS2_PLACEMENT_3D ( 'NONE', #236, #299, #44 ) ;
#86 = CARTESIAN_POINT ( 'NONE',  ( 0.000000000000000000, 0.000000000000000000, 0.000000000000000000 ) ) ;
#87 = EDGE_CURVE ( 'NONE', #275, #374, #163, .T. ) ;
#88 = PERSON_AND_ORGANIZATION ( #349, #25 ) ;
#89 = APPROVAL_STATUS ( 'not_yet_approved' ) ;
#90 = LINE ( 'NONE', #147, #255 ) ;
#91 = VECTOR ( 'NONE', #145, 1000.000000000000000 ) ;
#92 = DIRECTION ( 'NONE',  ( 0.000000000000000000, 0.000000000000000000, 1.000000000000000000 ) ) ;
#93 = ORIENTED_EDGE ( 'NONE', *, *, #124, .F. ) ;
#94 = AXIS2_PLACEMENT_3D ( 'NONE', #69, #92, #209 ) ;
#95 = VECTOR ( 'NONE', #28, 1000.000000000000000 ) ;
#96 = DATE_AND_TIME ( #325, #335 ) ;
#97 = CARTESIAN_POINT ( 'NONE',  ( 6.700000000000001066, 0.000000000000000000, 7.700000000000012612 ) ) ;
#98 = PERSON_AND_ORGANIZATION_ROLE ( 'creator' ) ;
#99 = DIRECTION ( 'NONE',  ( -0.000000000000000000, -0.000000000000000000, -1.000000000000000000 ) ) ;
#100 = CARTESIAN_POINT ( 'NONE',  ( 6.000000000000000888, 7.347880794884120722E-16, 157.0000000000000000 ) ) ;
#101 = EDGE_CURVE ( 'NONE', #254, #49, #235, .T. ) ;
#102 = FACE_OUTER_BOUND ( 'NONE', #66, .T. ) ;
#103 = ORIENTED_EDGE ( 'NONE', *, *, #87, .T. ) ;
#104 = ORIENTED_EDGE ( 'NONE', *, *, #43, .T. ) ;
#105 = VERTEX_POINT ( 'NONE', #116 ) ;
#106 = EDGE_CURVE ( 'NONE', #169, #302, #347, .T. ) ;
#107 = APPROVAL ( #38, 'NEURÈENÝ' ) ;
#108 = CARTESIAN_POINT ( 'NONE',  ( 0.000000000000000000, 0.000000000000000000, 7.000000000000000000 ) ) ;
#109 = ORIENTED_EDGE ( 'NONE', *, *, #333, .T. ) ;
#110 = EDGE_CURVE ( 'NONE', #39, #156, #90, .T. ) ;
#111 = DIRECTION ( 'NONE',  ( 1.000000000000000000, 0.000000000000000000, 0.000000000000000000 ) ) ;
#112 = CARTESIAN_POINT ( 'NONE',  ( 0.000000000000000000, 0.000000000000000000, 157.0000000000000000 ) ) ;
#113 = PERSON_AND_ORGANIZATION ( #349, #25 ) ;
#114 = CIRCLE ( 'NONE', #12, 4.099999999999999645 ) ;
#115 = DATE_TIME_ROLE ( 'classification_date' ) ;
#116 = CARTESIAN_POINT ( 'NONE',  ( 10.00000000000000000, 1.224646799147353256E-15, 0.000000000000000000 ) ) ;
#117 = DIRECTION ( 'NONE',  ( 0.000000000000000000, 0.000000000000000000, 1.000000000000000000 ) ) ;
#118 = ORIENTED_EDGE ( 'NONE', *, *, #58, .F. ) ;
#119 = CIRCLE ( 'NONE', #170, 10.00000000000000000 ) ;
#120 = CALENDAR_DATE ( 2022, 10, 7 ) ;
#121 = DIRECTION ( 'NONE',  ( 0.000000000000000000, 0.000000000000000000, 1.000000000000000000 ) ) ;
#122 = CARTESIAN_POINT ( 'NONE',  ( 0.000000000000000000, 0.000000000000000000, 157.0000000000000000 ) ) ;
#123 = ORIENTED_EDGE ( 'NONE', *, *, #380, .T. ) ;
#124 = EDGE_CURVE ( 'NONE', #39, #47, #247, .T. ) ;
#125 = APPROVAL ( #89, 'NEURÈENÝ' ) ;
#126 = ORIENTED_EDGE ( 'NONE', *, *, #20, .T. ) ;
#127 = AXIS2_PLACEMENT_3D ( 'NONE', #9, #121, #212 ) ;
#128 = DIRECTION ( 'NONE',  ( 1.000000000000000000, 0.000000000000000000, -0.000000000000000000 ) ) ;
#129 = EDGE_LOOP ( 'NONE', ( #13, #93, #160, #190 ) ) ;
#130 = DIRECTION ( 'NONE',  ( -1.000000000000000000, 0.000000000000000000, 0.000000000000000000 ) ) ;
#131 = EDGE_LOOP ( 'NONE', ( #346, #81 ) ) ;
#132 = APPLICATION_CONTEXT ( 'configuration controlled 3d designs of mechanical parts and assemblies' ) ;
#133 = CARTESIAN_POINT ( 'NONE',  ( 0.000000000000000000, 0.000000000000000000, 7.000000000000000000 ) ) ;
#134 = ORIENTED_EDGE ( 'NONE', *, *, #162, .T. ) ;
#135 = EDGE_CURVE ( 'NONE', #228, #374, #352, .T. ) ;
#136 = AXIS2_PLACEMENT_3D ( 'NONE', #207, #99, #241 ) ;
#137 = EDGE_CURVE ( 'NONE', #199, #49, #40, .T. ) ;
#138 = EDGE_LOOP ( 'NONE', ( #359, #134 ) ) ;
#139 = DIRECTION ( 'NONE',  ( 0.000000000000000000, 0.000000000000000000, 1.000000000000000000 ) ) ;
#140 = DIRECTION ( 'NONE',  ( 1.000000000000000000, 0.000000000000000000, 0.000000000000000000 ) ) ;
#141 = ORIENTED_EDGE ( 'NONE', *, *, #365, .T. ) ;
#142 = CARTESIAN_POINT ( 'NONE',  ( 0.000000000000000000, 0.000000000000000000, 0.000000000000000000 ) ) ;
#143 = DIRECTION ( 'NONE',  ( 0.000000000000000000, 0.000000000000000000, 1.000000000000000000 ) ) ;
#144 = APPROVAL_PERSON_ORGANIZATION ( #270, #125, #59 ) ;
#145 = DIRECTION ( 'NONE',  ( -0.000000000000000000, -0.000000000000000000, -1.000000000000000000 ) ) ;
#146 = DATE_AND_TIME ( #267, #154 ) ;
#147 = CARTESIAN_POINT ( 'NONE',  ( -10.00000000000000000, 0.000000000000000000, 7.000000000000000000 ) ) ;
#148 = SHAPE_DEFINITION_REPRESENTATION ( #324, #226 ) ;
#149 = ORIENTED_EDGE ( 'NONE', *, *, #1, .T. ) ;
#150 = ADVANCED_FACE ( 'NONE', ( #358, #332 ), #183, .F. ) ;
#151 = COORDINATED_UNIVERSAL_TIME_OFFSET ( 1, 0, .AHEAD. ) ;
#152 = CYLINDRICAL_SURFACE ( 'NONE', #153, 4.099999999999999645 ) ;
#153 = AXIS2_PLACEMENT_3D ( 'NONE', #181, #381, #297 ) ;
#154 = LOCAL_TIME ( 11, 2, 24.00000000000000000, #296 ) ;
#155 = PLANE ( 'NONE',  #17 ) ;
#156 = VERTEX_POINT ( 'NONE', #327 ) ;
#157 = ADVANCED_FACE ( 'NONE', ( #46 ), #152, .F. ) ;
#158 =( GEOMETRIC_REPRESENTATION_CONTEXT ( 3 ) GLOBAL_UNCERTAINTY_ASSIGNED_CONTEXT ( ( #74 ) ) GLOBAL_UNIT_ASSIGNED_CONTEXT ( ( #166, #80, #260 ) ) REPRESENTATION_CONTEXT ( 'NONE', 'WORKASPACE' ) );
#159 = DIRECTION ( 'NONE',  ( -0.000000000000000000, -0.000000000000000000, -1.000000000000000000 ) ) ;
#160 = ORIENTED_EDGE ( 'NONE', *, *, #110, .T. ) ;
#161 = ORIENTED_EDGE ( 'NONE', *, *, #306, .T. ) ;
#162 = EDGE_CURVE ( 'NONE', #47, #39, #294, .T. ) ;
#163 = CIRCLE ( 'NONE', #215, 6.700000000000001066 ) ;
#164 = EDGE_LOOP ( 'NONE', ( #315, #15, #224, #266 ) ) ;
#165 = PRODUCT_DEFINITION ( 'NEZNÁMÝ', '', #319, #219 ) ;
#166 =( LENGTH_UNIT ( ) NAMED_UNIT ( * ) SI_UNIT ( .MILLI., .METRE. ) );
#167 = DIRECTION ( 'NONE',  ( 0.000000000000000000, 0.000000000000000000, 1.000000000000000000 ) ) ;
#168 = CARTESIAN_POINT ( 'NONE',  ( -6.000000000000000888, 0.000000000000000000, 157.0000000000000000 ) ) ;
#169 = VERTEX_POINT ( 'NONE', #271 ) ;
#170 = AXIS2_PLACEMENT_3D ( 'NONE', #86, #320, #345 ) ;
#171 = CYLINDRICAL_SURFACE ( 'NONE', #303, 10.00000000000000000 ) ;
#172 = DIRECTION ( 'NONE',  ( 1.000000000000000000, 0.000000000000000000, -0.000000000000000000 ) ) ;
#173 = AXIS2_PLACEMENT_3D ( 'NONE', #97, #295, #205 ) ;
#174 = AXIS2_PLACEMENT_3D ( 'NONE', #142, #288, #31 ) ;
#175 = PERSON_AND_ORGANIZATION_ROLE ( 'classification_officer' ) ;
#176 = CARTESIAN_POINT ( 'NONE',  ( -4.099999999999999645, 0.000000000000000000, 157.0000000000000000 ) ) ;
#177 = CARTESIAN_POINT ( 'NONE',  ( 0.000000000000000000, 0.000000000000000000, 157.0000000000000000 ) ) ;
#178 = DIRECTION ( 'NONE',  ( 1.000000000000000000, 0.000000000000000000, 0.000000000000000000 ) ) ;
#179 = AXIS2_PLACEMENT_3D ( 'NONE', #363, #117, #178 ) ;
#180 = SECURITY_CLASSIFICATION_LEVEL ( 'unclassified' ) ;
#181 = CARTESIAN_POINT ( 'NONE',  ( 0.000000000000000000, 0.000000000000000000, 157.0000000000000000 ) ) ;
#182 = APPROVAL_ROLE ( '' ) ;
#183 = PLANE ( 'NONE',  #94 ) ;
#184 = AXIS2_PLACEMENT_3D ( 'NONE', #133, #159, #75 ) ;
#185 = EDGE_LOOP ( 'NONE', ( #372, #141, #126, #21 ) ) ;
#186 = EDGE_LOOP ( 'NONE', ( #292, #104, #337, #281 ) ) ;
#187 = VERTEX_POINT ( 'NONE', #68 ) ;
#188 = AXIS2_PLACEMENT_3D ( 'NONE', #274, #248, #366 ) ;
#189 = DIRECTION ( 'NONE',  ( -1.000000000000000000, 0.000000000000000000, 0.000000000000000000 ) ) ;
#190 = ORIENTED_EDGE ( 'NONE', *, *, #58, .T. ) ;
#191 = ADVANCED_FACE ( 'NONE', ( #331 ), #11, .T. ) ;
#192 = ORIENTED_EDGE ( 'NONE', *, *, #35, .T. ) ;
#193 = ADVANCED_FACE ( 'NONE', ( #14, #16 ), #155, .T. ) ;
#194 = FACE_OUTER_BOUND ( 'NONE', #367, .T. ) ;
#195 = ORIENTED_EDGE ( 'NONE', *, *, #84, .F. ) ;
#196 = CC_DESIGN_APPROVAL ( #273, ( #165 ) ) ;
#197 = ORIENTED_EDGE ( 'NONE', *, *, #70, .T. ) ;
#198 = DIRECTION ( 'NONE',  ( 0.000000000000000000, 0.000000000000000000, 1.000000000000000000 ) ) ;
#199 = VERTEX_POINT ( 'NONE', #223 ) ;
#200 = AXIS2_PLACEMENT_3D ( 'NONE', #371, #308, #272 ) ;
#201 = CC_DESIGN_APPROVAL ( #125, ( #64 ) ) ;
#202 = ADVANCED_FACE ( 'NONE', ( #218 ), #244, .F. ) ;
#203 = ADVANCED_FACE ( 'NONE', ( #305 ), #63, .F. ) ;
#204 = MECHANICAL_CONTEXT ( 'NONE', #132, 'mechanical' ) ;
#205 = DIRECTION ( 'NONE',  ( 0.000000000000000000, 0.000000000000000000, -1.000000000000000000 ) ) ;
#206 = PERSON_AND_ORGANIZATION ( #349, #25 ) ;
#207 = CARTESIAN_POINT ( 'NONE',  ( 0.000000000000000000, 0.000000000000000000, 0.000000000000000000 ) ) ;
#208 = COORDINATED_UNIVERSAL_TIME_OFFSET ( 1, 0, .AHEAD. ) ;
#209 = DIRECTION ( 'NONE',  ( 1.000000000000000000, 0.000000000000000000, -0.000000000000000000 ) ) ;
#210 = AXIS2_PLACEMENT_3D ( 'NONE', #177, #5, #353 ) ;
#211 = CALENDAR_DATE ( 2022, 10, 7 ) ;
#212 = DIRECTION ( 'NONE',  ( 1.000000000000000000, 0.000000000000000000, 0.000000000000000000 ) ) ;
#213 = PERSON_AND_ORGANIZATION ( #349, #25 ) ;
#214 = CARTESIAN_POINT ( 'NONE',  ( 4.099999999999999645, 5.021051876504147385E-16, 157.0000000000000000 ) ) ;
#215 = AXIS2_PLACEMENT_3D ( 'NONE', #268, #355, #265 ) ;
#216 = DIRECTION ( 'NONE',  ( -0.000000000000000000, -0.000000000000000000, -1.000000000000000000 ) ) ;
#217 = EDGE_LOOP ( 'NONE', ( #240, #195, #317, #250 ) ) ;
#218 = FACE_OUTER_BOUND ( 'NONE', #185, .T. ) ;
#219 = DESIGN_CONTEXT ( 'detailed design', #26, 'design' ) ;
#220 = CARTESIAN_POINT ( 'NONE',  ( -4.099999999999999645, 0.000000000000000000, 0.000000000000000000 ) ) ;
#221 = ORIENTED_EDGE ( 'NONE', *, *, #264, .T. ) ;
#222 = AXIS2_PLACEMENT_3D ( 'NONE', #79, #167, #375 ) ;
#223 = CARTESIAN_POINT ( 'NONE',  ( 4.099999999999999645, 5.021051876504147385E-16, 157.0000000000000000 ) ) ;
#224 = ORIENTED_EDGE ( 'NONE', *, *, #84, .T. ) ;
#225 = CC_DESIGN_APPROVAL ( #107, ( #319 ) ) ;
#226 = ADVANCED_BREP_SHAPE_REPRESENTATION ( '959b', ( #300, #174 ), #158 ) ;
#227 = DIRECTION ( 'NONE',  ( -0.000000000000000000, -0.000000000000000000, -1.000000000000000000 ) ) ;
#228 = VERTEX_POINT ( 'NONE', #336 ) ;
#229 = ADVANCED_FACE ( 'NONE', ( #310 ), #373, .F. ) ;
#230 = DIRECTION ( 'NONE',  ( 0.000000000000000000, 0.000000000000000000, 1.000000000000000000 ) ) ;
#231 = APPLICATION_PROTOCOL_DEFINITION ( 'international standard', 'config_control_design', 1994, #132 ) ;
#232 = LINE ( 'NONE', #262, #91 ) ;
#233 = FACE_BOUND ( 'NONE', #370, .T. ) ;
#234 = EDGE_LOOP ( 'NONE', ( #118, #78 ) ) ;
#235 = CIRCLE ( 'NONE', #136, 4.099999999999999645 ) ;
#236 = CARTESIAN_POINT ( 'NONE',  ( 0.000000000000000000, 0.000000000000000000, 7.700000000000012612 ) ) ;
#237 = AXIS2_PLACEMENT_3D ( 'NONE', #378, #139, #284 ) ;
#238 = ADVANCED_FACE ( 'NONE', ( #277 ), #71, .T. ) ;
#239 = PERSON_AND_ORGANIZATION_ROLE ( 'design_owner' ) ;
#240 = ORIENTED_EDGE ( 'NONE', *, *, #43, .F. ) ;
#241 = DIRECTION ( 'NONE',  ( 1.000000000000000000, 0.000000000000000000, 0.000000000000000000 ) ) ;
#242 = AXIS2_PLACEMENT_3D ( 'NONE', #377, #290, #34 ) ;
#243 = DATE_AND_TIME ( #211, #343 ) ;
#244 = CYLINDRICAL_SURFACE ( 'NONE', #57, 4.099999999999999645 ) ;
#245 = CC_DESIGN_PERSON_AND_ORGANIZATION_ASSIGNMENT ( #88, #10, ( #165 ) ) ;
#246 = CARTESIAN_POINT ( 'NONE',  ( 0.000000000000000000, 0.000000000000000000, 7.000000000000000000 ) ) ;
#247 = CIRCLE ( 'NONE', #179, 10.00000000000000000 ) ;
#248 = DIRECTION ( 'NONE',  ( -0.000000000000000000, -0.000000000000000000, -1.000000000000000000 ) ) ;
#249 = CYLINDRICAL_SURFACE ( 'NONE', #184, 10.00000000000000000 ) ;
#250 = ORIENTED_EDGE ( 'NONE', *, *, #87, .F. ) ;
#251 = AXIS2_PLACEMENT_3D ( 'NONE', #112, #143, #140 ) ;
#252 = ADVANCED_FACE ( 'NONE', ( #102 ), #249, .T. ) ;
#253 = CARTESIAN_POINT ( 'NONE',  ( 0.000000000000000000, 0.000000000000000000, 0.000000000000000000 ) ) ;
#254 = VERTEX_POINT ( 'NONE', #220 ) ;
#255 = VECTOR ( 'NONE', #62, 1000.000000000000000 ) ;
#256 = CC_DESIGN_SECURITY_CLASSIFICATION ( #64, ( #319 ) ) ;
#257 = DIRECTION ( 'NONE',  ( 1.000000000000000000, 0.000000000000000000, 0.000000000000000000 ) ) ;
#258 = CARTESIAN_POINT ( 'NONE',  ( 6.700000000000001066, 0.000000000000000000, 7.000000000000006217 ) ) ;
#259 = ORIENTED_EDGE ( 'NONE', *, *, #83, .T. ) ;
#260 =( NAMED_UNIT ( * ) SI_UNIT ( $, .STERADIAN. ) SOLID_ANGLE_UNIT ( ) );
#261 = DIRECTION ( 'NONE',  ( -0.000000000000000000, -0.000000000000000000, -1.000000000000000000 ) ) ;
#262 = CARTESIAN_POINT ( 'NONE',  ( 10.00000000000000000, 1.224646799147353256E-15, 7.000000000000000000 ) ) ;
#263 = CARTESIAN_POINT ( 'NONE',  ( 10.00000000000000000, 1.224646799147353256E-15, 7.000000000000000000 ) ) ;
#264 = EDGE_CURVE ( 'NONE', #105, #156, #32, .T. ) ;
#265 = DIRECTION ( 'NONE',  ( 1.000000000000000000, 0.000000000000000000, 0.000000000000000000 ) ) ;
#266 = ORIENTED_EDGE ( 'NONE', *, *, #333, .F. ) ;
#267 = CALENDAR_DATE ( 2022, 10, 7 ) ;
#268 = CARTESIAN_POINT ( 'NONE',  ( 0.000000000000000000, 0.000000000000000000, 7.000000000000000000 ) ) ;
#269 = AXIS2_PLACEMENT_3D ( 'NONE', #53, #285, #29 ) ;
#270 = PERSON_AND_ORGANIZATION ( #349, #25 ) ;
#271 = CARTESIAN_POINT ( 'NONE',  ( 6.000000000000000888, 7.347880794884120722E-16, 157.0000000000000000 ) ) ;
#272 = DIRECTION ( 'NONE',  ( 1.000000000000000000, 0.000000000000000000, 0.000000000000000000 ) ) ;
#273 = APPROVAL ( #60, 'NEURÈENÝ' ) ;
#274 = CARTESIAN_POINT ( 'NONE',  ( 0.000000000000000000, 0.000000000000000000, 157.0000000000000000 ) ) ;
#275 = VERTEX_POINT ( 'NONE', #369 ) ;
#276 = DIRECTION ( 'NONE',  ( 1.000000000000000000, 0.000000000000000000, 0.000000000000000000 ) ) ;
#277 = FACE_OUTER_BOUND ( 'NONE', #164, .T. ) ;
#278 = ORIENTED_EDGE ( 'NONE', *, *, #162, .F. ) ;
#279 = CC_DESIGN_PERSON_AND_ORGANIZATION_ASSIGNMENT ( #42, #175, ( #64 ) ) ;
#280 = PLANE ( 'NONE',  #312 ) ;
#281 = ORIENTED_EDGE ( 'NONE', *, *, #135, .F. ) ;
#282 = VECTOR ( 'NONE', #216, 1000.000000000000000 ) ;
#283 = EDGE_CURVE ( 'NONE', #169, #228, #341, .T. ) ;
#284 = DIRECTION ( 'NONE',  ( 1.000000000000000000, 0.000000000000000000, 0.000000000000000000 ) ) ;
#285 = DIRECTION ( 'NONE',  ( -0.000000000000000000, -0.000000000000000000, -1.000000000000000000 ) ) ;
#286 = PRODUCT_RELATED_PRODUCT_CATEGORY ( 'detail', '', ( #8 ) ) ;
#287 = VECTOR ( 'NONE', #52, 1000.000000000000000 ) ;
#288 = DIRECTION ( 'NONE',  ( 0.000000000000000000, 0.000000000000000000, 1.000000000000000000 ) ) ;
#289 = LINE ( 'NONE', #314, #95 ) ;
#290 = DIRECTION ( 'NONE',  ( 1.224646799147353207E-16, 1.000000000000000000, -0.000000000000000000 ) ) ;
#291 = ADVANCED_FACE ( 'NONE', ( #233, #194 ), #280, .T. ) ;
#292 = ORIENTED_EDGE ( 'NONE', *, *, #306, .F. ) ;
#293 = PERSON_AND_ORGANIZATION ( #349, #25 ) ;
#294 = CIRCLE ( 'NONE', #127, 10.00000000000000000 ) ;
#295 = DIRECTION ( 'NONE',  ( 0.000000000000000000, -1.000000000000000000, 0.000000000000000000 ) ) ;
#296 = COORDINATED_UNIVERSAL_TIME_OFFSET ( 1, 0, .AHEAD. ) ;
#297 = DIRECTION ( 'NONE',  ( -1.000000000000000000, 0.000000000000000000, 0.000000000000000000 ) ) ;
#298 = APPROVAL_ROLE ( '' ) ;
#299 = DIRECTION ( 'NONE',  ( 0.000000000000000000, 0.000000000000000000, 1.000000000000000000 ) ) ;
#300 = MANIFOLD_SOLID_BREP ( 'Odebrat vysunutím3', #323 ) ;
#301 = LOCAL_TIME ( 11, 2, 24.00000000000000000, #151 ) ;
#302 = VERTEX_POINT ( 'NONE', #168 ) ;
#303 = AXIS2_PLACEMENT_3D ( 'NONE', #37, #379, #54 ) ;
#304 = CIRCLE ( 'NONE', #251, 6.000000000000000888 ) ;
#305 = FACE_OUTER_BOUND ( 'NONE', #217, .T. ) ;
#306 = EDGE_CURVE ( 'NONE', #187, #228, #2, .T. ) ;
#307 = CIRCLE ( 'NONE', #18, 6.700000000000001066 ) ;
#308 = DIRECTION ( 'NONE',  ( 0.000000000000000000, 0.000000000000000000, 1.000000000000000000 ) ) ;
#309 = ORIENTED_EDGE ( 'NONE', *, *, #70, .F. ) ;
#310 = FACE_OUTER_BOUND ( 'NONE', #186, .T. ) ;
#311 = ORIENTED_EDGE ( 'NONE', *, *, #35, .F. ) ;
#312 = AXIS2_PLACEMENT_3D ( 'NONE', #82, #198, #172 ) ;
#313 = ORIENTED_EDGE ( 'NONE', *, *, #137, .T. ) ;
#314 = CARTESIAN_POINT ( 'NONE',  ( -6.000000000000000888, 0.000000000000000000, 157.0000000000000000 ) ) ;
#315 = ORIENTED_EDGE ( 'NONE', *, *, #106, .F. ) ;
#316 = CIRCLE ( 'NONE', #85, 6.000000000000000888 ) ;
#317 = ORIENTED_EDGE ( 'NONE', *, *, #135, .T. ) ;
#318 = APPROVAL_PERSON_ORGANIZATION ( #293, #107, #182 ) ;
#319 = PRODUCT_DEFINITION_FORMATION_WITH_SPECIFIED_SOURCE ( 'LIBOVOLNÝ', '', #8, .NOT_KNOWN. ) ;
#320 = DIRECTION ( 'NONE',  ( 0.000000000000000000, 0.000000000000000000, 1.000000000000000000 ) ) ;
#321 = APPLICATION_PROTOCOL_DEFINITION ( 'international standard', 'config_control_design', 1994, #26 ) ;
#322 = DATE_AND_TIME ( #120, #45 ) ;
#323 = CLOSED_SHELL ( 'NONE', ( #157, #229, #238, #252, #22, #193, #150, #191, #291, #203, #202 ) ) ;
#324 = PRODUCT_DEFINITION_SHAPE ( 'NONE', 'NONE',  #165 ) ;
#325 = CALENDAR_DATE ( 2022, 10, 7 ) ;
#326 = AXIS2_PLACEMENT_3D ( 'NONE', #73, #77, #334 ) ;
#327 = CARTESIAN_POINT ( 'NONE',  ( -10.00000000000000000, 0.000000000000000000, 0.000000000000000000 ) ) ;
#328 = APPROVAL_PERSON_ORGANIZATION ( #113, #273, #298 ) ;
#329 = VERTEX_POINT ( 'NONE', #23 ) ;
#330 = PERSON_AND_ORGANIZATION_ROLE ( 'design_supplier' ) ;
#331 = FACE_OUTER_BOUND ( 'NONE', #72, .T. ) ;
#332 = FACE_OUTER_BOUND ( 'NONE', #234, .T. ) ;
#333 = EDGE_CURVE ( 'NONE', #302, #187, #289, .T. ) ;
#334 = DIRECTION ( 'NONE',  ( 1.000000000000000000, 0.000000000000000000, 0.000000000000000000 ) ) ;
#335 = LOCAL_TIME ( 11, 2, 24.00000000000000000, #208 ) ;
#336 = CARTESIAN_POINT ( 'NONE',  ( 6.000000000000000888, 7.347880794884120722E-16, 7.700000000000012612 ) ) ;
#337 = ORIENTED_EDGE ( 'NONE', *, *, #380, .F. ) ;
#338 = CC_DESIGN_DATE_AND_TIME_ASSIGNMENT ( #65, #3, ( #165 ) ) ;
#339 = DIRECTION ( 'NONE',  ( 0.000000000000000000, 0.000000000000000000, 1.000000000000000000 ) ) ;
#340 = EDGE_LOOP ( 'NONE', ( #123, #103 ) ) ;
#341 = LINE ( 'NONE', #100, #282 ) ;
#342 = AXIS2_PLACEMENT_3D ( 'NONE', #253, #364, #276 ) ;
#343 = LOCAL_TIME ( 11, 2, 24.00000000000000000, #362 ) ;
#344 = DIRECTION ( 'NONE',  ( 0.000000000000000000, 0.000000000000000000, -1.000000000000000000 ) ) ;
#345 = DIRECTION ( 'NONE',  ( 1.000000000000000000, 0.000000000000000000, 0.000000000000000000 ) ) ;
#346 = ORIENTED_EDGE ( 'NONE', *, *, #101, .F. ) ;
#347 = CIRCLE ( 'NONE', #210, 6.000000000000000888 ) ;
#348 = CARTESIAN_POINT ( 'NONE',  ( -10.00000000000000000, 0.000000000000000000, 7.000000000000000000 ) ) ;
#349 = PERSON ( 'NEURÈENÝ', 'NEURÈENÝ', 'NEURÈENÝ', ('NEURÈENÝ'), ('NEURÈENÝ'), ('NEURÈENÝ') ) ;
#350 = CARTESIAN_POINT ( 'NONE',  ( 4.099999999999999645, 5.021051876504147385E-16, 0.000000000000000000 ) ) ;
#351 = CC_DESIGN_PERSON_AND_ORGANIZATION_ASSIGNMENT ( #206, #98, ( #319 ) ) ;
#352 = CIRCLE ( 'NONE', #173, 0.7000000000000000666 ) ;
#353 = DIRECTION ( 'NONE',  ( 1.000000000000000000, 0.000000000000000000, 0.000000000000000000 ) ) ;
#354 = APPROVAL_DATE_TIME ( #322, #125 ) ;
#355 = DIRECTION ( 'NONE',  ( -0.000000000000000000, -0.000000000000000000, -1.000000000000000000 ) ) ;
#356 = CC_DESIGN_DATE_AND_TIME_ASSIGNMENT ( #146, #115, ( #64 ) ) ;
#357 = CIRCLE ( 'NONE', #242, 0.7000000000000000666 ) ;
#358 = FACE_BOUND ( 'NONE', #131, .T. ) ;
#359 = ORIENTED_EDGE ( 'NONE', *, *, #124, .T. ) ;
#360 = APPROVAL_DATE_TIME ( #243, #107 ) ;
#361 = VECTOR ( 'NONE', #61, 1000.000000000000000 ) ;
#362 = COORDINATED_UNIVERSAL_TIME_OFFSET ( 1, 0, .AHEAD. ) ;
#363 = CARTESIAN_POINT ( 'NONE',  ( 0.000000000000000000, 0.000000000000000000, 7.000000000000000000 ) ) ;
#364 = DIRECTION ( 'NONE',  ( 0.000000000000000000, 0.000000000000000000, 1.000000000000000000 ) ) ;
#365 = EDGE_CURVE ( 'NONE', #199, #329, #114, .T. ) ;
#366 = DIRECTION ( 'NONE',  ( -1.000000000000000000, 0.000000000000000000, 0.000000000000000000 ) ) ;
#367 = EDGE_LOOP ( 'NONE', ( #192, #76 ) ) ;
#368 = CC_DESIGN_PERSON_AND_ORGANIZATION_ASSIGNMENT ( #213, #330, ( #319 ) ) ;
#369 = CARTESIAN_POINT ( 'NONE',  ( -6.700000000000001066, 8.205133554287267548E-16, 7.000000000000006217 ) ) ;
#370 = EDGE_LOOP ( 'NONE', ( #309, #56 ) ) ;
#371 = CARTESIAN_POINT ( 'NONE',  ( 0.000000000000000000, 0.000000000000000000, 7.700000000000012612 ) ) ;
#372 = ORIENTED_EDGE ( 'NONE', *, *, #137, .F. ) ;
#373 = TOROIDAL_SURFACE ( 'NONE', #200, 6.700000000000001066, 0.6999999999999999556 ) ;
#374 = VERTEX_POINT ( 'NONE', #258 ) ;
#375 = DIRECTION ( 'NONE',  ( 1.000000000000000000, 0.000000000000000000, 0.000000000000000000 ) ) ;
#376 = LINE ( 'NONE', #176, #287 ) ;
#377 = CARTESIAN_POINT ( 'NONE',  ( -6.700000000000001066, 8.205133554287267548E-16, 7.700000000000012612 ) ) ;
#378 = CARTESIAN_POINT ( 'NONE',  ( 0.000000000000000000, 0.000000000000000000, 7.700000000000012612 ) ) ;
#379 = DIRECTION ( 'NONE',  ( -0.000000000000000000, -0.000000000000000000, -1.000000000000000000 ) ) ;
#380 = EDGE_CURVE ( 'NONE', #374, #275, #307, .T. ) ;
#381 = DIRECTION ( 'NONE',  ( 0.000000000000000000, 0.000000000000000000, -1.000000000000000000 ) ) ;
ENDSEC;
END-ISO-10303-21;
