ISO-10303-21;
HEADER;
FILE_DESCRIPTION (( 'STEP AP203' ),
    '1' );
FILE_NAME ('6641.STEP',
    '2022-07-10T09:20:07',
    ( '' ),
    ( '' ),
    'SwSTEP 2.0',
    'SolidWorks 2019',
    '' );
FILE_SCHEMA (( 'CONFIG_CONTROL_DESIGN' ));
ENDSEC;

DATA;
#1 = EDGE_CURVE ( 'NONE', #134, #121, #104, .T. ) ;
#2 = CARTESIAN_POINT ( 'NONE',  ( 0.000000000000000000, 0.000000000000000000, 3.000000000000000000 ) ) ;
#3 = DIRECTION ( 'NONE',  ( 1.000000000000000000, 0.000000000000000000, 0.000000000000000000 ) ) ;
#4 = PLANE ( 'NONE',  #144 ) ;
#5 = CIRCLE ( 'NONE', #225, 2.000000000000000000 ) ;
#6 = CARTESIAN_POINT ( 'NONE',  ( 0.000000000000000000, 0.000000000000000000, 3.299999999999997158 ) ) ;
#7 = VERTEX_POINT ( 'NONE', #136 ) ;
#8 = DATE_AND_TIME ( #156, #180 ) ;
#9 = EDGE_LOOP ( 'NONE', ( #37, #52, #91, #345 ) ) ;
#10 = SECURITY_CLASSIFICATION ( '', '', #64 ) ;
#11 = CARTESIAN_POINT ( 'NONE',  ( 0.000000000000000000, 0.000000000000000000, 0.000000000000000000 ) ) ;
#12 = CIRCLE ( 'NONE', #105, 1.000000000000000000 ) ;
#13 = APPROVAL_ROLE ( '' ) ;
#14 = ORIENTED_EDGE ( 'NONE', *, *, #334, .T. ) ;
#15 = DIRECTION ( 'NONE',  ( 1.000000000000000000, 0.000000000000000000, 0.000000000000000000 ) ) ;
#16 = EDGE_CURVE ( 'NONE', #243, #273, #152, .T. ) ;
#17 = DATE_AND_TIME ( #369, #319 ) ;
#18 = EDGE_LOOP ( 'NONE', ( #157, #325 ) ) ;
#19 = CARTESIAN_POINT ( 'NONE',  ( 0.000000000000000000, 0.000000000000000000, 78.00000000000000000 ) ) ;
#20 = DIRECTION ( 'NONE',  ( 0.000000000000000000, 0.000000000000000000, -1.000000000000000000 ) ) ;
#21 = DIRECTION ( 'NONE',  ( -0.000000000000000000, -0.000000000000000000, -1.000000000000000000 ) ) ;
#22 = LINE ( 'NONE', #143, #285 ) ;
#23 = CIRCLE ( 'NONE', #176, 0.2999999999999999334 ) ;
#24 = CIRCLE ( 'NONE', #288, 4.000000000000000000 ) ;
#25 = CARTESIAN_POINT ( 'NONE',  ( 0.000000000000000000, 0.000000000000000000, 78.00000000000000000 ) ) ;
#26 = DIRECTION ( 'NONE',  ( 0.000000000000000000, 0.000000000000000000, 1.000000000000000000 ) ) ;
#27 = DIRECTION ( 'NONE',  ( 0.000000000000000000, -1.000000000000000000, 0.000000000000000000 ) ) ;
#28 = FACE_OUTER_BOUND ( 'NONE', #89, .T. ) ;
#29 = EDGE_CURVE ( 'NONE', #215, #171, #35, .T. ) ;
#30 = CARTESIAN_POINT ( 'NONE',  ( 0.000000000000000000, 0.000000000000000000, 78.00000000000000000 ) ) ;
#31 = CC_DESIGN_PERSON_AND_ORGANIZATION_ASSIGNMENT ( #219, #335, ( #340 ) ) ;
#32 = APPROVAL_PERSON_ORGANIZATION ( #363, #251, #227 ) ;
#33 = CARTESIAN_POINT ( 'NONE',  ( 0.000000000000000000, 0.000000000000000000, 0.000000000000000000 ) ) ;
#34 = EDGE_LOOP ( 'NONE', ( #14, #65 ) ) ;
#35 = CIRCLE ( 'NONE', #260, 1.000000000000000000 ) ;
#36 = APPROVAL_STATUS ( 'not_yet_approved' ) ;
#37 = ORIENTED_EDGE ( 'NONE', *, *, #317, .T. ) ;
#38 = APPROVAL_DATE_TIME ( #8, #251 ) ;
#39 = DIRECTION ( 'NONE',  ( 0.000000000000000000, 0.000000000000000000, 1.000000000000000000 ) ) ;
#40 = VERTEX_POINT ( 'NONE', #139 ) ;
#41 = EDGE_LOOP ( 'NONE', ( #187, #102 ) ) ;
#42 = ADVANCED_FACE ( 'NONE', ( #97, #221 ), #337, .F. ) ;
#43 = EDGE_CURVE ( 'NONE', #7, #164, #98, .T. ) ;
#44 = CYLINDRICAL_SURFACE ( 'NONE', #245, 1.000000000000000000 ) ;
#45 = CIRCLE ( 'NONE', #226, 2.000000000000000000 ) ;
#46 = FACE_OUTER_BOUND ( 'NONE', #9, .T. ) ;
#47 = CARTESIAN_POINT ( 'NONE',  ( 1.000000000000000000, 1.224646799147353207E-16, 78.00000000000000000 ) ) ;
#48 = CLOSED_SHELL ( 'NONE', ( #100, #362, #207, #69, #297, #82, #42, #61, #256, #241, #140 ) ) ;
#49 = CARTESIAN_POINT ( 'NONE',  ( 0.000000000000000000, 0.000000000000000000, 78.00000000000000000 ) ) ;
#50 = APPROVAL ( #36, 'NEURÈENÝ' ) ;
#51 = DIRECTION ( 'NONE',  ( 1.000000000000000000, 0.000000000000000000, 0.000000000000000000 ) ) ;
#52 = ORIENTED_EDGE ( 'NONE', *, *, #178, .T. ) ;
#53 = LOCAL_TIME ( 11, 20, 7.000000000000000000, #112 ) ;
#54 = DIRECTION ( 'NONE',  ( -0.000000000000000000, -0.000000000000000000, -1.000000000000000000 ) ) ;
#55 = AXIS2_PLACEMENT_3D ( 'NONE', #242, #27, #147 ) ;
#56 = VECTOR ( 'NONE', #199, 1000.000000000000000 ) ;
#57 = DIRECTION ( 'NONE',  ( -0.000000000000000000, -0.000000000000000000, -1.000000000000000000 ) ) ;
#58 = ORIENTED_EDGE ( 'NONE', *, *, #311, .F. ) ;
#59 = DIRECTION ( 'NONE',  ( 0.000000000000000000, 0.000000000000000000, 1.000000000000000000 ) ) ;
#60 = ORIENTED_EDGE ( 'NONE', *, *, #16, .F. ) ;
#61 = ADVANCED_FACE ( 'NONE', ( #80 ), #175, .T. ) ;
#62 = DIRECTION ( 'NONE',  ( 1.000000000000000000, 0.000000000000000000, 0.000000000000000000 ) ) ;
#63 = EDGE_LOOP ( 'NONE', ( #60, #182, #153, #323 ) ) ;
#64 = SECURITY_CLASSIFICATION_LEVEL ( 'unclassified' ) ;
#65 = ORIENTED_EDGE ( 'NONE', *, *, #313, .T. ) ;
#66 = CC_DESIGN_PERSON_AND_ORGANIZATION_ASSIGNMENT ( #159, #281, ( #10 ) ) ;
#67 = EDGE_LOOP ( 'NONE', ( #308, #206, #360, #330 ) ) ;
#68 = CALENDAR_DATE ( 2022, 10, 7 ) ;
#69 = ADVANCED_FACE ( 'NONE', ( #263 ), #291, .T. ) ;
#70 = CARTESIAN_POINT ( 'NONE',  ( 0.000000000000000000, 0.000000000000000000, 78.00000000000000000 ) ) ;
#71 = DIRECTION ( 'NONE',  ( 0.000000000000000000, 0.000000000000000000, 1.000000000000000000 ) ) ;
#72 = VECTOR ( 'NONE', #150, 1000.000000000000000 ) ;
#73 = ORIENTED_EDGE ( 'NONE', *, *, #329, .T. ) ;
#74 = TOROIDAL_SURFACE ( 'NONE', #233, 2.299999999999999822, 0.2999999999999999889 ) ;
#75 = COORDINATED_UNIVERSAL_TIME_OFFSET ( 1, 0, .AHEAD. ) ;
#76 = ORIENTED_EDGE ( 'NONE', *, *, #252, .T. ) ;
#77 = EDGE_CURVE ( 'NONE', #121, #134, #45, .T. ) ;
#78 = AXIS2_PLACEMENT_3D ( 'NONE', #11, #71, #307 ) ;
#79 = APPROVAL_STATUS ( 'not_yet_approved' ) ;
#80 = FACE_OUTER_BOUND ( 'NONE', #67, .T. ) ;
#81 = LINE ( 'NONE', #177, #253 ) ;
#82 = ADVANCED_FACE ( 'NONE', ( #298, #381 ), #197, .T. ) ;
#83 = CARTESIAN_POINT ( 'NONE',  ( -4.000000000000000000, 0.000000000000000000, 0.000000000000000000 ) ) ;
#84 = DIRECTION ( 'NONE',  ( -1.000000000000000000, 0.000000000000000000, 0.000000000000000000 ) ) ;
#85 = APPROVAL_DATE_TIME ( #295, #290 ) ;
#86 = DIRECTION ( 'NONE',  ( -1.000000000000000000, 0.000000000000000000, 0.000000000000000000 ) ) ;
#87 = AXIS2_PLACEMENT_3D ( 'NONE', #264, #21, #86 ) ;
#88 = DIRECTION ( 'NONE',  ( 1.000000000000000000, 0.000000000000000000, 0.000000000000000000 ) ) ;
#89 = EDGE_LOOP ( 'NONE', ( #103, #138 ) ) ;
#90 = DIRECTION ( 'NONE',  ( 0.000000000000000000, 0.000000000000000000, 1.000000000000000000 ) ) ;
#91 = ORIENTED_EDGE ( 'NONE', *, *, #229, .T. ) ;
#92 = VERTEX_POINT ( 'NONE', #378 ) ;
#93 = DIRECTION ( 'NONE',  ( 0.000000000000000000, 0.000000000000000000, 1.000000000000000000 ) ) ;
#94 = EDGE_LOOP ( 'NONE', ( #343, #129, #223, #149 ) ) ;
#95 = DIRECTION ( 'NONE',  ( 0.000000000000000000, 0.000000000000000000, 1.000000000000000000 ) ) ;
#96 = PERSON_AND_ORGANIZATION_ROLE ( 'creator' ) ;
#97 = FACE_BOUND ( 'NONE', #255, .T. ) ;
#98 = CIRCLE ( 'NONE', #304, 2.000000000000000000 ) ;
#99 = ORIENTED_EDGE ( 'NONE', *, *, #364, .F. ) ;
#100 = ADVANCED_FACE ( 'NONE', ( #46 ), #110, .F. ) ;
#101 = PERSON_AND_ORGANIZATION ( #322, #331 ) ;
#102 = ORIENTED_EDGE ( 'NONE', *, *, #29, .F. ) ;
#103 = ORIENTED_EDGE ( 'NONE', *, *, #77, .T. ) ;
#104 = CIRCLE ( 'NONE', #220, 2.000000000000000000 ) ;
#105 = AXIS2_PLACEMENT_3D ( 'NONE', #30, #93, #301 ) ;
#106 = MANIFOLD_SOLID_BREP ( 'Odebrat vysunutím3', #48 ) ;
#107 = APPROVAL_STATUS ( 'not_yet_approved' ) ;
#108 = CIRCLE ( 'NONE', #154, 1.000000000000000000 ) ;
#109 = DIRECTION ( 'NONE',  ( 0.000000000000000000, 0.000000000000000000, 1.000000000000000000 ) ) ;
#110 = CYLINDRICAL_SURFACE ( 'NONE', #272, 1.000000000000000000 ) ;
#111 = APPROVAL_PERSON_ORGANIZATION ( #141, #290, #201 ) ;
#112 = COORDINATED_UNIVERSAL_TIME_OFFSET ( 1, 0, .AHEAD. ) ;
#113 = DIRECTION ( 'NONE',  ( -1.000000000000000000, 0.000000000000000000, 0.000000000000000000 ) ) ;
#114 = DIRECTION ( 'NONE',  ( 0.000000000000000000, 0.000000000000000000, -1.000000000000000000 ) ) ;
#115 = AXIS2_PLACEMENT_3D ( 'NONE', #354, #57, #326 ) ;
#116 = DIRECTION ( 'NONE',  ( 1.000000000000000000, 0.000000000000000000, 0.000000000000000000 ) ) ;
#117 = DIRECTION ( 'NONE',  ( -1.000000000000000000, 0.000000000000000000, 0.000000000000000000 ) ) ;
#118 = AXIS2_PLACEMENT_3D ( 'NONE', #258, #259, #374 ) ;
#119 = DIRECTION ( 'NONE',  ( 1.224646799147353207E-16, 1.000000000000000000, -0.000000000000000000 ) ) ;
#120 = DIRECTION ( 'NONE',  ( 0.000000000000000000, 0.000000000000000000, 1.000000000000000000 ) ) ;
#121 = VERTEX_POINT ( 'NONE', #173 ) ;
#122 = DIRECTION ( 'NONE',  ( -1.000000000000000000, 0.000000000000000000, 0.000000000000000000 ) ) ;
#123 = VERTEX_POINT ( 'NONE', #234 ) ;
#124 = CARTESIAN_POINT ( 'NONE',  ( 0.000000000000000000, 0.000000000000000000, 0.000000000000000000 ) ) ;
#125 = CIRCLE ( 'NONE', #115, 2.299999999999999822 ) ;
#126 = AXIS2_PLACEMENT_3D ( 'NONE', #145, #26, #261 ) ;
#127 = PRODUCT_DEFINITION ( 'NEZNÁMÝ', '', #340, #342 ) ;
#128 = DIRECTION ( 'NONE',  ( 0.000000000000000000, 0.000000000000000000, 1.000000000000000000 ) ) ;
#129 = ORIENTED_EDGE ( 'NONE', *, *, #188, .T. ) ;
#130 = PERSON_AND_ORGANIZATION ( #322, #331 ) ;
#131 = EDGE_CURVE ( 'NONE', #273, #132, #81, .T. ) ;
#132 = VERTEX_POINT ( 'NONE', #83 ) ;
#133 = APPROVAL_DATE_TIME ( #17, #50 ) ;
#134 = VERTEX_POINT ( 'NONE', #293 ) ;
#135 = PERSON_AND_ORGANIZATION_ROLE ( 'design_owner' ) ;
#136 = CARTESIAN_POINT ( 'NONE',  ( -2.000000000000000000, 0.000000000000000000, 3.299999999999997158 ) ) ;
#137 = DATE_TIME_ROLE ( 'creation_date' ) ;
#138 = ORIENTED_EDGE ( 'NONE', *, *, #1, .T. ) ;
#139 = CARTESIAN_POINT ( 'NONE',  ( -1.000000000000000000, 0.000000000000000000, 0.000000000000000000 ) ) ;
#140 = ADVANCED_FACE ( 'NONE', ( #346 ), #44, .F. ) ;
#141 = PERSON_AND_ORGANIZATION ( #322, #331 ) ;
#142 = CARTESIAN_POINT ( 'NONE',  ( 0.000000000000000000, 0.000000000000000000, 78.00000000000000000 ) ) ;
#143 = CARTESIAN_POINT ( 'NONE',  ( 2.000000000000000000, 2.449293598294706414E-16, 78.00000000000000000 ) ) ;
#144 = AXIS2_PLACEMENT_3D ( 'NONE', #148, #95, #328 ) ;
#145 = CARTESIAN_POINT ( 'NONE',  ( 0.000000000000000000, 0.000000000000000000, 3.000000000000000000 ) ) ;
#146 = DIRECTION ( 'NONE',  ( 1.000000000000000000, 0.000000000000000000, 0.000000000000000000 ) ) ;
#147 = DIRECTION ( 'NONE',  ( 0.000000000000000000, 0.000000000000000000, -1.000000000000000000 ) ) ;
#148 = CARTESIAN_POINT ( 'NONE',  ( 0.000000000000000000, 0.000000000000000000, 78.00000000000000000 ) ) ;
#149 = ORIENTED_EDGE ( 'NONE', *, *, #218, .F. ) ;
#150 = DIRECTION ( 'NONE',  ( -0.000000000000000000, -0.000000000000000000, -1.000000000000000000 ) ) ;
#151 = DIRECTION ( 'NONE',  ( -0.000000000000000000, -0.000000000000000000, -1.000000000000000000 ) ) ;
#152 = CIRCLE ( 'NONE', #118, 4.000000000000000000 ) ;
#153 = ORIENTED_EDGE ( 'NONE', *, *, #283, .T. ) ;
#154 = AXIS2_PLACEMENT_3D ( 'NONE', #277, #247, #88 ) ;
#155 = EDGE_CURVE ( 'NONE', #171, #40, #232, .T. ) ;
#156 = CALENDAR_DATE ( 2022, 10, 7 ) ;
#157 = ORIENTED_EDGE ( 'NONE', *, *, #357, .T. ) ;
#158 = APPLICATION_CONTEXT ( 'configuration controlled 3d designs of mechanical parts and assemblies' ) ;
#159 = PERSON_AND_ORGANIZATION ( #322, #331 ) ;
#160 = CARTESIAN_POINT ( 'NONE',  ( 0.000000000000000000, 0.000000000000000000, 0.000000000000000000 ) ) ;
#161 = CC_DESIGN_APPROVAL ( #290, ( #10 ) ) ;
#162 = APPLICATION_PROTOCOL_DEFINITION ( 'international standard', 'config_control_design', 1994, #303 ) ;
#163 = CC_DESIGN_DATE_AND_TIME_ASSIGNMENT ( #172, #379, ( #10 ) ) ;
#164 = VERTEX_POINT ( 'NONE', #347 ) ;
#165 = AXIS2_PLACEMENT_3D ( 'NONE', #305, #54, #146 ) ;
#166 = MECHANICAL_CONTEXT ( 'NONE', #303, 'mechanical' ) ;
#167 = CIRCLE ( 'NONE', #246, 4.000000000000000000 ) ;
#168 = ORIENTED_EDGE ( 'NONE', *, *, #313, .F. ) ;
#169 = APPLICATION_PROTOCOL_DEFINITION ( 'international standard', 'config_control_design', 1994, #158 ) ;
#170 = PRODUCT ( '6641', '6641', '', ( #166 ) ) ;
#171 = VERTEX_POINT ( 'NONE', #202 ) ;
#172 = DATE_AND_TIME ( #266, #53 ) ;
#173 = CARTESIAN_POINT ( 'NONE',  ( -2.000000000000000000, 0.000000000000000000, 78.00000000000000000 ) ) ;
#174 = DIRECTION ( 'NONE',  ( 1.000000000000000000, 0.000000000000000000, -0.000000000000000000 ) ) ;
#175 = CYLINDRICAL_SURFACE ( 'NONE', #365, 2.000000000000000000 ) ;
#176 = AXIS2_PLACEMENT_3D ( 'NONE', #269, #119, #238 ) ;
#177 = CARTESIAN_POINT ( 'NONE',  ( -4.000000000000000000, 0.000000000000000000, 3.000000000000000000 ) ) ;
#178 = EDGE_CURVE ( 'NONE', #215, #240, #318, .T. ) ;
#179 = DIRECTION ( 'NONE',  ( -0.000000000000000000, -0.000000000000000000, -1.000000000000000000 ) ) ;
#180 = LOCAL_TIME ( 11, 20, 7.000000000000000000, #75 ) ;
#181 = CARTESIAN_POINT ( 'NONE',  ( 4.000000000000000000, 4.898587196589412829E-16, 3.000000000000000000 ) ) ;
#182 = ORIENTED_EDGE ( 'NONE', *, *, #376, .T. ) ;
#183 = CARTESIAN_POINT ( 'NONE',  ( 0.000000000000000000, 0.000000000000000000, 3.299999999999997158 ) ) ;
#184 = ORIENTED_EDGE ( 'NONE', *, *, #329, .F. ) ;
#185 = FACE_OUTER_BOUND ( 'NONE', #327, .T. ) ;
#186 = DIRECTION ( 'NONE',  ( 1.000000000000000000, 0.000000000000000000, 0.000000000000000000 ) ) ;
#187 = ORIENTED_EDGE ( 'NONE', *, *, #317, .F. ) ;
#188 = EDGE_CURVE ( 'NONE', #134, #164, #22, .T. ) ;
#189 = CYLINDRICAL_SURFACE ( 'NONE', #356, 4.000000000000000000 ) ;
#190 = ORIENTED_EDGE ( 'NONE', *, *, #315, .F. ) ;
#191 = CARTESIAN_POINT ( 'NONE',  ( 4.000000000000000000, 4.898587196589412829E-16, 3.000000000000000000 ) ) ;
#192 = ORIENTED_EDGE ( 'NONE', *, *, #178, .F. ) ;
#193 = CIRCLE ( 'NONE', #165, 2.299999999999999822 ) ;
#194 =( NAMED_UNIT ( * ) SI_UNIT ( $, .STERADIAN. ) SOLID_ANGLE_UNIT ( ) );
#195 = DIRECTION ( 'NONE',  ( -0.000000000000000000, -0.000000000000000000, -1.000000000000000000 ) ) ;
#196 = VERTEX_POINT ( 'NONE', #349 ) ;
#197 = PLANE ( 'NONE',  #126 ) ;
#198 = COORDINATED_UNIVERSAL_TIME_OFFSET ( 1, 0, .AHEAD. ) ;
#199 = DIRECTION ( 'NONE',  ( 0.000000000000000000, 0.000000000000000000, -1.000000000000000000 ) ) ;
#200 = CARTESIAN_POINT ( 'NONE',  ( -1.000000000000000000, 0.000000000000000000, 78.00000000000000000 ) ) ;
#201 = APPROVAL_ROLE ( '' ) ;
#202 = CARTESIAN_POINT ( 'NONE',  ( -1.000000000000000000, 0.000000000000000000, 78.00000000000000000 ) ) ;
#203 = CARTESIAN_POINT ( 'NONE',  ( 1.000000000000000000, 1.224646799147353207E-16, 78.00000000000000000 ) ) ;
#204 = AXIS2_PLACEMENT_3D ( 'NONE', #6, #128, #62 ) ;
#205 = CARTESIAN_POINT ( 'NONE',  ( 1.000000000000000000, 1.224646799147353207E-16, 0.000000000000000000 ) ) ;
#206 = ORIENTED_EDGE ( 'NONE', *, *, #77, .F. ) ;
#207 = ADVANCED_FACE ( 'NONE', ( #320 ), #296, .T. ) ;
#208 = LOCAL_TIME ( 11, 20, 7.000000000000000000, #198 ) ;
#209 = DIRECTION ( 'NONE',  ( 1.000000000000000000, 0.000000000000000000, 0.000000000000000000 ) ) ;
#210 = ADVANCED_BREP_SHAPE_REPRESENTATION ( '6641', ( #106, #78 ), #268 ) ;
#211 = DIRECTION ( 'NONE',  ( 0.000000000000000000, 0.000000000000000000, 1.000000000000000000 ) ) ;
#212 = CIRCLE ( 'NONE', #310, 1.000000000000000000 ) ;
#213 = ORIENTED_EDGE ( 'NONE', *, *, #155, .T. ) ;
#214 = CARTESIAN_POINT ( 'NONE',  ( 0.000000000000000000, 0.000000000000000000, 0.000000000000000000 ) ) ;
#215 = VERTEX_POINT ( 'NONE', #203 ) ;
#216 = DIRECTION ( 'NONE',  ( 1.000000000000000000, 0.000000000000000000, 0.000000000000000000 ) ) ;
#217 = EDGE_LOOP ( 'NONE', ( #192, #355, #213, #76 ) ) ;
#218 = EDGE_CURVE ( 'NONE', #121, #7, #244, .T. ) ;
#219 = PERSON_AND_ORGANIZATION ( #322, #331 ) ;
#220 = AXIS2_PLACEMENT_3D ( 'NONE', #70, #39, #15 ) ;
#221 = FACE_OUTER_BOUND ( 'NONE', #333, .T. ) ;
#222 =( LENGTH_UNIT ( ) NAMED_UNIT ( * ) SI_UNIT ( .MILLI., .METRE. ) );
#223 = ORIENTED_EDGE ( 'NONE', *, *, #364, .T. ) ;
#224 = DATE_AND_TIME ( #68, #292 ) ;
#225 = AXIS2_PLACEMENT_3D ( 'NONE', #239, #353, #284 ) ;
#226 = AXIS2_PLACEMENT_3D ( 'NONE', #380, #314, #116 ) ;
#227 = APPROVAL_ROLE ( '' ) ;
#228 = DIRECTION ( 'NONE',  ( 1.000000000000000000, 0.000000000000000000, 0.000000000000000000 ) ) ;
#229 = EDGE_CURVE ( 'NONE', #240, #40, #108, .T. ) ;
#230 = DIRECTION ( 'NONE',  ( 0.000000000000000000, 0.000000000000000000, 1.000000000000000000 ) ) ;
#231 = APPROVAL_PERSON_ORGANIZATION ( #257, #50, #13 ) ;
#232 = LINE ( 'NONE', #200, #367 ) ;
#233 = AXIS2_PLACEMENT_3D ( 'NONE', #183, #59, #186 ) ;
#234 = CARTESIAN_POINT ( 'NONE',  ( 2.299999999999999822, 0.000000000000000000, 2.999999999999998668 ) ) ;
#235 = SHAPE_DEFINITION_REPRESENTATION ( #294, #210 ) ;
#236 = DIRECTION ( 'NONE',  ( -0.000000000000000000, -0.000000000000000000, -1.000000000000000000 ) ) ;
#237 = CARTESIAN_POINT ( 'NONE',  ( 0.000000000000000000, 0.000000000000000000, 3.299999999999997158 ) ) ;
#238 = DIRECTION ( 'NONE',  ( -1.000000000000000000, 1.224646799147353207E-16, 0.000000000000000000 ) ) ;
#239 = CARTESIAN_POINT ( 'NONE',  ( 0.000000000000000000, 0.000000000000000000, 3.299999999999997158 ) ) ;
#240 = VERTEX_POINT ( 'NONE', #205 ) ;
#241 = ADVANCED_FACE ( 'NONE', ( #321 ), #375, .F. ) ;
#242 = CARTESIAN_POINT ( 'NONE',  ( 2.299999999999999822, 0.000000000000000000, 3.299999999999997158 ) ) ;
#243 = VERTEX_POINT ( 'NONE', #181 ) ;
#244 = LINE ( 'NONE', #361, #72 ) ;
#245 = AXIS2_PLACEMENT_3D ( 'NONE', #262, #20, #113 ) ;
#246 = AXIS2_PLACEMENT_3D ( 'NONE', #2, #120, #209 ) ;
#247 = DIRECTION ( 'NONE',  ( -0.000000000000000000, -0.000000000000000000, -1.000000000000000000 ) ) ;
#248 =( NAMED_UNIT ( * ) PLANE_ANGLE_UNIT ( ) SI_UNIT ( $, .RADIAN. ) );
#249 = COORDINATED_UNIVERSAL_TIME_OFFSET ( 1, 0, .AHEAD. ) ;
#250 = ORIENTED_EDGE ( 'NONE', *, *, #315, .T. ) ;
#251 = APPROVAL ( #107, 'NEURÈENÝ' ) ;
#252 = EDGE_CURVE ( 'NONE', #40, #240, #212, .T. ) ;
#253 = VECTOR ( 'NONE', #348, 1000.000000000000000 ) ;
#254 = PERSON_AND_ORGANIZATION_ROLE ( 'creator' ) ;
#255 = EDGE_LOOP ( 'NONE', ( #371, #312 ) ) ;
#256 = ADVANCED_FACE ( 'NONE', ( #271, #28 ), #4, .T. ) ;
#257 = PERSON_AND_ORGANIZATION ( #322, #331 ) ;
#258 = CARTESIAN_POINT ( 'NONE',  ( 0.000000000000000000, 0.000000000000000000, 3.000000000000000000 ) ) ;
#259 = DIRECTION ( 'NONE',  ( 0.000000000000000000, 0.000000000000000000, 1.000000000000000000 ) ) ;
#260 = AXIS2_PLACEMENT_3D ( 'NONE', #19, #109, #228 ) ;
#261 = DIRECTION ( 'NONE',  ( 1.000000000000000000, 0.000000000000000000, -0.000000000000000000 ) ) ;
#262 = CARTESIAN_POINT ( 'NONE',  ( 0.000000000000000000, 0.000000000000000000, 78.00000000000000000 ) ) ;
#263 = FACE_OUTER_BOUND ( 'NONE', #63, .T. ) ;
#264 = CARTESIAN_POINT ( 'NONE',  ( 0.000000000000000000, 0.000000000000000000, 3.000000000000000000 ) ) ;
#265 = CC_DESIGN_PERSON_AND_ORGANIZATION_ASSIGNMENT ( #101, #135, ( #170 ) ) ;
#266 = CALENDAR_DATE ( 2022, 10, 7 ) ;
#267 = DIRECTION ( 'NONE',  ( -0.000000000000000000, -0.000000000000000000, -1.000000000000000000 ) ) ;
#268 =( GEOMETRIC_REPRESENTATION_CONTEXT ( 3 ) GLOBAL_UNCERTAINTY_ASSIGNED_CONTEXT ( ( #309 ) ) GLOBAL_UNIT_ASSIGNED_CONTEXT ( ( #222, #248, #194 ) ) REPRESENTATION_CONTEXT ( 'NONE', 'WORKASPACE' ) );
#269 = CARTESIAN_POINT ( 'NONE',  ( -2.299999999999999822, 2.816687638038912056E-16, 3.299999999999997158 ) ) ;
#270 = AXIS2_PLACEMENT_3D ( 'NONE', #160, #316, #174 ) ;
#271 = FACE_BOUND ( 'NONE', #41, .T. ) ;
#272 = AXIS2_PLACEMENT_3D ( 'NONE', #142, #114, #377 ) ;
#273 = VERTEX_POINT ( 'NONE', #299 ) ;
#274 = DIRECTION ( 'NONE',  ( 1.000000000000000000, 0.000000000000000000, 0.000000000000000000 ) ) ;
#275 = EDGE_LOOP ( 'NONE', ( #190, #99, #73, #168 ) ) ;
#276 = PRODUCT_RELATED_PRODUCT_CATEGORY ( 'detail', '', ( #170 ) ) ;
#277 = CARTESIAN_POINT ( 'NONE',  ( 0.000000000000000000, 0.000000000000000000, 0.000000000000000000 ) ) ;
#278 = ORIENTED_EDGE ( 'NONE', *, *, #357, .F. ) ;
#279 = VECTOR ( 'NONE', #195, 1000.000000000000000 ) ;
#280 = ORIENTED_EDGE ( 'NONE', *, *, #376, .F. ) ;
#281 = PERSON_AND_ORGANIZATION_ROLE ( 'classification_officer' ) ;
#282 = CC_DESIGN_APPROVAL ( #251, ( #340 ) ) ;
#283 = EDGE_CURVE ( 'NONE', #92, #132, #359, .T. ) ;
#284 = DIRECTION ( 'NONE',  ( 1.000000000000000000, 0.000000000000000000, 0.000000000000000000 ) ) ;
#285 = VECTOR ( 'NONE', #236, 1000.000000000000000 ) ;
#286 = PERSON_AND_ORGANIZATION ( #322, #331 ) ;
#287 = ORIENTED_EDGE ( 'NONE', *, *, #131, .T. ) ;
#288 = AXIS2_PLACEMENT_3D ( 'NONE', #33, #211, #216 ) ;
#289 = CALENDAR_DATE ( 2022, 10, 7 ) ;
#290 = APPROVAL ( #79, 'NEURÈENÝ' ) ;
#291 = CYLINDRICAL_SURFACE ( 'NONE', #87, 4.000000000000000000 ) ;
#292 = LOCAL_TIME ( 11, 20, 7.000000000000000000, #249 ) ;
#293 = CARTESIAN_POINT ( 'NONE',  ( 2.000000000000000000, 2.449293598294706414E-16, 78.00000000000000000 ) ) ;
#294 = PRODUCT_DEFINITION_SHAPE ( 'NONE', 'NONE',  #127 ) ;
#295 = DATE_AND_TIME ( #289, #208 ) ;
#296 = CYLINDRICAL_SURFACE ( 'NONE', #344, 2.000000000000000000 ) ;
#297 = ADVANCED_FACE ( 'NONE', ( #332 ), #189, .T. ) ;
#298 = FACE_BOUND ( 'NONE', #34, .T. ) ;
#299 = CARTESIAN_POINT ( 'NONE',  ( -4.000000000000000000, 0.000000000000000000, 3.000000000000000000 ) ) ;
#300 = DIRECTION ( 'NONE',  ( -0.000000000000000000, -0.000000000000000000, -1.000000000000000000 ) ) ;
#301 = DIRECTION ( 'NONE',  ( 1.000000000000000000, 0.000000000000000000, 0.000000000000000000 ) ) ;
#302 = CC_DESIGN_DATE_AND_TIME_ASSIGNMENT ( #224, #137, ( #127 ) ) ;
#303 = APPLICATION_CONTEXT ( 'configuration controlled 3d designs of mechanical parts and assemblies' ) ;
#304 = AXIS2_PLACEMENT_3D ( 'NONE', #237, #230, #51 ) ;
#305 = CARTESIAN_POINT ( 'NONE',  ( 0.000000000000000000, 0.000000000000000000, 3.000000000000000000 ) ) ;
#306 = ORIENTED_EDGE ( 'NONE', *, *, #43, .F. ) ;
#307 = DIRECTION ( 'NONE',  ( 1.000000000000000000, 0.000000000000000000, 0.000000000000000000 ) ) ;
#308 = ORIENTED_EDGE ( 'NONE', *, *, #188, .F. ) ;
#309 = UNCERTAINTY_MEASURE_WITH_UNIT (LENGTH_MEASURE( 1.000000000000000082E-05 ), #222, 'distance_accuracy_value', 'NONE');
#310 = AXIS2_PLACEMENT_3D ( 'NONE', #214, #151, #274 ) ;
#311 = EDGE_CURVE ( 'NONE', #132, #92, #24, .T. ) ;
#312 = ORIENTED_EDGE ( 'NONE', *, *, #229, .F. ) ;
#313 = EDGE_CURVE ( 'NONE', #196, #123, #193, .T. ) ;
#314 = DIRECTION ( 'NONE',  ( 0.000000000000000000, 0.000000000000000000, 1.000000000000000000 ) ) ;
#315 = EDGE_CURVE ( 'NONE', #7, #196, #23, .T. ) ;
#316 = DIRECTION ( 'NONE',  ( 0.000000000000000000, 0.000000000000000000, 1.000000000000000000 ) ) ;
#317 = EDGE_CURVE ( 'NONE', #171, #215, #12, .T. ) ;
#318 = LINE ( 'NONE', #47, #56 ) ;
#319 = LOCAL_TIME ( 11, 20, 7.000000000000000000, #372 ) ;
#320 = FACE_OUTER_BOUND ( 'NONE', #94, .T. ) ;
#321 = FACE_OUTER_BOUND ( 'NONE', #275, .T. ) ;
#322 = PERSON ( 'NEURÈENÝ', 'NEURÈENÝ', 'NEURÈENÝ', ('NEURÈENÝ'), ('NEURÈENÝ'), ('NEURÈENÝ') ) ;
#323 = ORIENTED_EDGE ( 'NONE', *, *, #131, .F. ) ;
#324 = CC_DESIGN_APPROVAL ( #50, ( #127 ) ) ;
#325 = ORIENTED_EDGE ( 'NONE', *, *, #16, .T. ) ;
#326 = DIRECTION ( 'NONE',  ( 1.000000000000000000, 0.000000000000000000, 0.000000000000000000 ) ) ;
#327 = EDGE_LOOP ( 'NONE', ( #306, #250, #368, #184 ) ) ;
#328 = DIRECTION ( 'NONE',  ( 1.000000000000000000, 0.000000000000000000, -0.000000000000000000 ) ) ;
#329 = EDGE_CURVE ( 'NONE', #164, #123, #336, .T. ) ;
#330 = ORIENTED_EDGE ( 'NONE', *, *, #43, .T. ) ;
#331 = ORGANIZATION ( 'NEURÈENÝ', 'NEURÈENÝ', '' ) ;
#332 = FACE_OUTER_BOUND ( 'NONE', #339, .T. ) ;
#333 = EDGE_LOOP ( 'NONE', ( #58, #366 ) ) ;
#334 = EDGE_CURVE ( 'NONE', #123, #196, #125, .T. ) ;
#335 = PERSON_AND_ORGANIZATION_ROLE ( 'design_supplier' ) ;
#336 = CIRCLE ( 'NONE', #55, 0.2999999999999999334 ) ;
#337 = PLANE ( 'NONE',  #270 ) ;
#338 = LINE ( 'NONE', #191, #279 ) ;
#339 = EDGE_LOOP ( 'NONE', ( #280, #278, #287, #341 ) ) ;
#340 = PRODUCT_DEFINITION_FORMATION_WITH_SPECIFIED_SOURCE ( 'LIBOVOLNÝ', '', #170, .NOT_KNOWN. ) ;
#341 = ORIENTED_EDGE ( 'NONE', *, *, #311, .T. ) ;
#342 = DESIGN_CONTEXT ( 'detailed design', #158, 'design' ) ;
#343 = ORIENTED_EDGE ( 'NONE', *, *, #1, .F. ) ;
#344 = AXIS2_PLACEMENT_3D ( 'NONE', #25, #267, #117 ) ;
#345 = ORIENTED_EDGE ( 'NONE', *, *, #155, .F. ) ;
#346 = FACE_OUTER_BOUND ( 'NONE', #217, .T. ) ;
#347 = CARTESIAN_POINT ( 'NONE',  ( 2.000000000000000000, 2.449293598294706414E-16, 3.299999999999997158 ) ) ;
#348 = DIRECTION ( 'NONE',  ( -0.000000000000000000, -0.000000000000000000, -1.000000000000000000 ) ) ;
#349 = CARTESIAN_POINT ( 'NONE',  ( -2.299999999999999822, 2.816687638038912056E-16, 2.999999999999998668 ) ) ;
#350 = DIRECTION ( 'NONE',  ( 0.000000000000000000, 0.000000000000000000, -1.000000000000000000 ) ) ;
#351 = AXIS2_PLACEMENT_3D ( 'NONE', #124, #90, #3 ) ;
#352 = CC_DESIGN_PERSON_AND_ORGANIZATION_ASSIGNMENT ( #130, #96, ( #340 ) ) ;
#353 = DIRECTION ( 'NONE',  ( 0.000000000000000000, 0.000000000000000000, 1.000000000000000000 ) ) ;
#354 = CARTESIAN_POINT ( 'NONE',  ( 0.000000000000000000, 0.000000000000000000, 3.000000000000000000 ) ) ;
#355 = ORIENTED_EDGE ( 'NONE', *, *, #29, .T. ) ;
#356 = AXIS2_PLACEMENT_3D ( 'NONE', #358, #300, #122 ) ;
#357 = EDGE_CURVE ( 'NONE', #273, #243, #167, .T. ) ;
#358 = CARTESIAN_POINT ( 'NONE',  ( 0.000000000000000000, 0.000000000000000000, 3.000000000000000000 ) ) ;
#359 = CIRCLE ( 'NONE', #351, 4.000000000000000000 ) ;
#360 = ORIENTED_EDGE ( 'NONE', *, *, #218, .T. ) ;
#361 = CARTESIAN_POINT ( 'NONE',  ( -2.000000000000000000, 0.000000000000000000, 78.00000000000000000 ) ) ;
#362 = ADVANCED_FACE ( 'NONE', ( #185 ), #74, .F. ) ;
#363 = PERSON_AND_ORGANIZATION ( #322, #331 ) ;
#364 = EDGE_CURVE ( 'NONE', #164, #7, #5, .T. ) ;
#365 = AXIS2_PLACEMENT_3D ( 'NONE', #49, #179, #84 ) ;
#366 = ORIENTED_EDGE ( 'NONE', *, *, #283, .F. ) ;
#367 = VECTOR ( 'NONE', #350, 1000.000000000000000 ) ;
#368 = ORIENTED_EDGE ( 'NONE', *, *, #334, .F. ) ;
#369 = CALENDAR_DATE ( 2022, 10, 7 ) ;
#370 = CC_DESIGN_SECURITY_CLASSIFICATION ( #10, ( #340 ) ) ;
#371 = ORIENTED_EDGE ( 'NONE', *, *, #252, .F. ) ;
#372 = COORDINATED_UNIVERSAL_TIME_OFFSET ( 1, 0, .AHEAD. ) ;
#373 = CC_DESIGN_PERSON_AND_ORGANIZATION_ASSIGNMENT ( #286, #254, ( #127 ) ) ;
#374 = DIRECTION ( 'NONE',  ( 1.000000000000000000, 0.000000000000000000, 0.000000000000000000 ) ) ;
#375 = TOROIDAL_SURFACE ( 'NONE', #204, 2.299999999999999822, 0.2999999999999999889 ) ;
#376 = EDGE_CURVE ( 'NONE', #243, #92, #338, .T. ) ;
#377 = DIRECTION ( 'NONE',  ( -1.000000000000000000, 0.000000000000000000, 0.000000000000000000 ) ) ;
#378 = CARTESIAN_POINT ( 'NONE',  ( 4.000000000000000000, 4.898587196589412829E-16, 0.000000000000000000 ) ) ;
#379 = DATE_TIME_ROLE ( 'classification_date' ) ;
#380 = CARTESIAN_POINT ( 'NONE',  ( 0.000000000000000000, 0.000000000000000000, 78.00000000000000000 ) ) ;
#381 = FACE_OUTER_BOUND ( 'NONE', #18, .T. ) ;
ENDSEC;
END-ISO-10303-21;
