ISO-10303-21;
HEADER;
FILE_DESCRIPTION (( 'STEP AP203' ),
    '1' );
FILE_NAME ('d5a9.STEP',
    '2022-07-10T09:12:01',
    ( '' ),
    ( '' ),
    'SwSTEP 2.0',
    'SolidWorks 2019',
    '' );
FILE_SCHEMA (( 'CONFIG_CONTROL_DESIGN' ));
ENDSEC;

DATA;
#1 = COORDINATED_UNIVERSAL_TIME_OFFSET ( 1, 0, .AHEAD. ) ;
#2 = CARTESIAN_POINT ( 'NONE',  ( -4.500000000000000888, 5.510910596163089556E-16, 5.500000000000005329 ) ) ;
#3 = DATE_AND_TIME ( #376, #27 ) ;
#4 = DIRECTION ( 'NONE',  ( -0.000000000000000000, -0.000000000000000000, -1.000000000000000000 ) ) ;
#5 = CALENDAR_DATE ( 2022, 10, 7 ) ;
#6 = CARTESIAN_POINT ( 'NONE',  ( -7.000000000000000000, 0.000000000000000000, 5.000000000000000000 ) ) ;
#7 = AXIS2_PLACEMENT_3D ( 'NONE', #175, #143, #301 ) ;
#8 = DIRECTION ( 'NONE',  ( 1.000000000000000000, 0.000000000000000000, 0.000000000000000000 ) ) ;
#9 = ORIENTED_EDGE ( 'NONE', *, *, #199, .T. ) ;
#10 = DESIGN_CONTEXT ( 'detailed design', #246, 'design' ) ;
#11 = VECTOR ( 'NONE', #176, 1000.000000000000000 ) ;
#12 = CIRCLE ( 'NONE', #224, 2.100000000000000089 ) ;
#13 = ORIENTED_EDGE ( 'NONE', *, *, #257, .F. ) ;
#14 = CIRCLE ( 'NONE', #130, 7.000000000000000000 ) ;
#15 = DIRECTION ( 'NONE',  ( 0.000000000000000000, 0.000000000000000000, -1.000000000000000000 ) ) ;
#16 = ORIENTED_EDGE ( 'NONE', *, *, #260, .T. ) ;
#17 = CARTESIAN_POINT ( 'NONE',  ( 0.000000000000000000, 0.000000000000000000, 0.000000000000000000 ) ) ;
#18 = VERTEX_POINT ( 'NONE', #292 ) ;
#19 = ADVANCED_FACE ( 'NONE', ( #261, #336 ), #353, .T. ) ;
#20 = CYLINDRICAL_SURFACE ( 'NONE', #154, 4.000000000000000000 ) ;
#21 = VERTEX_POINT ( 'NONE', #237 ) ;
#22 = CARTESIAN_POINT ( 'NONE',  ( 0.000000000000000000, 0.000000000000000000, 5.000000000000000000 ) ) ;
#23 = VERTEX_POINT ( 'NONE', #63 ) ;
#24 = APPROVAL ( #270, 'NEURÈENÝ' ) ;
#25 = EDGE_LOOP ( 'NONE', ( #111, #141, #57, #185 ) ) ;
#26 = CIRCLE ( 'NONE', #240, 4.000000000000000000 ) ;
#27 = LOCAL_TIME ( 11, 12, 1.000000000000000000, #36 ) ;
#28 = DATE_AND_TIME ( #174, #265 ) ;
#29 = ORIENTED_EDGE ( 'NONE', *, *, #282, .F. ) ;
#30 = DIRECTION ( 'NONE',  ( 0.000000000000000000, 0.000000000000000000, 1.000000000000000000 ) ) ;
#31 = PERSON_AND_ORGANIZATION ( #300, #371 ) ;
#32 = CARTESIAN_POINT ( 'NONE',  ( 0.000000000000000000, 0.000000000000000000, 205.0000000000000284 ) ) ;
#33 = CC_DESIGN_APPROVAL ( #298, ( #117 ) ) ;
#34 = APPROVAL_STATUS ( 'not_yet_approved' ) ;
#35 = CYLINDRICAL_SURFACE ( 'NONE', #286, 2.100000000000000089 ) ;
#36 = COORDINATED_UNIVERSAL_TIME_OFFSET ( 1, 0, .AHEAD. ) ;
#37 = LINE ( 'NONE', #151, #304 ) ;
#38 = AXIS2_PLACEMENT_3D ( 'NONE', #122, #295, #146 ) ;
#39 = DIRECTION ( 'NONE',  ( 0.000000000000000000, 0.000000000000000000, 1.000000000000000000 ) ) ;
#40 = CC_DESIGN_APPROVAL ( #24, ( #54 ) ) ;
#41 = ADVANCED_BREP_SHAPE_REPRESENTATION ( 'd5a9', ( #268, #208 ), #273 ) ;
#42 = VECTOR ( 'NONE', #325, 1000.000000000000000 ) ;
#43 = FACE_OUTER_BOUND ( 'NONE', #188, .T. ) ;
#44 = LOCAL_TIME ( 11, 12, 1.000000000000000000, #1 ) ;
#45 = VERTEX_POINT ( 'NONE', #233 ) ;
#46 = DIRECTION ( 'NONE',  ( -0.000000000000000000, -0.000000000000000000, -1.000000000000000000 ) ) ;
#47 = DIRECTION ( 'NONE',  ( -1.000000000000000000, 0.000000000000000000, 0.000000000000000000 ) ) ;
#48 = EDGE_LOOP ( 'NONE', ( #274, #16 ) ) ;
#49 = CARTESIAN_POINT ( 'NONE',  ( 0.000000000000000000, 0.000000000000000000, 205.0000000000000284 ) ) ;
#50 = CIRCLE ( 'NONE', #127, 4.500000000000000888 ) ;
#51 = CIRCLE ( 'NONE', #197, 4.500000000000000888 ) ;
#52 = ORIENTED_EDGE ( 'NONE', *, *, #260, .F. ) ;
#53 = ORIENTED_EDGE ( 'NONE', *, *, #166, .F. ) ;
#54 = PRODUCT_DEFINITION ( 'NEZNÁMÝ', '', #358, #10 ) ;
#55 = DIRECTION ( 'NONE',  ( -0.000000000000000000, -0.000000000000000000, -1.000000000000000000 ) ) ;
#56 = ADVANCED_FACE ( 'NONE', ( #351, #71 ), #302, .F. ) ;
#57 = ORIENTED_EDGE ( 'NONE', *, *, #380, .T. ) ;
#58 = EDGE_LOOP ( 'NONE', ( #9, #245 ) ) ;
#59 = AXIS2_PLACEMENT_3D ( 'NONE', #97, #329, #214 ) ;
#60 = TOROIDAL_SURFACE ( 'NONE', #212, 4.500000000000000888, 0.5000000000000000000 ) ;
#61 = FACE_OUTER_BOUND ( 'NONE', #281, .T. ) ;
#62 = APPROVAL_DATE_TIME ( #352, #298 ) ;
#63 = CARTESIAN_POINT ( 'NONE',  ( 7.000000000000000000, 8.572527594031473190E-16, 5.000000000000000000 ) ) ;
#64 = EDGE_CURVE ( 'NONE', #162, #315, #113, .T. ) ;
#65 = CALENDAR_DATE ( 2022, 10, 7 ) ;
#66 = DIRECTION ( 'NONE',  ( 0.000000000000000000, 0.000000000000000000, -1.000000000000000000 ) ) ;
#67 = AXIS2_PLACEMENT_3D ( 'NONE', #49, #369, #251 ) ;
#68 = CIRCLE ( 'NONE', #381, 0.5000000000000004441 ) ;
#69 = CARTESIAN_POINT ( 'NONE',  ( 0.000000000000000000, 0.000000000000000000, 205.0000000000000284 ) ) ;
#70 = CC_DESIGN_DATE_AND_TIME_ASSIGNMENT ( #238, #167, ( #117 ) ) ;
#71 = FACE_OUTER_BOUND ( 'NONE', #228, .T. ) ;
#72 = DIRECTION ( 'NONE',  ( 0.000000000000000000, 0.000000000000000000, -1.000000000000000000 ) ) ;
#73 = FACE_OUTER_BOUND ( 'NONE', #48, .T. ) ;
#74 = UNCERTAINTY_MEASURE_WITH_UNIT (LENGTH_MEASURE( 1.000000000000000082E-05 ), #164, 'distance_accuracy_value', 'NONE');
#75 = FACE_OUTER_BOUND ( 'NONE', #312, .T. ) ;
#76 = AXIS2_PLACEMENT_3D ( 'NONE', #334, #355, #243 ) ;
#77 = DIRECTION ( 'NONE',  ( 0.000000000000000000, 0.000000000000000000, 1.000000000000000000 ) ) ;
#78 = EDGE_LOOP ( 'NONE', ( #196, #316 ) ) ;
#79 = VERTEX_POINT ( 'NONE', #323 ) ;
#80 = ORIENTED_EDGE ( 'NONE', *, *, #144, .T. ) ;
#81 = DIRECTION ( 'NONE',  ( -1.000000000000000000, 0.000000000000000000, 0.000000000000000000 ) ) ;
#82 = EDGE_LOOP ( 'NONE', ( #29, #104 ) ) ;
#83 = ORIENTED_EDGE ( 'NONE', *, *, #314, .T. ) ;
#84 = EDGE_LOOP ( 'NONE', ( #368, #226, #285, #155 ) ) ;
#85 = CARTESIAN_POINT ( 'NONE',  ( -2.100000000000000089, 0.000000000000000000, 205.0000000000000284 ) ) ;
#86 = DIRECTION ( 'NONE',  ( 0.000000000000000000, 0.000000000000000000, 1.000000000000000000 ) ) ;
#87 = PERSON_AND_ORGANIZATION ( #300, #371 ) ;
#88 = DIRECTION ( 'NONE',  ( 1.224646799147353207E-16, 1.000000000000000000, -0.000000000000000000 ) ) ;
#89 = CC_DESIGN_PERSON_AND_ORGANIZATION_ASSIGNMENT ( #349, #121, ( #330 ) ) ;
#90 = DIRECTION ( 'NONE',  ( 1.000000000000000000, 0.000000000000000000, -0.000000000000000000 ) ) ;
#91 = APPROVAL_PERSON_ORGANIZATION ( #206, #298, #291 ) ;
#92 = DIRECTION ( 'NONE',  ( 1.000000000000000000, 0.000000000000000000, 0.000000000000000000 ) ) ;
#93 = CARTESIAN_POINT ( 'NONE',  ( 2.100000000000000089, 2.571758278209441957E-16, 0.000000000000000000 ) ) ;
#94 = AXIS2_PLACEMENT_3D ( 'NONE', #32, #207, #119 ) ;
#95 = LOCAL_TIME ( 11, 12, 1.000000000000000000, #324 ) ;
#96 = FACE_BOUND ( 'NONE', #165, .T. ) ;
#97 = CARTESIAN_POINT ( 'NONE',  ( 0.000000000000000000, 0.000000000000000000, 205.0000000000000284 ) ) ;
#98 = ADVANCED_FACE ( 'NONE', ( #61 ), #171, .T. ) ;
#99 = DIRECTION ( 'NONE',  ( 1.000000000000000000, 0.000000000000000000, 0.000000000000000000 ) ) ;
#100 = VERTEX_POINT ( 'NONE', #152 ) ;
#101 = FACE_OUTER_BOUND ( 'NONE', #84, .T. ) ;
#102 = EDGE_LOOP ( 'NONE', ( #53, #219, #108, #289 ) ) ;
#103 = DIRECTION ( 'NONE',  ( 0.000000000000000000, 0.000000000000000000, -1.000000000000000000 ) ) ;
#104 = ORIENTED_EDGE ( 'NONE', *, *, #183, .F. ) ;
#105 = LINE ( 'NONE', #317, #189 ) ;
#106 = TOROIDAL_SURFACE ( 'NONE', #290, 4.500000000000000888, 0.5000000000000000000 ) ;
#107 = VECTOR ( 'NONE', #103, 1000.000000000000000 ) ;
#108 = ORIENTED_EDGE ( 'NONE', *, *, #202, .T. ) ;
#109 = EDGE_CURVE ( 'NONE', #159, #21, #222, .T. ) ;
#110 =( NAMED_UNIT ( * ) PLANE_ANGLE_UNIT ( ) SI_UNIT ( $, .RADIAN. ) );
#111 = ORIENTED_EDGE ( 'NONE', *, *, #288, .F. ) ;
#112 = PERSON_AND_ORGANIZATION_ROLE ( 'creator' ) ;
#113 = CIRCLE ( 'NONE', #186, 2.100000000000000089 ) ;
#114 = FACE_OUTER_BOUND ( 'NONE', #25, .T. ) ;
#115 = APPROVAL_DATE_TIME ( #3, #24 ) ;
#116 = CARTESIAN_POINT ( 'NONE',  ( 0.000000000000000000, 0.000000000000000000, 5.500000000000005329 ) ) ;
#117 = SECURITY_CLASSIFICATION ( '', '', #118 ) ;
#118 = SECURITY_CLASSIFICATION_LEVEL ( 'unclassified' ) ;
#119 = DIRECTION ( 'NONE',  ( 1.000000000000000000, 0.000000000000000000, -0.000000000000000000 ) ) ;
#120 = CC_DESIGN_DATE_AND_TIME_ASSIGNMENT ( #28, #264, ( #54 ) ) ;
#121 = PERSON_AND_ORGANIZATION_ROLE ( 'design_owner' ) ;
#122 = CARTESIAN_POINT ( 'NONE',  ( 0.000000000000000000, 0.000000000000000000, 5.000000000000000000 ) ) ;
#123 = PERSON_AND_ORGANIZATION ( #300, #371 ) ;
#124 = CARTESIAN_POINT ( 'NONE',  ( 0.000000000000000000, 0.000000000000000000, 205.0000000000000284 ) ) ;
#125 = CARTESIAN_POINT ( 'NONE',  ( 4.000000000000000000, 4.898587196589412829E-16, 205.0000000000000284 ) ) ;
#126 = CARTESIAN_POINT ( 'NONE',  ( 0.000000000000000000, 0.000000000000000000, 5.500000000000005329 ) ) ;
#127 = AXIS2_PLACEMENT_3D ( 'NONE', #310, #46, #184 ) ;
#128 = CC_DESIGN_PERSON_AND_ORGANIZATION_ASSIGNMENT ( #123, #203, ( #117 ) ) ;
#129 = DIRECTION ( 'NONE',  ( 0.000000000000000000, 0.000000000000000000, 1.000000000000000000 ) ) ;
#130 = AXIS2_PLACEMENT_3D ( 'NONE', #209, #30, #149 ) ;
#131 = CARTESIAN_POINT ( 'NONE',  ( 0.000000000000000000, 0.000000000000000000, 5.000000000000000000 ) ) ;
#132 = AXIS2_PLACEMENT_3D ( 'NONE', #377, #348, #379 ) ;
#133 = ORIENTED_EDGE ( 'NONE', *, *, #183, .T. ) ;
#134 = CARTESIAN_POINT ( 'NONE',  ( 2.100000000000000089, 2.571758278209441957E-16, 205.0000000000000284 ) ) ;
#135 = ORIENTED_EDGE ( 'NONE', *, *, #380, .F. ) ;
#136 = DIRECTION ( 'NONE',  ( -0.000000000000000000, -0.000000000000000000, -1.000000000000000000 ) ) ;
#137 = ORIENTED_EDGE ( 'NONE', *, *, #288, .T. ) ;
#138 = DIRECTION ( 'NONE',  ( 0.000000000000000000, 0.000000000000000000, 1.000000000000000000 ) ) ;
#139 = ORIENTED_EDGE ( 'NONE', *, *, #195, .F. ) ;
#140 = COORDINATED_UNIVERSAL_TIME_OFFSET ( 1, 0, .AHEAD. ) ;
#141 = ORIENTED_EDGE ( 'NONE', *, *, #372, .T. ) ;
#142 = AXIS2_PLACEMENT_3D ( 'NONE', #350, #236, #90 ) ;
#143 = DIRECTION ( 'NONE',  ( -0.000000000000000000, -0.000000000000000000, -1.000000000000000000 ) ) ;
#144 = EDGE_CURVE ( 'NONE', #18, #216, #305, .T. ) ;
#145 = PERSON_AND_ORGANIZATION ( #300, #371 ) ;
#146 = DIRECTION ( 'NONE',  ( -1.000000000000000000, 0.000000000000000000, 0.000000000000000000 ) ) ;
#147 = APPROVAL_PERSON_ORGANIZATION ( #31, #24, #378 ) ;
#148 = SHAPE_DEFINITION_REPRESENTATION ( #234, #41 ) ;
#149 = DIRECTION ( 'NONE',  ( 1.000000000000000000, 0.000000000000000000, 0.000000000000000000 ) ) ;
#150 = APPROVAL_ROLE ( '' ) ;
#151 = CARTESIAN_POINT ( 'NONE',  ( 7.000000000000000000, 8.572527594031473190E-16, 5.000000000000000000 ) ) ;
#152 = CARTESIAN_POINT ( 'NONE',  ( 4.500000000000000888, 0.000000000000000000, 5.000000000000002665 ) ) ;
#153 = EDGE_CURVE ( 'NONE', #223, #79, #205, .T. ) ;
#154 = AXIS2_PLACEMENT_3D ( 'NONE', #365, #311, #81 ) ;
#155 = ORIENTED_EDGE ( 'NONE', *, *, #276, .F. ) ;
#156 = VERTEX_POINT ( 'NONE', #198 ) ;
#157 = APPROVAL_PERSON_ORGANIZATION ( #87, #269, #150 ) ;
#158 = CARTESIAN_POINT ( 'NONE',  ( 0.000000000000000000, 0.000000000000000000, 0.000000000000000000 ) ) ;
#159 = VERTEX_POINT ( 'NONE', #327 ) ;
#160 = ADVANCED_FACE ( 'NONE', ( #114 ), #35, .F. ) ;
#161 = DIRECTION ( 'NONE',  ( 1.000000000000000000, 0.000000000000000000, 0.000000000000000000 ) ) ;
#162 = VERTEX_POINT ( 'NONE', #85 ) ;
#163 = AXIS2_PLACEMENT_3D ( 'NONE', #173, #297, #92 ) ;
#164 =( LENGTH_UNIT ( ) NAMED_UNIT ( * ) SI_UNIT ( .MILLI., .METRE. ) );
#165 = EDGE_LOOP ( 'NONE', ( #83, #169 ) ) ;
#166 = EDGE_CURVE ( 'NONE', #223, #156, #253, .T. ) ;
#167 = DATE_TIME_ROLE ( 'classification_date' ) ;
#168 = AXIS2_PLACEMENT_3D ( 'NONE', #131, #343, #47 ) ;
#169 = ORIENTED_EDGE ( 'NONE', *, *, #276, .T. ) ;
#170 = CARTESIAN_POINT ( 'NONE',  ( -4.000000000000000000, 0.000000000000000000, 205.0000000000000284 ) ) ;
#171 = CYLINDRICAL_SURFACE ( 'NONE', #38, 7.000000000000000000 ) ;
#172 = DATE_AND_TIME ( #5, #44 ) ;
#173 = CARTESIAN_POINT ( 'NONE',  ( 0.000000000000000000, 0.000000000000000000, 205.0000000000000284 ) ) ;
#174 = CALENDAR_DATE ( 2022, 10, 7 ) ;
#175 = CARTESIAN_POINT ( 'NONE',  ( 0.000000000000000000, 0.000000000000000000, 0.000000000000000000 ) ) ;
#176 = DIRECTION ( 'NONE',  ( -0.000000000000000000, -0.000000000000000000, -1.000000000000000000 ) ) ;
#177 = CIRCLE ( 'NONE', #7, 2.100000000000000089 ) ;
#178 = LOCAL_TIME ( 11, 12, 1.000000000000000000, #140 ) ;
#179 = EDGE_CURVE ( 'NONE', #192, #23, #14, .T. ) ;
#180 = DIRECTION ( 'NONE',  ( 1.000000000000000000, 0.000000000000000000, 0.000000000000000000 ) ) ;
#181 = EDGE_CURVE ( 'NONE', #156, #18, #267, .T. ) ;
#182 = DIRECTION ( 'NONE',  ( 1.000000000000000000, 0.000000000000000000, 0.000000000000000000 ) ) ;
#183 = EDGE_CURVE ( 'NONE', #252, #45, #177, .T. ) ;
#184 = DIRECTION ( 'NONE',  ( 1.000000000000000000, 0.000000000000000000, 0.000000000000000000 ) ) ;
#185 = ORIENTED_EDGE ( 'NONE', *, *, #282, .T. ) ;
#186 = AXIS2_PLACEMENT_3D ( 'NONE', #124, #39, #239 ) ;
#187 = CARTESIAN_POINT ( 'NONE',  ( 2.100000000000000089, 2.571758278209441957E-16, 205.0000000000000284 ) ) ;
#188 = EDGE_LOOP ( 'NONE', ( #364, #137, #133, #135 ) ) ;
#189 = VECTOR ( 'NONE', #15, 1000.000000000000000 ) ;
#190 = ORIENTED_EDGE ( 'NONE', *, *, #181, .T. ) ;
#191 = EDGE_CURVE ( 'NONE', #23, #159, #37, .T. ) ;
#192 = VERTEX_POINT ( 'NONE', #231 ) ;
#193 = CC_DESIGN_PERSON_AND_ORGANIZATION_ASSIGNMENT ( #200, #299, ( #358 ) ) ;
#194 = DIRECTION ( 'NONE',  ( 1.000000000000000000, 0.000000000000000000, 0.000000000000000000 ) ) ;
#195 = EDGE_CURVE ( 'NONE', #192, #21, #328, .T. ) ;
#196 = ORIENTED_EDGE ( 'NONE', *, *, #64, .F. ) ;
#197 = AXIS2_PLACEMENT_3D ( 'NONE', #22, #136, #284 ) ;
#198 = CARTESIAN_POINT ( 'NONE',  ( -4.000000000000000000, 0.000000000000000000, 205.0000000000000284 ) ) ;
#199 = EDGE_CURVE ( 'NONE', #156, #223, #277, .T. ) ;
#200 = PERSON_AND_ORGANIZATION ( #300, #371 ) ;
#201 = DIRECTION ( 'NONE',  ( 0.000000000000000000, 0.000000000000000000, 1.000000000000000000 ) ) ;
#202 = EDGE_CURVE ( 'NONE', #79, #18, #26, .T. ) ;
#203 = PERSON_AND_ORGANIZATION_ROLE ( 'classification_officer' ) ;
#204 = AXIS2_PLACEMENT_3D ( 'NONE', #2, #88, #263 ) ;
#205 = LINE ( 'NONE', #321, #42 ) ;
#206 = PERSON_AND_ORGANIZATION ( #300, #371 ) ;
#207 = DIRECTION ( 'NONE',  ( 0.000000000000000000, 0.000000000000000000, 1.000000000000000000 ) ) ;
#208 = AXIS2_PLACEMENT_3D ( 'NONE', #17, #249, #161 ) ;
#209 = CARTESIAN_POINT ( 'NONE',  ( 0.000000000000000000, 0.000000000000000000, 5.000000000000000000 ) ) ;
#210 = DIRECTION ( 'NONE',  ( 0.000000000000000000, 0.000000000000000000, 1.000000000000000000 ) ) ;
#211 = CIRCLE ( 'NONE', #242, 7.000000000000000000 ) ;
#212 = AXIS2_PLACEMENT_3D ( 'NONE', #247, #287, #194 ) ;
#213 = ADVANCED_FACE ( 'NONE', ( #75 ), #241, .T. ) ;
#214 = DIRECTION ( 'NONE',  ( -1.000000000000000000, 0.000000000000000000, 0.000000000000000000 ) ) ;
#215 = CARTESIAN_POINT ( 'NONE',  ( 4.500000000000000888, 0.000000000000000000, 5.500000000000005329 ) ) ;
#216 = VERTEX_POINT ( 'NONE', #279 ) ;
#217 = CIRCLE ( 'NONE', #347, 7.000000000000000000 ) ;
#218 = APPLICATION_PROTOCOL_DEFINITION ( 'international standard', 'config_control_design', 1994, #229 ) ;
#219 = ORIENTED_EDGE ( 'NONE', *, *, #153, .T. ) ;
#220 = DIRECTION ( 'NONE',  ( 1.000000000000000000, 0.000000000000000000, 0.000000000000000000 ) ) ;
#221 = ORIENTED_EDGE ( 'NONE', *, *, #314, .F. ) ;
#222 = CIRCLE ( 'NONE', #366, 7.000000000000000000 ) ;
#223 = VERTEX_POINT ( 'NONE', #125 ) ;
#224 = AXIS2_PLACEMENT_3D ( 'NONE', #158, #55, #99 ) ;
#225 = CC_DESIGN_PERSON_AND_ORGANIZATION_ASSIGNMENT ( #145, #112, ( #54 ) ) ;
#226 = ORIENTED_EDGE ( 'NONE', *, *, #202, .F. ) ;
#227 = CYLINDRICAL_SURFACE ( 'NONE', #168, 7.000000000000000000 ) ;
#228 = EDGE_LOOP ( 'NONE', ( #375, #318 ) ) ;
#229 = APPLICATION_CONTEXT ( 'configuration controlled 3d designs of mechanical parts and assemblies' ) ;
#230 = ADVANCED_FACE ( 'NONE', ( #354 ), #106, .F. ) ;
#231 = CARTESIAN_POINT ( 'NONE',  ( -7.000000000000000000, 0.000000000000000000, 5.000000000000000000 ) ) ;
#232 = APPROVAL_DATE_TIME ( #172, #269 ) ;
#233 = CARTESIAN_POINT ( 'NONE',  ( -2.100000000000000089, 0.000000000000000000, 0.000000000000000000 ) ) ;
#234 = PRODUCT_DEFINITION_SHAPE ( 'NONE', 'NONE',  #54 ) ;
#235 = COORDINATED_UNIVERSAL_TIME_OFFSET ( 1, 0, .AHEAD. ) ;
#236 = DIRECTION ( 'NONE',  ( 0.000000000000000000, 0.000000000000000000, 1.000000000000000000 ) ) ;
#237 = CARTESIAN_POINT ( 'NONE',  ( -7.000000000000000000, 0.000000000000000000, 0.000000000000000000 ) ) ;
#238 = DATE_AND_TIME ( #65, #95 ) ;
#239 = DIRECTION ( 'NONE',  ( 1.000000000000000000, 0.000000000000000000, 0.000000000000000000 ) ) ;
#240 = AXIS2_PLACEMENT_3D ( 'NONE', #116, #86, #8 ) ;
#241 = CYLINDRICAL_SURFACE ( 'NONE', #76, 4.000000000000000000 ) ;
#242 = AXIS2_PLACEMENT_3D ( 'NONE', #275, #77, #182 ) ;
#243 = DIRECTION ( 'NONE',  ( -1.000000000000000000, 0.000000000000000000, 0.000000000000000000 ) ) ;
#244 = ADVANCED_FACE ( 'NONE', ( #43 ), #331, .F. ) ;
#245 = ORIENTED_EDGE ( 'NONE', *, *, #166, .T. ) ;
#246 = APPLICATION_CONTEXT ( 'configuration controlled 3d designs of mechanical parts and assemblies' ) ;
#247 = CARTESIAN_POINT ( 'NONE',  ( 0.000000000000000000, 0.000000000000000000, 5.500000000000005329 ) ) ;
#248 = ORIENTED_EDGE ( 'NONE', *, *, #199, .F. ) ;
#249 = DIRECTION ( 'NONE',  ( 0.000000000000000000, 0.000000000000000000, 1.000000000000000000 ) ) ;
#250 = ORIENTED_EDGE ( 'NONE', *, *, #109, .T. ) ;
#251 = DIRECTION ( 'NONE',  ( 1.000000000000000000, 0.000000000000000000, 0.000000000000000000 ) ) ;
#252 = VERTEX_POINT ( 'NONE', #93 ) ;
#253 = CIRCLE ( 'NONE', #163, 4.000000000000000000 ) ;
#254 = ADVANCED_FACE ( 'NONE', ( #96, #73 ), #357, .T. ) ;
#255 = DIRECTION ( 'NONE',  ( 1.000000000000000000, 0.000000000000000000, 0.000000000000000000 ) ) ;
#256 = ORIENTED_EDGE ( 'NONE', *, *, #153, .F. ) ;
#257 = EDGE_CURVE ( 'NONE', #79, #100, #68, .T. ) ;
#258 = CC_DESIGN_APPROVAL ( #269, ( #358 ) ) ;
#259 = EDGE_LOOP ( 'NONE', ( #52, #370, #250, #139 ) ) ;
#260 = EDGE_CURVE ( 'NONE', #23, #192, #211, .T. ) ;
#261 = FACE_BOUND ( 'NONE', #78, .T. ) ;
#262 = CALENDAR_DATE ( 2022, 10, 7 ) ;
#263 = DIRECTION ( 'NONE',  ( -1.000000000000000000, 1.224646799147351482E-16, 0.000000000000000000 ) ) ;
#264 = DATE_TIME_ROLE ( 'creation_date' ) ;
#265 = LOCAL_TIME ( 11, 12, 1.000000000000000000, #235 ) ;
#266 = DIRECTION ( 'NONE',  ( 1.000000000000000000, 0.000000000000000000, 0.000000000000000000 ) ) ;
#267 = LINE ( 'NONE', #170, #345 ) ;
#268 = MANIFOLD_SOLID_BREP ( 'Odebrat vysunutím3', #360 ) ;
#269 = APPROVAL ( #34, 'NEURÈENÝ' ) ;
#270 = APPROVAL_STATUS ( 'not_yet_approved' ) ;
#271 = DIRECTION ( 'NONE',  ( -0.000000000000000000, -0.000000000000000000, -1.000000000000000000 ) ) ;
#272 = AXIS2_PLACEMENT_3D ( 'NONE', #332, #129, #361 ) ;
#273 =( GEOMETRIC_REPRESENTATION_CONTEXT ( 3 ) GLOBAL_UNCERTAINTY_ASSIGNED_CONTEXT ( ( #74 ) ) GLOBAL_UNIT_ASSIGNED_CONTEXT ( ( #164, #110, #319 ) ) REPRESENTATION_CONTEXT ( 'NONE', 'WORKASPACE' ) );
#274 = ORIENTED_EDGE ( 'NONE', *, *, #179, .T. ) ;
#275 = CARTESIAN_POINT ( 'NONE',  ( 0.000000000000000000, 0.000000000000000000, 5.000000000000000000 ) ) ;
#276 = EDGE_CURVE ( 'NONE', #216, #100, #50, .T. ) ;
#277 = CIRCLE ( 'NONE', #132, 4.000000000000000000 ) ;
#278 = CIRCLE ( 'NONE', #67, 2.100000000000000089 ) ;
#279 = CARTESIAN_POINT ( 'NONE',  ( -4.500000000000000888, 5.510910596163088569E-16, 5.000000000000002665 ) ) ;
#280 = CARTESIAN_POINT ( 'NONE',  ( 0.000000000000000000, 0.000000000000000000, 0.000000000000000000 ) ) ;
#281 = EDGE_LOOP ( 'NONE', ( #283, #339, #342, #344 ) ) ;
#282 = EDGE_CURVE ( 'NONE', #45, #252, #12, .T. ) ;
#283 = ORIENTED_EDGE ( 'NONE', *, *, #191, .F. ) ;
#284 = DIRECTION ( 'NONE',  ( 1.000000000000000000, 0.000000000000000000, 0.000000000000000000 ) ) ;
#285 = ORIENTED_EDGE ( 'NONE', *, *, #257, .T. ) ;
#286 = AXIS2_PLACEMENT_3D ( 'NONE', #69, #66, #293 ) ;
#287 = DIRECTION ( 'NONE',  ( 0.000000000000000000, 0.000000000000000000, 1.000000000000000000 ) ) ;
#288 = EDGE_CURVE ( 'NONE', #315, #252, #373, .T. ) ;
#289 = ORIENTED_EDGE ( 'NONE', *, *, #181, .F. ) ;
#290 = AXIS2_PLACEMENT_3D ( 'NONE', #126, #210, #180 ) ;
#291 = APPROVAL_ROLE ( '' ) ;
#292 = CARTESIAN_POINT ( 'NONE',  ( -4.000000000000000000, 0.000000000000000000, 5.500000000000005329 ) ) ;
#293 = DIRECTION ( 'NONE',  ( -1.000000000000000000, 0.000000000000000000, 0.000000000000000000 ) ) ;
#294 = APPLICATION_PROTOCOL_DEFINITION ( 'international standard', 'config_control_design', 1994, #246 ) ;
#295 = DIRECTION ( 'NONE',  ( -0.000000000000000000, -0.000000000000000000, -1.000000000000000000 ) ) ;
#296 = APPROVAL_STATUS ( 'not_yet_approved' ) ;
#297 = DIRECTION ( 'NONE',  ( 0.000000000000000000, 0.000000000000000000, 1.000000000000000000 ) ) ;
#298 = APPROVAL ( #296, 'NEURÈENÝ' ) ;
#299 = PERSON_AND_ORGANIZATION_ROLE ( 'design_supplier' ) ;
#300 = PERSON ( 'NEURÈENÝ', 'NEURÈENÝ', 'NEURÈENÝ', ('NEURÈENÝ'), ('NEURÈENÝ'), ('NEURÈENÝ') ) ;
#301 = DIRECTION ( 'NONE',  ( 1.000000000000000000, 0.000000000000000000, 0.000000000000000000 ) ) ;
#302 = PLANE ( 'NONE',  #142 ) ;
#303 = EDGE_CURVE ( 'NONE', #21, #159, #217, .T. ) ;
#304 = VECTOR ( 'NONE', #271, 1000.000000000000000 ) ;
#305 = CIRCLE ( 'NONE', #204, 0.5000000000000004441 ) ;
#306 = DIRECTION ( 'NONE',  ( 0.000000000000000000, -1.000000000000000000, 0.000000000000000000 ) ) ;
#307 = EDGE_LOOP ( 'NONE', ( #320, #80, #221, #13 ) ) ;
#308 = CC_DESIGN_SECURITY_CLASSIFICATION ( #117, ( #358 ) ) ;
#309 = PRODUCT_RELATED_PRODUCT_CATEGORY ( 'detail', '', ( #330 ) ) ;
#310 = CARTESIAN_POINT ( 'NONE',  ( 0.000000000000000000, 0.000000000000000000, 5.000000000000000000 ) ) ;
#311 = DIRECTION ( 'NONE',  ( -0.000000000000000000, -0.000000000000000000, -1.000000000000000000 ) ) ;
#312 = EDGE_LOOP ( 'NONE', ( #256, #248, #190, #338 ) ) ;
#313 = CARTESIAN_POINT ( 'NONE',  ( 0.000000000000000000, 0.000000000000000000, 5.500000000000005329 ) ) ;
#314 = EDGE_CURVE ( 'NONE', #100, #216, #51, .T. ) ;
#315 = VERTEX_POINT ( 'NONE', #134 ) ;
#316 = ORIENTED_EDGE ( 'NONE', *, *, #372, .F. ) ;
#317 = CARTESIAN_POINT ( 'NONE',  ( -2.100000000000000089, 0.000000000000000000, 205.0000000000000284 ) ) ;
#318 = ORIENTED_EDGE ( 'NONE', *, *, #109, .F. ) ;
#319 =( NAMED_UNIT ( * ) SI_UNIT ( $, .STERADIAN. ) SOLID_ANGLE_UNIT ( ) );
#320 = ORIENTED_EDGE ( 'NONE', *, *, #367, .F. ) ;
#321 = CARTESIAN_POINT ( 'NONE',  ( 4.000000000000000000, 4.898587196589412829E-16, 205.0000000000000284 ) ) ;
#322 = PERSON_AND_ORGANIZATION ( #300, #371 ) ;
#323 = CARTESIAN_POINT ( 'NONE',  ( 4.000000000000000000, 4.898587196589412829E-16, 5.500000000000005329 ) ) ;
#324 = COORDINATED_UNIVERSAL_TIME_OFFSET ( 1, 0, .AHEAD. ) ;
#325 = DIRECTION ( 'NONE',  ( -0.000000000000000000, -0.000000000000000000, -1.000000000000000000 ) ) ;
#326 = PERSON_AND_ORGANIZATION_ROLE ( 'creator' ) ;
#327 = CARTESIAN_POINT ( 'NONE',  ( 7.000000000000000000, 8.572527594031473190E-16, 0.000000000000000000 ) ) ;
#328 = LINE ( 'NONE', #6, #11 ) ;
#329 = DIRECTION ( 'NONE',  ( 0.000000000000000000, 0.000000000000000000, -1.000000000000000000 ) ) ;
#330 = PRODUCT ( 'd5a9', 'd5a9', '', ( #341 ) ) ;
#331 = CYLINDRICAL_SURFACE ( 'NONE', #59, 2.100000000000000089 ) ;
#332 = CARTESIAN_POINT ( 'NONE',  ( 0.000000000000000000, 0.000000000000000000, 5.000000000000000000 ) ) ;
#333 = ADVANCED_FACE ( 'NONE', ( #101 ), #60, .F. ) ;
#334 = CARTESIAN_POINT ( 'NONE',  ( 0.000000000000000000, 0.000000000000000000, 205.0000000000000284 ) ) ;
#335 = FACE_OUTER_BOUND ( 'NONE', #259, .T. ) ;
#336 = FACE_OUTER_BOUND ( 'NONE', #58, .T. ) ;
#337 = DIRECTION ( 'NONE',  ( 0.000000000000000000, 0.000000000000000000, 1.000000000000000000 ) ) ;
#338 = ORIENTED_EDGE ( 'NONE', *, *, #367, .T. ) ;
#339 = ORIENTED_EDGE ( 'NONE', *, *, #179, .F. ) ;
#340 = CIRCLE ( 'NONE', #363, 4.000000000000000000 ) ;
#341 = MECHANICAL_CONTEXT ( 'NONE', #229, 'mechanical' ) ;
#342 = ORIENTED_EDGE ( 'NONE', *, *, #195, .T. ) ;
#343 = DIRECTION ( 'NONE',  ( -0.000000000000000000, -0.000000000000000000, -1.000000000000000000 ) ) ;
#344 = ORIENTED_EDGE ( 'NONE', *, *, #303, .T. ) ;
#345 = VECTOR ( 'NONE', #4, 1000.000000000000000 ) ;
#346 = CARTESIAN_POINT ( 'NONE',  ( 0.000000000000000000, 0.000000000000000000, 0.000000000000000000 ) ) ;
#347 = AXIS2_PLACEMENT_3D ( 'NONE', #280, #337, #220 ) ;
#348 = DIRECTION ( 'NONE',  ( 0.000000000000000000, 0.000000000000000000, 1.000000000000000000 ) ) ;
#349 = PERSON_AND_ORGANIZATION ( #300, #371 ) ;
#350 = CARTESIAN_POINT ( 'NONE',  ( 0.000000000000000000, 0.000000000000000000, 0.000000000000000000 ) ) ;
#351 = FACE_BOUND ( 'NONE', #82, .T. ) ;
#352 = DATE_AND_TIME ( #262, #178 ) ;
#353 = PLANE ( 'NONE',  #94 ) ;
#354 = FACE_OUTER_BOUND ( 'NONE', #307, .T. ) ;
#355 = DIRECTION ( 'NONE',  ( -0.000000000000000000, -0.000000000000000000, -1.000000000000000000 ) ) ;
#356 = ADVANCED_FACE ( 'NONE', ( #335 ), #227, .T. ) ;
#357 = PLANE ( 'NONE',  #272 ) ;
#358 = PRODUCT_DEFINITION_FORMATION_WITH_SPECIFIED_SOURCE ( 'LIBOVOLNÝ', '', #330, .NOT_KNOWN. ) ;
#359 = CC_DESIGN_PERSON_AND_ORGANIZATION_ASSIGNMENT ( #322, #326, ( #358 ) ) ;
#360 = CLOSED_SHELL ( 'NONE', ( #244, #230, #374, #356, #98, #254, #56, #213, #19, #333, #160 ) ) ;
#361 = DIRECTION ( 'NONE',  ( 1.000000000000000000, 0.000000000000000000, -0.000000000000000000 ) ) ;
#362 = FACE_OUTER_BOUND ( 'NONE', #102, .T. ) ;
#363 = AXIS2_PLACEMENT_3D ( 'NONE', #313, #138, #255 ) ;
#364 = ORIENTED_EDGE ( 'NONE', *, *, #64, .T. ) ;
#365 = CARTESIAN_POINT ( 'NONE',  ( 0.000000000000000000, 0.000000000000000000, 205.0000000000000284 ) ) ;
#366 = AXIS2_PLACEMENT_3D ( 'NONE', #346, #201, #266 ) ;
#367 = EDGE_CURVE ( 'NONE', #18, #79, #340, .T. ) ;
#368 = ORIENTED_EDGE ( 'NONE', *, *, #144, .F. ) ;
#369 = DIRECTION ( 'NONE',  ( 0.000000000000000000, 0.000000000000000000, 1.000000000000000000 ) ) ;
#370 = ORIENTED_EDGE ( 'NONE', *, *, #191, .T. ) ;
#371 = ORGANIZATION ( 'NEURÈENÝ', 'NEURÈENÝ', '' ) ;
#372 = EDGE_CURVE ( 'NONE', #315, #162, #278, .T. ) ;
#373 = LINE ( 'NONE', #187, #107 ) ;
#374 = ADVANCED_FACE ( 'NONE', ( #362 ), #20, .T. ) ;
#375 = ORIENTED_EDGE ( 'NONE', *, *, #303, .F. ) ;
#376 = CALENDAR_DATE ( 2022, 10, 7 ) ;
#377 = CARTESIAN_POINT ( 'NONE',  ( 0.000000000000000000, 0.000000000000000000, 205.0000000000000284 ) ) ;
#378 = APPROVAL_ROLE ( '' ) ;
#379 = DIRECTION ( 'NONE',  ( 1.000000000000000000, 0.000000000000000000, 0.000000000000000000 ) ) ;
#380 = EDGE_CURVE ( 'NONE', #162, #45, #105, .T. ) ;
#381 = AXIS2_PLACEMENT_3D ( 'NONE', #215, #306, #72 ) ;
ENDSEC;
END-ISO-10303-21;
