ISO-10303-21;
HEADER;
FILE_DESCRIPTION (( 'STEP AP203' ),
    '1' );
FILE_NAME ('7518.STEP',
    '2022-07-10T09:09:55',
    ( '' ),
    ( '' ),
    'SwSTEP 2.0',
    'SolidWorks 2019',
    '' );
FILE_SCHEMA (( 'CONFIG_CONTROL_DESIGN' ));
ENDSEC;

DATA;
#1 = LINE ( 'NONE', #3, #249 ) ;
#2 = CC_DESIGN_APPROVAL ( #359, ( #54 ) ) ;
#3 = CARTESIAN_POINT ( 'NONE',  ( -4.000000000000000000, 0.000000000000000000, 130.0000000000000000 ) ) ;
#4 = CARTESIAN_POINT ( 'NONE',  ( 0.000000000000000000, 0.000000000000000000, 5.500000000000005329 ) ) ;
#5 = VECTOR ( 'NONE', #264, 1000.000000000000000 ) ;
#6 = FACE_OUTER_BOUND ( 'NONE', #21, .T. ) ;
#7 = DESIGN_CONTEXT ( 'detailed design', #241, 'design' ) ;
#8 = PRODUCT_DEFINITION_FORMATION_WITH_SPECIFIED_SOURCE ( 'LIBOVOLNÝ', '', #100, .NOT_KNOWN. ) ;
#9 = ADVANCED_FACE ( 'NONE', ( #196, #380 ), #230, .T. ) ;
#10 = DIRECTION ( 'NONE',  ( 1.000000000000000000, 0.000000000000000000, 0.000000000000000000 ) ) ;
#11 = ORIENTED_EDGE ( 'NONE', *, *, #209, .T. ) ;
#12 = ORIENTED_EDGE ( 'NONE', *, *, #242, .T. ) ;
#13 = TOROIDAL_SURFACE ( 'NONE', #231, 4.500000000000000888, 0.5000000000000000000 ) ;
#14 = DIRECTION ( 'NONE',  ( 1.000000000000000000, 0.000000000000000000, 0.000000000000000000 ) ) ;
#15 = AXIS2_PLACEMENT_3D ( 'NONE', #90, #294, #239 ) ;
#16 = CIRCLE ( 'NONE', #15, 4.500000000000000888 ) ;
#17 = ORIENTED_EDGE ( 'NONE', *, *, #209, .F. ) ;
#18 = ADVANCED_BREP_SHAPE_REPRESENTATION ( '7518', ( #182, #335 ), #181 ) ;
#19 = ADVANCED_FACE ( 'NONE', ( #260 ), #13, .F. ) ;
#20 = AXIS2_PLACEMENT_3D ( 'NONE', #303, #183, #334 ) ;
#21 = EDGE_LOOP ( 'NONE', ( #108, #195, #360, #112 ) ) ;
#22 = VERTEX_POINT ( 'NONE', #170 ) ;
#23 = CALENDAR_DATE ( 2022, 10, 7 ) ;
#24 = CARTESIAN_POINT ( 'NONE',  ( 0.000000000000000000, 0.000000000000000000, 5.000000000000000000 ) ) ;
#25 = VECTOR ( 'NONE', #35, 1000.000000000000000 ) ;
#26 = PERSON_AND_ORGANIZATION ( #221, #234 ) ;
#27 = DIRECTION ( 'NONE',  ( 0.000000000000000000, 0.000000000000000000, 1.000000000000000000 ) ) ;
#28 = AXIS2_PLACEMENT_3D ( 'NONE', #4, #261, #381 ) ;
#29 = COORDINATED_UNIVERSAL_TIME_OFFSET ( 1, 0, .AHEAD. ) ;
#30 = ORIENTED_EDGE ( 'NONE', *, *, #350, .T. ) ;
#31 = ORIENTED_EDGE ( 'NONE', *, *, #353, .T. ) ;
#32 = VERTEX_POINT ( 'NONE', #172 ) ;
#33 = AXIS2_PLACEMENT_3D ( 'NONE', #327, #205, #208 ) ;
#34 = DIRECTION ( 'NONE',  ( 1.000000000000000000, 0.000000000000000000, 0.000000000000000000 ) ) ;
#35 = DIRECTION ( 'NONE',  ( 0.000000000000000000, 0.000000000000000000, -1.000000000000000000 ) ) ;
#36 = AXIS2_PLACEMENT_3D ( 'NONE', #346, #378, #56 ) ;
#37 = DIRECTION ( 'NONE',  ( 0.000000000000000000, 0.000000000000000000, 1.000000000000000000 ) ) ;
#38 = AXIS2_PLACEMENT_3D ( 'NONE', #105, #70, #188 ) ;
#39 = CARTESIAN_POINT ( 'NONE',  ( -2.500000000000000000, 0.000000000000000000, 130.0000000000000000 ) ) ;
#40 = DIRECTION ( 'NONE',  ( 0.000000000000000000, -1.000000000000000000, 0.000000000000000000 ) ) ;
#41 = ADVANCED_FACE ( 'NONE', ( #320, #59 ), #88, .F. ) ;
#42 = ORIENTED_EDGE ( 'NONE', *, *, #46, .F. ) ;
#43 =( LENGTH_UNIT ( ) NAMED_UNIT ( * ) SI_UNIT ( .MILLI., .METRE. ) );
#44 = EDGE_LOOP ( 'NONE', ( #280, #248, #47, #146 ) ) ;
#45 =( NAMED_UNIT ( * ) SI_UNIT ( $, .STERADIAN. ) SOLID_ANGLE_UNIT ( ) );
#46 = EDGE_CURVE ( 'NONE', #200, #370, #293, .T. ) ;
#47 = ORIENTED_EDGE ( 'NONE', *, *, #154, .T. ) ;
#48 = CARTESIAN_POINT ( 'NONE',  ( 0.000000000000000000, 0.000000000000000000, 0.000000000000000000 ) ) ;
#49 = EDGE_LOOP ( 'NONE', ( #337, #72 ) ) ;
#50 = DIRECTION ( 'NONE',  ( 0.000000000000000000, 0.000000000000000000, -1.000000000000000000 ) ) ;
#51 = AXIS2_PLACEMENT_3D ( 'NONE', #107, #245, #165 ) ;
#52 = VERTEX_POINT ( 'NONE', #286 ) ;
#53 = FACE_OUTER_BOUND ( 'NONE', #233, .T. ) ;
#54 = PRODUCT_DEFINITION ( 'NEZNÁMÝ', '', #8, #7 ) ;
#55 = CARTESIAN_POINT ( 'NONE',  ( 7.000000000000000000, 8.572527594031473190E-16, 5.000000000000000000 ) ) ;
#56 = DIRECTION ( 'NONE',  ( 1.000000000000000000, 0.000000000000000000, -0.000000000000000000 ) ) ;
#57 = AXIS2_PLACEMENT_3D ( 'NONE', #135, #358, #272 ) ;
#58 = CALENDAR_DATE ( 2022, 10, 7 ) ;
#59 = FACE_OUTER_BOUND ( 'NONE', #216, .T. ) ;
#60 = ADVANCED_FACE ( 'NONE', ( #312, #53 ), #119, .T. ) ;
#61 = PERSON_AND_ORGANIZATION ( #221, #234 ) ;
#62 = CYLINDRICAL_SURFACE ( 'NONE', #94, 2.500000000000000000 ) ;
#63 = DIRECTION ( 'NONE',  ( 0.000000000000000000, 0.000000000000000000, -1.000000000000000000 ) ) ;
#64 = AXIS2_PLACEMENT_3D ( 'NONE', #98, #73, #14 ) ;
#65 = CARTESIAN_POINT ( 'NONE',  ( 0.000000000000000000, 0.000000000000000000, 5.500000000000005329 ) ) ;
#66 = LINE ( 'NONE', #39, #25 ) ;
#67 = CARTESIAN_POINT ( 'NONE',  ( 0.000000000000000000, 0.000000000000000000, 5.000000000000000000 ) ) ;
#68 = APPROVAL_PERSON_ORGANIZATION ( #61, #359, #86 ) ;
#69 = FACE_OUTER_BOUND ( 'NONE', #44, .T. ) ;
#70 = DIRECTION ( 'NONE',  ( 0.000000000000000000, 0.000000000000000000, 1.000000000000000000 ) ) ;
#71 = CARTESIAN_POINT ( 'NONE',  ( 4.000000000000000000, 4.898587196589412829E-16, 130.0000000000000000 ) ) ;
#72 = ORIENTED_EDGE ( 'NONE', *, *, #263, .F. ) ;
#73 = DIRECTION ( 'NONE',  ( -0.000000000000000000, -0.000000000000000000, -1.000000000000000000 ) ) ;
#74 = VERTEX_POINT ( 'NONE', #113 ) ;
#75 =( NAMED_UNIT ( * ) PLANE_ANGLE_UNIT ( ) SI_UNIT ( $, .RADIAN. ) );
#76 = ORIENTED_EDGE ( 'NONE', *, *, #186, .T. ) ;
#77 = APPLICATION_CONTEXT ( 'configuration controlled 3d designs of mechanical parts and assemblies' ) ;
#78 = AXIS2_PLACEMENT_3D ( 'NONE', #236, #207, #180 ) ;
#79 = PERSON_AND_ORGANIZATION_ROLE ( 'design_supplier' ) ;
#80 = VERTEX_POINT ( 'NONE', #227 ) ;
#81 = PERSON_AND_ORGANIZATION ( #221, #234 ) ;
#82 = CARTESIAN_POINT ( 'NONE',  ( 0.000000000000000000, 0.000000000000000000, 0.000000000000000000 ) ) ;
#83 = CALENDAR_DATE ( 2022, 10, 7 ) ;
#84 = EDGE_LOOP ( 'NONE', ( #277, #189, #191, #31 ) ) ;
#85 = AXIS2_PLACEMENT_3D ( 'NONE', #82, #27, #168 ) ;
#86 = APPROVAL_ROLE ( '' ) ;
#87 = SECURITY_CLASSIFICATION ( '', '', #345 ) ;
#88 = PLANE ( 'NONE',  #85 ) ;
#89 = DIRECTION ( 'NONE',  ( -0.000000000000000000, -0.000000000000000000, -1.000000000000000000 ) ) ;
#90 = CARTESIAN_POINT ( 'NONE',  ( 0.000000000000000000, 0.000000000000000000, 5.000000000000000000 ) ) ;
#91 = ADVANCED_FACE ( 'NONE', ( #204 ), #62, .F. ) ;
#92 = FACE_OUTER_BOUND ( 'NONE', #84, .T. ) ;
#93 = CARTESIAN_POINT ( 'NONE',  ( 0.000000000000000000, 0.000000000000000000, 5.000000000000000000 ) ) ;
#94 = AXIS2_PLACEMENT_3D ( 'NONE', #283, #288, #138 ) ;
#95 = CC_DESIGN_PERSON_AND_ORGANIZATION_ASSIGNMENT ( #140, #367, ( #87 ) ) ;
#96 = CYLINDRICAL_SURFACE ( 'NONE', #218, 4.000000000000000000 ) ;
#97 = LOCAL_TIME ( 11, 9, 55.00000000000000000, #369 ) ;
#98 = CARTESIAN_POINT ( 'NONE',  ( 0.000000000000000000, 0.000000000000000000, 5.000000000000000000 ) ) ;
#99 = ORIENTED_EDGE ( 'NONE', *, *, #214, .T. ) ;
#100 = PRODUCT ( '7518', '7518', '', ( #331 ) ) ;
#101 = CARTESIAN_POINT ( 'NONE',  ( -7.000000000000000000, 0.000000000000000000, 5.000000000000000000 ) ) ;
#102 = EDGE_LOOP ( 'NONE', ( #143, #301 ) ) ;
#103 = PRODUCT_RELATED_PRODUCT_CATEGORY ( 'detail', '', ( #100 ) ) ;
#104 = CIRCLE ( 'NONE', #51, 2.500000000000000000 ) ;
#105 = CARTESIAN_POINT ( 'NONE',  ( 0.000000000000000000, 0.000000000000000000, 0.000000000000000000 ) ) ;
#106 = PRODUCT_DEFINITION_SHAPE ( 'NONE', 'NONE',  #54 ) ;
#107 = CARTESIAN_POINT ( 'NONE',  ( 0.000000000000000000, 0.000000000000000000, 130.0000000000000000 ) ) ;
#108 = ORIENTED_EDGE ( 'NONE', *, *, #214, .F. ) ;
#109 = APPROVAL_ROLE ( '' ) ;
#110 = ORIENTED_EDGE ( 'NONE', *, *, #336, .T. ) ;
#111 = COORDINATED_UNIVERSAL_TIME_OFFSET ( 1, 0, .AHEAD. ) ;
#112 = ORIENTED_EDGE ( 'NONE', *, *, #374, .F. ) ;
#113 = CARTESIAN_POINT ( 'NONE',  ( -7.000000000000000000, 0.000000000000000000, 0.000000000000000000 ) ) ;
#114 = PERSON_AND_ORGANIZATION ( #221, #234 ) ;
#115 = VERTEX_POINT ( 'NONE', #340 ) ;
#116 = CALENDAR_DATE ( 2022, 10, 7 ) ;
#117 = EDGE_LOOP ( 'NONE', ( #258, #366, #244, #271 ) ) ;
#118 = APPROVAL_PERSON_ORGANIZATION ( #169, #171, #109 ) ;
#119 = PLANE ( 'NONE',  #127 ) ;
#120 = DIRECTION ( 'NONE',  ( 1.000000000000000000, 0.000000000000000000, 0.000000000000000000 ) ) ;
#121 = EDGE_CURVE ( 'NONE', #256, #220, #313, .T. ) ;
#122 = CIRCLE ( 'NONE', #344, 4.000000000000000000 ) ;
#123 = DIRECTION ( 'NONE',  ( 1.000000000000000000, 0.000000000000000000, 0.000000000000000000 ) ) ;
#124 = CARTESIAN_POINT ( 'NONE',  ( 4.500000000000000888, 0.000000000000000000, 5.500000000000005329 ) ) ;
#125 = EDGE_CURVE ( 'NONE', #376, #22, #281, .T. ) ;
#126 = DIRECTION ( 'NONE',  ( -1.000000000000000000, 0.000000000000000000, 0.000000000000000000 ) ) ;
#127 = AXIS2_PLACEMENT_3D ( 'NONE', #24, #235, #348 ) ;
#128 = DIRECTION ( 'NONE',  ( 0.000000000000000000, 0.000000000000000000, 1.000000000000000000 ) ) ;
#129 = CC_DESIGN_APPROVAL ( #326, ( #8 ) ) ;
#130 = APPLICATION_PROTOCOL_DEFINITION ( 'international standard', 'config_control_design', 1994, #77 ) ;
#131 = DIRECTION ( 'NONE',  ( 1.000000000000000000, 0.000000000000000000, 0.000000000000000000 ) ) ;
#132 = LINE ( 'NONE', #306, #212 ) ;
#133 = ORIENTED_EDGE ( 'NONE', *, *, #310, .T. ) ;
#134 = CIRCLE ( 'NONE', #338, 7.000000000000000000 ) ;
#135 = CARTESIAN_POINT ( 'NONE',  ( 0.000000000000000000, 0.000000000000000000, 130.0000000000000000 ) ) ;
#136 = EDGE_CURVE ( 'NONE', #370, #32, #66, .T. ) ;
#137 = VERTEX_POINT ( 'NONE', #262 ) ;
#138 = DIRECTION ( 'NONE',  ( -1.000000000000000000, 0.000000000000000000, 0.000000000000000000 ) ) ;
#139 = AXIS2_PLACEMENT_3D ( 'NONE', #65, #357, #131 ) ;
#140 = PERSON_AND_ORGANIZATION ( #221, #234 ) ;
#141 = DIRECTION ( 'NONE',  ( 0.000000000000000000, 0.000000000000000000, 1.000000000000000000 ) ) ;
#142 = APPROVAL_DATE_TIME ( #226, #326 ) ;
#143 = ORIENTED_EDGE ( 'NONE', *, *, #164, .T. ) ;
#144 = CC_DESIGN_PERSON_AND_ORGANIZATION_ASSIGNMENT ( #26, #79, ( #8 ) ) ;
#145 = DATE_AND_TIME ( #58, #97 ) ;
#146 = ORIENTED_EDGE ( 'NONE', *, *, #317, .F. ) ;
#147 = CC_DESIGN_APPROVAL ( #171, ( #87 ) ) ;
#148 = DIRECTION ( 'NONE',  ( 1.000000000000000000, 0.000000000000000000, 0.000000000000000000 ) ) ;
#149 = EDGE_CURVE ( 'NONE', #115, #161, #122, .T. ) ;
#150 = DIRECTION ( 'NONE',  ( 0.000000000000000000, 0.000000000000000000, 1.000000000000000000 ) ) ;
#151 = CARTESIAN_POINT ( 'NONE',  ( -4.000000000000000000, 0.000000000000000000, 5.500000000000005329 ) ) ;
#152 = CYLINDRICAL_SURFACE ( 'NONE', #193, 7.000000000000000000 ) ;
#153 = AXIS2_PLACEMENT_3D ( 'NONE', #265, #351, #126 ) ;
#154 = EDGE_CURVE ( 'NONE', #115, #137, #199, .T. ) ;
#155 = CYLINDRICAL_SURFACE ( 'NONE', #153, 4.000000000000000000 ) ;
#156 = DIRECTION ( 'NONE',  ( 0.000000000000000000, 0.000000000000000000, 1.000000000000000000 ) ) ;
#157 = ORIENTED_EDGE ( 'NONE', *, *, #149, .T. ) ;
#158 = CIRCLE ( 'NONE', #323, 4.000000000000000000 ) ;
#159 = CIRCLE ( 'NONE', #379, 7.000000000000000000 ) ;
#160 = CC_DESIGN_PERSON_AND_ORGANIZATION_ASSIGNMENT ( #282, #198, ( #8 ) ) ;
#161 = VERTEX_POINT ( 'NONE', #151 ) ;
#162 = CARTESIAN_POINT ( 'NONE',  ( -4.500000000000000888, 5.510910596163089556E-16, 5.500000000000005329 ) ) ;
#163 = EDGE_LOOP ( 'NONE', ( #315, #175, #11, #12 ) ) ;
#164 = EDGE_CURVE ( 'NONE', #137, #80, #16, .T. ) ;
#165 = DIRECTION ( 'NONE',  ( 1.000000000000000000, 0.000000000000000000, 0.000000000000000000 ) ) ;
#166 = EDGE_LOOP ( 'NONE', ( #273, #224, #157, #17 ) ) ;
#167 = APPROVAL_ROLE ( '' ) ;
#168 = DIRECTION ( 'NONE',  ( 1.000000000000000000, 0.000000000000000000, -0.000000000000000000 ) ) ;
#169 = PERSON_AND_ORGANIZATION ( #221, #234 ) ;
#170 = CARTESIAN_POINT ( 'NONE',  ( -4.000000000000000000, 0.000000000000000000, 130.0000000000000000 ) ) ;
#171 = APPROVAL ( #279, 'NEURÈENÝ' ) ;
#172 = CARTESIAN_POINT ( 'NONE',  ( -2.500000000000000000, 0.000000000000000000, 0.000000000000000000 ) ) ;
#173 = CARTESIAN_POINT ( 'NONE',  ( 0.000000000000000000, 0.000000000000000000, 130.0000000000000000 ) ) ;
#174 = DATE_AND_TIME ( #319, #254 ) ;
#175 = ORIENTED_EDGE ( 'NONE', *, *, #186, .F. ) ;
#176 = DIRECTION ( 'NONE',  ( 1.000000000000000000, 0.000000000000000000, 0.000000000000000000 ) ) ;
#177 = DIRECTION ( 'NONE',  ( -1.000000000000000000, 0.000000000000000000, 0.000000000000000000 ) ) ;
#178 = CARTESIAN_POINT ( 'NONE',  ( 7.000000000000000000, 8.572527594031473190E-16, 5.000000000000000000 ) ) ;
#179 = AXIS2_PLACEMENT_3D ( 'NONE', #124, #40, #63 ) ;
#180 = DIRECTION ( 'NONE',  ( 1.000000000000000000, 0.000000000000000000, 0.000000000000000000 ) ) ;
#181 =( GEOMETRIC_REPRESENTATION_CONTEXT ( 3 ) GLOBAL_UNCERTAINTY_ASSIGNED_CONTEXT ( ( #269 ) ) GLOBAL_UNIT_ASSIGNED_CONTEXT ( ( #43, #75, #45 ) ) REPRESENTATION_CONTEXT ( 'NONE', 'WORKASPACE' ) );
#182 = MANIFOLD_SOLID_BREP ( 'Odebrat vysunutím3', #362 ) ;
#183 = DIRECTION ( 'NONE',  ( 0.000000000000000000, 0.000000000000000000, 1.000000000000000000 ) ) ;
#184 = ORIENTED_EDGE ( 'NONE', *, *, #154, .F. ) ;
#185 = AXIS2_PLACEMENT_3D ( 'NONE', #267, #292, #34 ) ;
#186 = EDGE_CURVE ( 'NONE', #22, #376, #158, .T. ) ;
#187 = CYLINDRICAL_SURFACE ( 'NONE', #57, 2.500000000000000000 ) ;
#188 = DIRECTION ( 'NONE',  ( 1.000000000000000000, 0.000000000000000000, 0.000000000000000000 ) ) ;
#189 = ORIENTED_EDGE ( 'NONE', *, *, #253, .F. ) ;
#190 = CARTESIAN_POINT ( 'NONE',  ( 0.000000000000000000, 0.000000000000000000, 0.000000000000000000 ) ) ;
#191 = ORIENTED_EDGE ( 'NONE', *, *, #374, .T. ) ;
#192 = ORIENTED_EDGE ( 'NONE', *, *, #164, .F. ) ;
#193 = AXIS2_PLACEMENT_3D ( 'NONE', #93, #89, #177 ) ;
#194 = COORDINATED_UNIVERSAL_TIME_OFFSET ( 1, 0, .AHEAD. ) ;
#195 = ORIENTED_EDGE ( 'NONE', *, *, #121, .T. ) ;
#196 = FACE_BOUND ( 'NONE', #223, .T. ) ;
#197 = ADVANCED_FACE ( 'NONE', ( #6 ), #152, .T. ) ;
#198 = PERSON_AND_ORGANIZATION_ROLE ( 'creator' ) ;
#199 = CIRCLE ( 'NONE', #179, 0.5000000000000004441 ) ;
#200 = VERTEX_POINT ( 'NONE', #352 ) ;
#201 = CIRCLE ( 'NONE', #38, 7.000000000000000000 ) ;
#202 = DIRECTION ( 'NONE',  ( 0.000000000000000000, 0.000000000000000000, 1.000000000000000000 ) ) ;
#203 = PERSON_AND_ORGANIZATION_ROLE ( 'design_owner' ) ;
#204 = FACE_OUTER_BOUND ( 'NONE', #257, .T. ) ;
#205 = DIRECTION ( 'NONE',  ( -0.000000000000000000, -0.000000000000000000, -1.000000000000000000 ) ) ;
#206 = VECTOR ( 'NONE', #247, 1000.000000000000000 ) ;
#207 = DIRECTION ( 'NONE',  ( -0.000000000000000000, -0.000000000000000000, -1.000000000000000000 ) ) ;
#208 = DIRECTION ( 'NONE',  ( -1.000000000000000000, 0.000000000000000000, 0.000000000000000000 ) ) ;
#209 = EDGE_CURVE ( 'NONE', #22, #161, #1, .T. ) ;
#210 = CYLINDRICAL_SURFACE ( 'NONE', #33, 7.000000000000000000 ) ;
#211 = DIRECTION ( 'NONE',  ( -0.000000000000000000, -0.000000000000000000, -1.000000000000000000 ) ) ;
#212 = VECTOR ( 'NONE', #213, 1000.000000000000000 ) ;
#213 = DIRECTION ( 'NONE',  ( -0.000000000000000000, -0.000000000000000000, -1.000000000000000000 ) ) ;
#214 = EDGE_CURVE ( 'NONE', #256, #275, #159, .T. ) ;
#215 = DIRECTION ( 'NONE',  ( 0.000000000000000000, 0.000000000000000000, 1.000000000000000000 ) ) ;
#216 = EDGE_LOOP ( 'NONE', ( #304, #368 ) ) ;
#217 = CARTESIAN_POINT ( 'NONE',  ( 2.500000000000000000, 3.061616997868383141E-16, 130.0000000000000000 ) ) ;
#218 = AXIS2_PLACEMENT_3D ( 'NONE', #298, #211, #329 ) ;
#219 = ADVANCED_FACE ( 'NONE', ( #92 ), #210, .T. ) ;
#220 = VERTEX_POINT ( 'NONE', #325 ) ;
#221 = PERSON ( 'NEURÈENÝ', 'NEURÈENÝ', 'NEURÈENÝ', ('NEURÈENÝ'), ('NEURÈENÝ'), ('NEURÈENÝ') ) ;
#222 = LINE ( 'NONE', #101, #206 ) ;
#223 = EDGE_LOOP ( 'NONE', ( #251, #42 ) ) ;
#224 = ORIENTED_EDGE ( 'NONE', *, *, #333, .T. ) ;
#225 = APPROVAL_PERSON_ORGANIZATION ( #81, #326, #167 ) ;
#226 = DATE_AND_TIME ( #83, #308 ) ;
#227 = CARTESIAN_POINT ( 'NONE',  ( -4.500000000000000888, 5.510910596163088569E-16, 5.000000000000002665 ) ) ;
#228 = CC_DESIGN_DATE_AND_TIME_ASSIGNMENT ( #252, #255, ( #54 ) ) ;
#229 = APPROVAL_DATE_TIME ( #339, #171 ) ;
#230 = PLANE ( 'NONE',  #36 ) ;
#231 = AXIS2_PLACEMENT_3D ( 'NONE', #284, #202, #318 ) ;
#232 = APPROVAL_STATUS ( 'not_yet_approved' ) ;
#233 = EDGE_LOOP ( 'NONE', ( #299, #99 ) ) ;
#234 = ORGANIZATION ( 'NEURÈENÝ', 'NEURÈENÝ', '' ) ;
#235 = DIRECTION ( 'NONE',  ( 0.000000000000000000, 0.000000000000000000, 1.000000000000000000 ) ) ;
#236 = CARTESIAN_POINT ( 'NONE',  ( 0.000000000000000000, 0.000000000000000000, 0.000000000000000000 ) ) ;
#237 = DIRECTION ( 'NONE',  ( -0.000000000000000000, -0.000000000000000000, -1.000000000000000000 ) ) ;
#238 = CC_DESIGN_DATE_AND_TIME_ASSIGNMENT ( #174, #287, ( #87 ) ) ;
#239 = DIRECTION ( 'NONE',  ( 1.000000000000000000, 0.000000000000000000, 0.000000000000000000 ) ) ;
#240 = CARTESIAN_POINT ( 'NONE',  ( -7.000000000000000000, 0.000000000000000000, 5.000000000000000000 ) ) ;
#241 = APPLICATION_CONTEXT ( 'configuration controlled 3d designs of mechanical parts and assemblies' ) ;
#242 = EDGE_CURVE ( 'NONE', #161, #115, #295, .T. ) ;
#243 = VECTOR ( 'NONE', #50, 1000.000000000000000 ) ;
#244 = ORIENTED_EDGE ( 'NONE', *, *, #136, .T. ) ;
#245 = DIRECTION ( 'NONE',  ( 0.000000000000000000, 0.000000000000000000, 1.000000000000000000 ) ) ;
#246 = ORIENTED_EDGE ( 'NONE', *, *, #263, .T. ) ;
#247 = DIRECTION ( 'NONE',  ( -0.000000000000000000, -0.000000000000000000, -1.000000000000000000 ) ) ;
#248 = ORIENTED_EDGE ( 'NONE', *, *, #149, .F. ) ;
#249 = VECTOR ( 'NONE', #237, 1000.000000000000000 ) ;
#250 = DIRECTION ( 'NONE',  ( -0.000000000000000000, -0.000000000000000000, -1.000000000000000000 ) ) ;
#251 = ORIENTED_EDGE ( 'NONE', *, *, #350, .F. ) ;
#252 = DATE_AND_TIME ( #116, #276 ) ;
#253 = EDGE_CURVE ( 'NONE', #275, #256, #134, .T. ) ;
#254 = LOCAL_TIME ( 11, 9, 55.00000000000000000, #347 ) ;
#255 = DATE_TIME_ROLE ( 'creation_date' ) ;
#256 = VERTEX_POINT ( 'NONE', #178 ) ;
#257 = EDGE_LOOP ( 'NONE', ( #30, #133, #246, #307 ) ) ;
#258 = ORIENTED_EDGE ( 'NONE', *, *, #310, .F. ) ;
#259 = AXIS2_PLACEMENT_3D ( 'NONE', #162, #274, #330 ) ;
#260 = FACE_OUTER_BOUND ( 'NONE', #342, .T. ) ;
#261 = DIRECTION ( 'NONE',  ( 0.000000000000000000, 0.000000000000000000, 1.000000000000000000 ) ) ;
#262 = CARTESIAN_POINT ( 'NONE',  ( 4.500000000000000888, 0.000000000000000000, 5.000000000000002665 ) ) ;
#263 = EDGE_CURVE ( 'NONE', #52, #32, #316, .T. ) ;
#264 = DIRECTION ( 'NONE',  ( -0.000000000000000000, -0.000000000000000000, -1.000000000000000000 ) ) ;
#265 = CARTESIAN_POINT ( 'NONE',  ( 0.000000000000000000, 0.000000000000000000, 130.0000000000000000 ) ) ;
#266 = ADVANCED_FACE ( 'NONE', ( #296 ), #155, .T. ) ;
#267 = CARTESIAN_POINT ( 'NONE',  ( 0.000000000000000000, 0.000000000000000000, 130.0000000000000000 ) ) ;
#268 = CIRCLE ( 'NONE', #259, 0.5000000000000004441 ) ;
#269 = UNCERTAINTY_MEASURE_WITH_UNIT (LENGTH_MEASURE( 1.000000000000000082E-05 ), #43, 'distance_accuracy_value', 'NONE');
#270 = DIRECTION ( 'NONE',  ( 1.000000000000000000, 0.000000000000000000, 0.000000000000000000 ) ) ;
#271 = ORIENTED_EDGE ( 'NONE', *, *, #322, .T. ) ;
#272 = DIRECTION ( 'NONE',  ( -1.000000000000000000, 0.000000000000000000, 0.000000000000000000 ) ) ;
#273 = ORIENTED_EDGE ( 'NONE', *, *, #125, .F. ) ;
#274 = DIRECTION ( 'NONE',  ( 1.224646799147353207E-16, 1.000000000000000000, -0.000000000000000000 ) ) ;
#275 = VERTEX_POINT ( 'NONE', #240 ) ;
#276 = LOCAL_TIME ( 11, 9, 55.00000000000000000, #29 ) ;
#277 = ORIENTED_EDGE ( 'NONE', *, *, #121, .F. ) ;
#278 = ADVANCED_FACE ( 'NONE', ( #355 ), #96, .T. ) ;
#279 = APPROVAL_STATUS ( 'not_yet_approved' ) ;
#280 = ORIENTED_EDGE ( 'NONE', *, *, #336, .F. ) ;
#281 = CIRCLE ( 'NONE', #185, 4.000000000000000000 ) ;
#282 = PERSON_AND_ORGANIZATION ( #221, #234 ) ;
#283 = CARTESIAN_POINT ( 'NONE',  ( 0.000000000000000000, 0.000000000000000000, 130.0000000000000000 ) ) ;
#284 = CARTESIAN_POINT ( 'NONE',  ( 0.000000000000000000, 0.000000000000000000, 5.500000000000005329 ) ) ;
#285 = ADVANCED_FACE ( 'NONE', ( #69 ), #356, .F. ) ;
#286 = CARTESIAN_POINT ( 'NONE',  ( 2.500000000000000000, 3.061616997868383141E-16, 0.000000000000000000 ) ) ;
#287 = DATE_TIME_ROLE ( 'classification_date' ) ;
#288 = DIRECTION ( 'NONE',  ( 0.000000000000000000, 0.000000000000000000, -1.000000000000000000 ) ) ;
#289 = CIRCLE ( 'NONE', #309, 2.500000000000000000 ) ;
#290 = CARTESIAN_POINT ( 'NONE',  ( 0.000000000000000000, 0.000000000000000000, 5.000000000000000000 ) ) ;
#291 = CC_DESIGN_PERSON_AND_ORGANIZATION_ASSIGNMENT ( #114, #372, ( #54 ) ) ;
#292 = DIRECTION ( 'NONE',  ( 0.000000000000000000, 0.000000000000000000, 1.000000000000000000 ) ) ;
#293 = CIRCLE ( 'NONE', #343, 2.500000000000000000 ) ;
#294 = DIRECTION ( 'NONE',  ( -0.000000000000000000, -0.000000000000000000, -1.000000000000000000 ) ) ;
#295 = CIRCLE ( 'NONE', #28, 4.000000000000000000 ) ;
#296 = FACE_OUTER_BOUND ( 'NONE', #163, .T. ) ;
#297 = CC_DESIGN_PERSON_AND_ORGANIZATION_ASSIGNMENT ( #375, #203, ( #100 ) ) ;
#298 = CARTESIAN_POINT ( 'NONE',  ( 0.000000000000000000, 0.000000000000000000, 130.0000000000000000 ) ) ;
#299 = ORIENTED_EDGE ( 'NONE', *, *, #253, .T. ) ;
#300 = LOCAL_TIME ( 11, 9, 55.00000000000000000, #194 ) ;
#301 = ORIENTED_EDGE ( 'NONE', *, *, #317, .T. ) ;
#302 = ADVANCED_FACE ( 'NONE', ( #349 ), #187, .F. ) ;
#303 = CARTESIAN_POINT ( 'NONE',  ( 0.000000000000000000, 0.000000000000000000, 0.000000000000000000 ) ) ;
#304 = ORIENTED_EDGE ( 'NONE', *, *, #353, .F. ) ;
#305 = LINE ( 'NONE', #217, #243 ) ;
#306 = CARTESIAN_POINT ( 'NONE',  ( 4.000000000000000000, 4.898587196589412829E-16, 130.0000000000000000 ) ) ;
#307 = ORIENTED_EDGE ( 'NONE', *, *, #136, .F. ) ;
#308 = LOCAL_TIME ( 11, 9, 55.00000000000000000, #111 ) ;
#309 = AXIS2_PLACEMENT_3D ( 'NONE', #48, #250, #270 ) ;
#310 = EDGE_CURVE ( 'NONE', #200, #52, #305, .T. ) ;
#311 = APPLICATION_PROTOCOL_DEFINITION ( 'international standard', 'config_control_design', 1994, #241 ) ;
#312 = FACE_BOUND ( 'NONE', #102, .T. ) ;
#313 = LINE ( 'NONE', #55, #5 ) ;
#314 = APPROVAL_STATUS ( 'not_yet_approved' ) ;
#315 = ORIENTED_EDGE ( 'NONE', *, *, #333, .F. ) ;
#316 = CIRCLE ( 'NONE', #78, 2.500000000000000000 ) ;
#317 = EDGE_CURVE ( 'NONE', #80, #137, #363, .T. ) ;
#318 = DIRECTION ( 'NONE',  ( 1.000000000000000000, 0.000000000000000000, 0.000000000000000000 ) ) ;
#319 = CALENDAR_DATE ( 2022, 10, 7 ) ;
#320 = FACE_BOUND ( 'NONE', #49, .T. ) ;
#321 = CARTESIAN_POINT ( 'NONE',  ( 0.000000000000000000, 0.000000000000000000, 5.500000000000005329 ) ) ;
#322 = EDGE_CURVE ( 'NONE', #32, #52, #289, .T. ) ;
#323 = AXIS2_PLACEMENT_3D ( 'NONE', #354, #37, #176 ) ;
#324 = DIRECTION ( 'NONE',  ( 1.000000000000000000, 0.000000000000000000, 0.000000000000000000 ) ) ;
#325 = CARTESIAN_POINT ( 'NONE',  ( 7.000000000000000000, 8.572527594031473190E-16, 0.000000000000000000 ) ) ;
#326 = APPROVAL ( #232, 'NEURÈENÝ' ) ;
#327 = CARTESIAN_POINT ( 'NONE',  ( 0.000000000000000000, 0.000000000000000000, 5.000000000000000000 ) ) ;
#328 = CC_DESIGN_SECURITY_CLASSIFICATION ( #87, ( #8 ) ) ;
#329 = DIRECTION ( 'NONE',  ( -1.000000000000000000, 0.000000000000000000, 0.000000000000000000 ) ) ;
#330 = DIRECTION ( 'NONE',  ( -1.000000000000000000, 1.224646799147351482E-16, 0.000000000000000000 ) ) ;
#331 = MECHANICAL_CONTEXT ( 'NONE', #77, 'mechanical' ) ;
#332 = ORIENTED_EDGE ( 'NONE', *, *, #242, .F. ) ;
#333 = EDGE_CURVE ( 'NONE', #376, #115, #132, .T. ) ;
#334 = DIRECTION ( 'NONE',  ( 1.000000000000000000, 0.000000000000000000, 0.000000000000000000 ) ) ;
#335 = AXIS2_PLACEMENT_3D ( 'NONE', #190, #215, #10 ) ;
#336 = EDGE_CURVE ( 'NONE', #161, #80, #268, .T. ) ;
#337 = ORIENTED_EDGE ( 'NONE', *, *, #322, .F. ) ;
#338 = AXIS2_PLACEMENT_3D ( 'NONE', #67, #156, #120 ) ;
#339 = DATE_AND_TIME ( #23, #300 ) ;
#340 = CARTESIAN_POINT ( 'NONE',  ( 4.000000000000000000, 4.898587196589412829E-16, 5.500000000000005329 ) ) ;
#341 = SHAPE_DEFINITION_REPRESENTATION ( #106, #18 ) ;
#342 = EDGE_LOOP ( 'NONE', ( #332, #110, #192, #184 ) ) ;
#343 = AXIS2_PLACEMENT_3D ( 'NONE', #173, #141, #148 ) ;
#344 = AXIS2_PLACEMENT_3D ( 'NONE', #321, #150, #123 ) ;
#345 = SECURITY_CLASSIFICATION_LEVEL ( 'unclassified' ) ;
#346 = CARTESIAN_POINT ( 'NONE',  ( 0.000000000000000000, 0.000000000000000000, 130.0000000000000000 ) ) ;
#347 = COORDINATED_UNIVERSAL_TIME_OFFSET ( 1, 0, .AHEAD. ) ;
#348 = DIRECTION ( 'NONE',  ( 1.000000000000000000, 0.000000000000000000, -0.000000000000000000 ) ) ;
#349 = FACE_OUTER_BOUND ( 'NONE', #117, .T. ) ;
#350 = EDGE_CURVE ( 'NONE', #370, #200, #104, .T. ) ;
#351 = DIRECTION ( 'NONE',  ( -0.000000000000000000, -0.000000000000000000, -1.000000000000000000 ) ) ;
#352 = CARTESIAN_POINT ( 'NONE',  ( 2.500000000000000000, 3.061616997868383141E-16, 130.0000000000000000 ) ) ;
#353 = EDGE_CURVE ( 'NONE', #74, #220, #201, .T. ) ;
#354 = CARTESIAN_POINT ( 'NONE',  ( 0.000000000000000000, 0.000000000000000000, 130.0000000000000000 ) ) ;
#355 = FACE_OUTER_BOUND ( 'NONE', #166, .T. ) ;
#356 = TOROIDAL_SURFACE ( 'NONE', #139, 4.500000000000000888, 0.5000000000000000000 ) ;
#357 = DIRECTION ( 'NONE',  ( 0.000000000000000000, 0.000000000000000000, 1.000000000000000000 ) ) ;
#358 = DIRECTION ( 'NONE',  ( 0.000000000000000000, 0.000000000000000000, -1.000000000000000000 ) ) ;
#359 = APPROVAL ( #314, 'NEURÈENÝ' ) ;
#360 = ORIENTED_EDGE ( 'NONE', *, *, #365, .T. ) ;
#361 = CARTESIAN_POINT ( 'NONE',  ( -2.500000000000000000, 0.000000000000000000, 130.0000000000000000 ) ) ;
#362 = CLOSED_SHELL ( 'NONE', ( #91, #19, #278, #197, #219, #60, #41, #266, #9, #285, #302 ) ) ;
#363 = CIRCLE ( 'NONE', #64, 4.500000000000000888 ) ;
#364 = EDGE_LOOP ( 'NONE', ( #76, #373 ) ) ;
#365 = EDGE_CURVE ( 'NONE', #220, #74, #371, .T. ) ;
#366 = ORIENTED_EDGE ( 'NONE', *, *, #46, .T. ) ;
#367 = PERSON_AND_ORGANIZATION_ROLE ( 'classification_officer' ) ;
#368 = ORIENTED_EDGE ( 'NONE', *, *, #365, .F. ) ;
#369 = COORDINATED_UNIVERSAL_TIME_OFFSET ( 1, 0, .AHEAD. ) ;
#370 = VERTEX_POINT ( 'NONE', #361 ) ;
#371 = CIRCLE ( 'NONE', #20, 7.000000000000000000 ) ;
#372 = PERSON_AND_ORGANIZATION_ROLE ( 'creator' ) ;
#373 = ORIENTED_EDGE ( 'NONE', *, *, #125, .T. ) ;
#374 = EDGE_CURVE ( 'NONE', #275, #74, #222, .T. ) ;
#375 = PERSON_AND_ORGANIZATION ( #221, #234 ) ;
#376 = VERTEX_POINT ( 'NONE', #71 ) ;
#377 = APPROVAL_DATE_TIME ( #145, #359 ) ;
#378 = DIRECTION ( 'NONE',  ( 0.000000000000000000, 0.000000000000000000, 1.000000000000000000 ) ) ;
#379 = AXIS2_PLACEMENT_3D ( 'NONE', #290, #128, #324 ) ;
#380 = FACE_OUTER_BOUND ( 'NONE', #364, .T. ) ;
#381 = DIRECTION ( 'NONE',  ( 1.000000000000000000, 0.000000000000000000, 0.000000000000000000 ) ) ;
ENDSEC;
END-ISO-10303-21;
