ISO-10303-21;
HEADER;
FILE_DESCRIPTION (( 'STEP AP203' ),
    '1' );
FILE_NAME ('dd81.STEP',
    '2022-07-10T09:14:59',
    ( '' ),
    ( '' ),
    'SwSTEP 2.0',
    'SolidWorks 2019',
    '' );
FILE_SCHEMA (( 'CONFIG_CONTROL_DESIGN' ));
ENDSEC;

DATA;
#1 = APPROVAL_DATE_TIME ( #359, #370 ) ;
#2 = VERTEX_POINT ( 'NONE', #303 ) ;
#3 = COORDINATED_UNIVERSAL_TIME_OFFSET ( 1, 0, .AHEAD. ) ;
#4 = ORIENTED_EDGE ( 'NONE', *, *, #164, .F. ) ;
#5 = EDGE_CURVE ( 'NONE', #213, #231, #360, .T. ) ;
#6 = ADVANCED_FACE ( 'NONE', ( #13 ), #252, .T. ) ;
#7 = CLOSED_SHELL ( 'NONE', ( #83, #253, #169, #113, #6, #269, #201, #92, #115, #331, #263 ) ) ;
#8 = AXIS2_PLACEMENT_3D ( 'NONE', #200, #197, #195 ) ;
#9 = CARTESIAN_POINT ( 'NONE',  ( 0.000000000000000000, 0.000000000000000000, 5.299999999999998934 ) ) ;
#10 = VERTEX_POINT ( 'NONE', #369 ) ;
#11 = APPROVAL_ROLE ( '' ) ;
#12 = VERTEX_POINT ( 'NONE', #106 ) ;
#13 = FACE_OUTER_BOUND ( 'NONE', #35, .T. ) ;
#14 = VECTOR ( 'NONE', #309, 1000.000000000000000 ) ;
#15 = DIRECTION ( 'NONE',  ( -0.000000000000000000, -0.000000000000000000, -1.000000000000000000 ) ) ;
#16 = CARTESIAN_POINT ( 'NONE',  ( 0.000000000000000000, 0.000000000000000000, 180.0000000000000000 ) ) ;
#17 = CARTESIAN_POINT ( 'NONE',  ( 0.000000000000000000, 0.000000000000000000, 180.0000000000000000 ) ) ;
#18 = FACE_OUTER_BOUND ( 'NONE', #332, .T. ) ;
#19 = CC_DESIGN_APPROVAL ( #370, ( #56 ) ) ;
#20 = CARTESIAN_POINT ( 'NONE',  ( 0.000000000000000000, 0.000000000000000000, 180.0000000000000000 ) ) ;
#21 = EDGE_CURVE ( 'NONE', #12, #2, #30, .T. ) ;
#22 = CARTESIAN_POINT ( 'NONE',  ( 0.000000000000000000, 0.000000000000000000, 0.000000000000000000 ) ) ;
#23 = DIRECTION ( 'NONE',  ( 0.000000000000000000, 0.000000000000000000, 1.000000000000000000 ) ) ;
#24 = AXIS2_PLACEMENT_3D ( 'NONE', #254, #284, #337 ) ;
#25 = LINE ( 'NONE', #291, #140 ) ;
#26 = EDGE_CURVE ( 'NONE', #2, #12, #117, .T. ) ;
#27 = DIRECTION ( 'NONE',  ( -0.000000000000000000, -0.000000000000000000, -1.000000000000000000 ) ) ;
#28 = CARTESIAN_POINT ( 'NONE',  ( 0.000000000000000000, 0.000000000000000000, 0.000000000000000000 ) ) ;
#29 = ORIENTED_EDGE ( 'NONE', *, *, #295, .T. ) ;
#30 = CIRCLE ( 'NONE', #80, 6.000000000000000888 ) ;
#31 = APPROVAL_PERSON_ORGANIZATION ( #217, #161, #11 ) ;
#32 = PERSON_AND_ORGANIZATION_ROLE ( 'creator' ) ;
#33 = ORIENTED_EDGE ( 'NONE', *, *, #338, .F. ) ;
#34 = CARTESIAN_POINT ( 'NONE',  ( 0.000000000000000000, 0.000000000000000000, 5.299999999999998934 ) ) ;
#35 = EDGE_LOOP ( 'NONE', ( #276, #94, #168, #59 ) ) ;
#36 = CALENDAR_DATE ( 2022, 10, 7 ) ;
#37 = EDGE_LOOP ( 'NONE', ( #207, #204 ) ) ;
#38 = CIRCLE ( 'NONE', #325, 3.300000000000000266 ) ;
#39 = LOCAL_TIME ( 11, 14, 59.00000000000000000, #98 ) ;
#40 = VERTEX_POINT ( 'NONE', #255 ) ;
#41 = DIRECTION ( 'NONE',  ( -1.000000000000000000, 0.000000000000000000, 0.000000000000000000 ) ) ;
#42 = FACE_OUTER_BOUND ( 'NONE', #62, .T. ) ;
#43 = CIRCLE ( 'NONE', #188, 6.000000000000000888 ) ;
#44 = SECURITY_CLASSIFICATION ( '', '', #326 ) ;
#45 = FACE_BOUND ( 'NONE', #301, .T. ) ;
#46 = CIRCLE ( 'NONE', #155, 3.000000000000000444 ) ;
#47 = APPROVAL_DATE_TIME ( #190, #161 ) ;
#48 = DIRECTION ( 'NONE',  ( -0.000000000000000000, -0.000000000000000000, -1.000000000000000000 ) ) ;
#49 = CC_DESIGN_PERSON_AND_ORGANIZATION_ASSIGNMENT ( #170, #302, ( #56 ) ) ;
#50 = DIRECTION ( 'NONE',  ( 1.000000000000000000, 0.000000000000000000, -0.000000000000000000 ) ) ;
#51 = LINE ( 'NONE', #233, #118 ) ;
#52 = CARTESIAN_POINT ( 'NONE',  ( 6.000000000000000888, 7.347880794884120722E-16, 5.000000000000000000 ) ) ;
#53 = FACE_OUTER_BOUND ( 'NONE', #316, .T. ) ;
#54 = DIRECTION ( 'NONE',  ( 1.000000000000000000, 0.000000000000000000, -0.000000000000000000 ) ) ;
#55 = AXIS2_PLACEMENT_3D ( 'NONE', #210, #273, #179 ) ;
#56 = PRODUCT_DEFINITION ( 'NEZNÁMÝ', '', #222, #73 ) ;
#57 = DIRECTION ( 'NONE',  ( 1.000000000000000000, 0.000000000000000000, 0.000000000000000000 ) ) ;
#58 = ORIENTED_EDGE ( 'NONE', *, *, #214, .F. ) ;
#59 = ORIENTED_EDGE ( 'NONE', *, *, #21, .T. ) ;
#60 = CC_DESIGN_DATE_AND_TIME_ASSIGNMENT ( #293, #121, ( #56 ) ) ;
#61 = APPROVAL_DATE_TIME ( #266, #234 ) ;
#62 = EDGE_LOOP ( 'NONE', ( #172, #211, #145, #294 ) ) ;
#63 = APPROVAL_ROLE ( '' ) ;
#64 = VERTEX_POINT ( 'NONE', #70 ) ;
#65 = MANIFOLD_SOLID_BREP ( 'Odebrat vysunutím3', #7 ) ;
#66 = CALENDAR_DATE ( 2022, 10, 7 ) ;
#67 = ORIENTED_EDGE ( 'NONE', *, *, #226, .T. ) ;
#68 = AXIS2_PLACEMENT_3D ( 'NONE', #247, #278, #183 ) ;
#69 = CARTESIAN_POINT ( 'NONE',  ( 0.000000000000000000, 0.000000000000000000, 180.0000000000000000 ) ) ;
#70 = CARTESIAN_POINT ( 'NONE',  ( 3.000000000000000444, 3.673940397442060361E-16, 180.0000000000000000 ) ) ;
#71 = UNCERTAINTY_MEASURE_WITH_UNIT (LENGTH_MEASURE( 1.000000000000000082E-05 ), #351, 'distance_accuracy_value', 'NONE');
#72 = CARTESIAN_POINT ( 'NONE',  ( 3.000000000000000444, 3.673940397442060361E-16, 180.0000000000000000 ) ) ;
#73 = DESIGN_CONTEXT ( 'detailed design', #156, 'design' ) ;
#74 = CIRCLE ( 'NONE', #24, 3.000000000000000444 ) ;
#75 = DATE_TIME_ROLE ( 'classification_date' ) ;
#76 = DIRECTION ( 'NONE',  ( 1.000000000000000000, 0.000000000000000000, 0.000000000000000000 ) ) ;
#77 = DIRECTION ( 'NONE',  ( 0.000000000000000000, 0.000000000000000000, 1.000000000000000000 ) ) ;
#78 = FACE_OUTER_BOUND ( 'NONE', #329, .T. ) ;
#79 = DIRECTION ( 'NONE',  ( 1.000000000000000000, 0.000000000000000000, 0.000000000000000000 ) ) ;
#80 = AXIS2_PLACEMENT_3D ( 'NONE', #220, #77, #104 ) ;
#81 = AXIS2_PLACEMENT_3D ( 'NONE', #286, #289, #82 ) ;
#82 = DIRECTION ( 'NONE',  ( 1.000000000000000000, 0.000000000000000000, 0.000000000000000000 ) ) ;
#83 = ADVANCED_FACE ( 'NONE', ( #18 ), #312, .F. ) ;
#84 = CARTESIAN_POINT ( 'NONE',  ( 1.750000000000000000, 2.143131898507867804E-16, 180.0000000000000000 ) ) ;
#85 = ORIENTED_EDGE ( 'NONE', *, *, #149, .T. ) ;
#86 = CC_DESIGN_PERSON_AND_ORGANIZATION_ASSIGNMENT ( #93, #205, ( #222 ) ) ;
#87 = DIRECTION ( 'NONE',  ( 1.000000000000000000, 0.000000000000000000, 0.000000000000000000 ) ) ;
#88 = VERTEX_POINT ( 'NONE', #218 ) ;
#89 = AXIS2_PLACEMENT_3D ( 'NONE', #16, #102, #50 ) ;
#90 = APPLICATION_PROTOCOL_DEFINITION ( 'international standard', 'config_control_design', 1994, #123 ) ;
#91 = VERTEX_POINT ( 'NONE', #340 ) ;
#92 = ADVANCED_FACE ( 'NONE', ( #215 ), #283, .T. ) ;
#93 = PERSON_AND_ORGANIZATION ( #245, #146 ) ;
#94 = ORIENTED_EDGE ( 'NONE', *, *, #232, .F. ) ;
#95 = LOCAL_TIME ( 11, 14, 59.00000000000000000, #251 ) ;
#96 = DIRECTION ( 'NONE',  ( 1.000000000000000000, 0.000000000000000000, 0.000000000000000000 ) ) ;
#97 = ORIENTED_EDGE ( 'NONE', *, *, #184, .F. ) ;
#98 = COORDINATED_UNIVERSAL_TIME_OFFSET ( 1, 0, .AHEAD. ) ;
#99 = EDGE_LOOP ( 'NONE', ( #67, #29 ) ) ;
#100 = PRODUCT_RELATED_PRODUCT_CATEGORY ( 'detail', '', ( #108 ) ) ;
#101 = ORIENTED_EDGE ( 'NONE', *, *, #164, .T. ) ;
#102 = DIRECTION ( 'NONE',  ( 0.000000000000000000, 0.000000000000000000, 1.000000000000000000 ) ) ;
#103 = LINE ( 'NONE', #72, #14 ) ;
#104 = DIRECTION ( 'NONE',  ( 1.000000000000000000, 0.000000000000000000, 0.000000000000000000 ) ) ;
#105 = VECTOR ( 'NONE', #257, 1000.000000000000000 ) ;
#106 = CARTESIAN_POINT ( 'NONE',  ( -6.000000000000000888, 0.000000000000000000, 0.000000000000000000 ) ) ;
#107 = DIRECTION ( 'NONE',  ( 1.000000000000000000, 0.000000000000000000, 0.000000000000000000 ) ) ;
#108 = PRODUCT ( 'dd81', 'dd81', '', ( #243 ) ) ;
#109 = DIRECTION ( 'NONE',  ( 0.000000000000000000, 0.000000000000000000, 1.000000000000000000 ) ) ;
#110 = DIRECTION ( 'NONE',  ( -0.000000000000000000, -0.000000000000000000, -1.000000000000000000 ) ) ;
#111 = VECTOR ( 'NONE', #27, 1000.000000000000000 ) ;
#112 = FACE_OUTER_BOUND ( 'NONE', #321, .T. ) ;
#113 = ADVANCED_FACE ( 'NONE', ( #42 ), #364, .T. ) ;
#114 = DIRECTION ( 'NONE',  ( 0.000000000000000000, 0.000000000000000000, 1.000000000000000000 ) ) ;
#115 = ADVANCED_FACE ( 'NONE', ( #130, #159 ), #192, .T. ) ;
#116 =( NAMED_UNIT ( * ) SI_UNIT ( $, .STERADIAN. ) SOLID_ANGLE_UNIT ( ) );
#117 = CIRCLE ( 'NONE', #206, 6.000000000000000888 ) ;
#118 = VECTOR ( 'NONE', #347, 1000.000000000000000 ) ;
#119 = PERSON_AND_ORGANIZATION ( #245, #146 ) ;
#120 = ORIENTED_EDGE ( 'NONE', *, *, #250, .F. ) ;
#121 = DATE_TIME_ROLE ( 'creation_date' ) ;
#122 = EDGE_LOOP ( 'NONE', ( #171, #178, #180, #328 ) ) ;
#123 = APPLICATION_CONTEXT ( 'configuration controlled 3d designs of mechanical parts and assemblies' ) ;
#124 = ORIENTED_EDGE ( 'NONE', *, *, #184, .T. ) ;
#125 = ORIENTED_EDGE ( 'NONE', *, *, #177, .F. ) ;
#126 = ORIENTED_EDGE ( 'NONE', *, *, #290, .F. ) ;
#127 = DIRECTION ( 'NONE',  ( 1.000000000000000000, 0.000000000000000000, 0.000000000000000000 ) ) ;
#128 = LOCAL_TIME ( 11, 14, 59.00000000000000000, #176 ) ;
#129 = CALENDAR_DATE ( 2022, 10, 7 ) ;
#130 = FACE_BOUND ( 'NONE', #361, .T. ) ;
#131 = CARTESIAN_POINT ( 'NONE',  ( 0.000000000000000000, 0.000000000000000000, 180.0000000000000000 ) ) ;
#132 = CARTESIAN_POINT ( 'NONE',  ( 0.000000000000000000, 0.000000000000000000, 0.000000000000000000 ) ) ;
#133 = CIRCLE ( 'NONE', #350, 3.000000000000000444 ) ;
#134 = CIRCLE ( 'NONE', #55, 1.750000000000000000 ) ;
#135 = CYLINDRICAL_SURFACE ( 'NONE', #173, 3.000000000000000444 ) ;
#136 = DIRECTION ( 'NONE',  ( 0.000000000000000000, 0.000000000000000000, -1.000000000000000000 ) ) ;
#137 = FACE_OUTER_BOUND ( 'NONE', #122, .T. ) ;
#138 = AXIS2_PLACEMENT_3D ( 'NONE', #166, #287, #79 ) ;
#139 = CARTESIAN_POINT ( 'NONE',  ( -3.000000000000000444, 0.000000000000000000, 180.0000000000000000 ) ) ;
#140 = VECTOR ( 'NONE', #136, 1000.000000000000000 ) ;
#141 = CC_DESIGN_DATE_AND_TIME_ASSIGNMENT ( #362, #75, ( #44 ) ) ;
#142 = DIRECTION ( 'NONE',  ( -0.000000000000000000, -0.000000000000000000, -1.000000000000000000 ) ) ;
#143 = CARTESIAN_POINT ( 'NONE',  ( 0.000000000000000000, 0.000000000000000000, 0.000000000000000000 ) ) ;
#144 = APPROVAL_STATUS ( 'not_yet_approved' ) ;
#145 = ORIENTED_EDGE ( 'NONE', *, *, #26, .T. ) ;
#146 = ORGANIZATION ( 'NEURÈENÝ', 'NEURÈENÝ', '' ) ;
#147 = VERTEX_POINT ( 'NONE', #158 ) ;
#148 = VERTEX_POINT ( 'NONE', #277 ) ;
#149 = EDGE_CURVE ( 'NONE', #148, #213, #199, .T. ) ;
#150 = CIRCLE ( 'NONE', #81, 3.000000000000000444 ) ;
#151 = EDGE_LOOP ( 'NONE', ( #381, #124, #101, #126 ) ) ;
#152 = DIRECTION ( 'NONE',  ( -0.000000000000000000, -0.000000000000000000, -1.000000000000000000 ) ) ;
#153 = DIRECTION ( 'NONE',  ( 0.000000000000000000, 0.000000000000000000, 1.000000000000000000 ) ) ;
#154 = CIRCLE ( 'NONE', #310, 1.750000000000000000 ) ;
#155 = AXIS2_PLACEMENT_3D ( 'NONE', #34, #352, #237 ) ;
#156 = APPLICATION_CONTEXT ( 'configuration controlled 3d designs of mechanical parts and assemblies' ) ;
#157 = FACE_OUTER_BOUND ( 'NONE', #246, .T. ) ;
#158 = CARTESIAN_POINT ( 'NONE',  ( 3.000000000000000444, 3.673940397442060361E-16, 5.299999999999998934 ) ) ;
#159 = FACE_OUTER_BOUND ( 'NONE', #99, .T. ) ;
#160 = ADVANCED_BREP_SHAPE_REPRESENTATION ( 'dd81', ( #65, #182 ), #379 ) ;
#161 = APPROVAL ( #336, 'NEURÈENÝ' ) ;
#162 = AXIS2_PLACEMENT_3D ( 'NONE', #288, #343, #372 ) ;
#163 = CARTESIAN_POINT ( 'NONE',  ( -6.000000000000000888, 0.000000000000000000, 5.000000000000000000 ) ) ;
#164 = EDGE_CURVE ( 'NONE', #147, #91, #74, .T. ) ;
#165 = DIRECTION ( 'NONE',  ( -0.000000000000000000, -0.000000000000000000, -1.000000000000000000 ) ) ;
#166 = CARTESIAN_POINT ( 'NONE',  ( 0.000000000000000000, 0.000000000000000000, 5.299999999999998934 ) ) ;
#167 = LINE ( 'NONE', #139, #105 ) ;
#168 = ORIENTED_EDGE ( 'NONE', *, *, #223, .T. ) ;
#169 = ADVANCED_FACE ( 'NONE', ( #334 ), #135, .T. ) ;
#170 = PERSON_AND_ORGANIZATION ( #245, #146 ) ;
#171 = ORIENTED_EDGE ( 'NONE', *, *, #5, .F. ) ;
#172 = ORIENTED_EDGE ( 'NONE', *, *, #181, .F. ) ;
#173 = AXIS2_PLACEMENT_3D ( 'NONE', #69, #306, #41 ) ;
#174 = PERSON_AND_ORGANIZATION ( #245, #146 ) ;
#175 = ORIENTED_EDGE ( 'NONE', *, *, #308, .F. ) ;
#176 = COORDINATED_UNIVERSAL_TIME_OFFSET ( 1, 0, .AHEAD. ) ;
#177 = EDGE_CURVE ( 'NONE', #88, #272, #38, .T. ) ;
#178 = ORIENTED_EDGE ( 'NONE', *, *, #368, .T. ) ;
#179 = DIRECTION ( 'NONE',  ( 1.000000000000000000, 0.000000000000000000, 0.000000000000000000 ) ) ;
#180 = ORIENTED_EDGE ( 'NONE', *, *, #305, .T. ) ;
#181 = EDGE_CURVE ( 'NONE', #270, #292, #208, .T. ) ;
#182 = AXIS2_PLACEMENT_3D ( 'NONE', #28, #203, #57 ) ;
#183 = DIRECTION ( 'NONE',  ( -1.000000000000000000, 0.000000000000000000, 0.000000000000000000 ) ) ;
#184 = EDGE_CURVE ( 'NONE', #64, #147, #103, .T. ) ;
#185 = DIRECTION ( 'NONE',  ( -1.000000000000000000, 0.000000000000000000, 0.000000000000000000 ) ) ;
#186 = SHAPE_DEFINITION_REPRESENTATION ( #248, #160 ) ;
#187 = CARTESIAN_POINT ( 'NONE',  ( 0.000000000000000000, 0.000000000000000000, 5.000000000000000000 ) ) ;
#188 = AXIS2_PLACEMENT_3D ( 'NONE', #320, #114, #376 ) ;
#189 = DIRECTION ( 'NONE',  ( 0.000000000000000000, 0.000000000000000000, -1.000000000000000000 ) ) ;
#190 = DATE_AND_TIME ( #365, #95 ) ;
#191 = CC_DESIGN_PERSON_AND_ORGANIZATION_ASSIGNMENT ( #268, #357, ( #108 ) ) ;
#192 = PLANE ( 'NONE',  #89 ) ;
#193 = PLANE ( 'NONE',  #285 ) ;
#194 = CC_DESIGN_APPROVAL ( #161, ( #44 ) ) ;
#195 = DIRECTION ( 'NONE',  ( -1.000000000000000000, 1.224646799147353207E-16, 0.000000000000000000 ) ) ;
#196 = DIRECTION ( 'NONE',  ( 0.000000000000000000, 0.000000000000000000, -1.000000000000000000 ) ) ;
#197 = DIRECTION ( 'NONE',  ( 1.224646799147353207E-16, 1.000000000000000000, -0.000000000000000000 ) ) ;
#198 = ORIENTED_EDGE ( 'NONE', *, *, #250, .T. ) ;
#199 = CIRCLE ( 'NONE', #296, 1.750000000000000000 ) ;
#200 = CARTESIAN_POINT ( 'NONE',  ( -3.300000000000000266, 4.041334437186266003E-16, 5.299999999999998934 ) ) ;
#201 = ADVANCED_FACE ( 'NONE', ( #45, #157 ), #342, .F. ) ;
#202 = ORIENTED_EDGE ( 'NONE', *, *, #264, .T. ) ;
#203 = DIRECTION ( 'NONE',  ( 0.000000000000000000, 0.000000000000000000, 1.000000000000000000 ) ) ;
#204 = ORIENTED_EDGE ( 'NONE', *, *, #177, .T. ) ;
#205 = PERSON_AND_ORGANIZATION_ROLE ( 'design_supplier' ) ;
#206 = AXIS2_PLACEMENT_3D ( 'NONE', #132, #311, #371 ) ;
#207 = ORIENTED_EDGE ( 'NONE', *, *, #308, .T. ) ;
#208 = CIRCLE ( 'NONE', #258, 6.000000000000000888 ) ;
#209 = TOROIDAL_SURFACE ( 'NONE', #275, 3.300000000000000266, 0.2999999999999999889 ) ;
#210 = CARTESIAN_POINT ( 'NONE',  ( 0.000000000000000000, 0.000000000000000000, 180.0000000000000000 ) ) ;
#211 = ORIENTED_EDGE ( 'NONE', *, *, #281, .T. ) ;
#212 = APPROVAL_ROLE ( '' ) ;
#213 = VERTEX_POINT ( 'NONE', #84 ) ;
#214 = EDGE_CURVE ( 'NONE', #10, #231, #221, .T. ) ;
#215 = FACE_OUTER_BOUND ( 'NONE', #324, .T. ) ;
#216 = CC_DESIGN_APPROVAL ( #234, ( #222 ) ) ;
#217 = PERSON_AND_ORGANIZATION ( #245, #146 ) ;
#218 = CARTESIAN_POINT ( 'NONE',  ( -3.300000000000000266, 4.041334437186266003E-16, 4.999999999999999112 ) ) ;
#219 = DIRECTION ( 'NONE',  ( -1.000000000000000000, 0.000000000000000000, 0.000000000000000000 ) ) ;
#220 = CARTESIAN_POINT ( 'NONE',  ( 0.000000000000000000, 0.000000000000000000, 0.000000000000000000 ) ) ;
#221 = CIRCLE ( 'NONE', #279, 1.750000000000000000 ) ;
#222 = PRODUCT_DEFINITION_FORMATION_WITH_SPECIFIED_SOURCE ( 'LIBOVOLNÝ', '', #108, .NOT_KNOWN. ) ;
#223 = EDGE_CURVE ( 'NONE', #292, #12, #227, .T. ) ;
#224 = DIRECTION ( 'NONE',  ( -1.000000000000000000, 0.000000000000000000, 0.000000000000000000 ) ) ;
#225 = DIRECTION ( 'NONE',  ( 1.000000000000000000, 0.000000000000000000, 0.000000000000000000 ) ) ;
#226 = EDGE_CURVE ( 'NONE', #40, #64, #133, .T. ) ;
#227 = LINE ( 'NONE', #262, #111 ) ;
#228 = AXIS2_PLACEMENT_3D ( 'NONE', #22, #109, #349 ) ;
#229 = CARTESIAN_POINT ( 'NONE',  ( 3.300000000000000266, 0.000000000000000000, 5.299999999999998934 ) ) ;
#230 = CYLINDRICAL_SURFACE ( 'NONE', #162, 1.750000000000000000 ) ;
#231 = VERTEX_POINT ( 'NONE', #261 ) ;
#232 = EDGE_CURVE ( 'NONE', #292, #270, #43, .T. ) ;
#233 = CARTESIAN_POINT ( 'NONE',  ( 6.000000000000000888, 7.347880794884120722E-16, 5.000000000000000000 ) ) ;
#234 = APPROVAL ( #144, 'NEURÈENÝ' ) ;
#235 = DIRECTION ( 'NONE',  ( 0.000000000000000000, 0.000000000000000000, 1.000000000000000000 ) ) ;
#236 = AXIS2_PLACEMENT_3D ( 'NONE', #229, #345, #196 ) ;
#237 = DIRECTION ( 'NONE',  ( 1.000000000000000000, 0.000000000000000000, 0.000000000000000000 ) ) ;
#238 = ORIENTED_EDGE ( 'NONE', *, *, #149, .F. ) ;
#239 = COORDINATED_UNIVERSAL_TIME_OFFSET ( 1, 0, .AHEAD. ) ;
#240 = ORIENTED_EDGE ( 'NONE', *, *, #226, .F. ) ;
#241 = CC_DESIGN_PERSON_AND_ORGANIZATION_ASSIGNMENT ( #119, #32, ( #222 ) ) ;
#242 = ORIENTED_EDGE ( 'NONE', *, *, #318, .T. ) ;
#243 = MECHANICAL_CONTEXT ( 'NONE', #123, 'mechanical' ) ;
#244 = ORIENTED_EDGE ( 'NONE', *, *, #290, .T. ) ;
#245 = PERSON ( 'NEURÈENÝ', 'NEURÈENÝ', 'NEURÈENÝ', ('NEURÈENÝ'), ('NEURÈENÝ'), ('NEURÈENÝ') ) ;
#246 = EDGE_LOOP ( 'NONE', ( #378, #348 ) ) ;
#247 = CARTESIAN_POINT ( 'NONE',  ( 0.000000000000000000, 0.000000000000000000, 180.0000000000000000 ) ) ;
#248 = PRODUCT_DEFINITION_SHAPE ( 'NONE', 'NONE',  #56 ) ;
#249 = DIRECTION ( 'NONE',  ( 0.000000000000000000, 0.000000000000000000, 1.000000000000000000 ) ) ;
#250 = EDGE_CURVE ( 'NONE', #231, #10, #154, .T. ) ;
#251 = COORDINATED_UNIVERSAL_TIME_OFFSET ( 1, 0, .AHEAD. ) ;
#252 = CYLINDRICAL_SURFACE ( 'NONE', #265, 6.000000000000000888 ) ;
#253 = ADVANCED_FACE ( 'NONE', ( #112 ), #374, .F. ) ;
#254 = CARTESIAN_POINT ( 'NONE',  ( 0.000000000000000000, 0.000000000000000000, 5.299999999999998934 ) ) ;
#255 = CARTESIAN_POINT ( 'NONE',  ( -3.000000000000000444, 0.000000000000000000, 180.0000000000000000 ) ) ;
#256 = CARTESIAN_POINT ( 'NONE',  ( 0.000000000000000000, 0.000000000000000000, 0.000000000000000000 ) ) ;
#257 = DIRECTION ( 'NONE',  ( -0.000000000000000000, -0.000000000000000000, -1.000000000000000000 ) ) ;
#258 = AXIS2_PLACEMENT_3D ( 'NONE', #307, #249, #366 ) ;
#259 = LOCAL_TIME ( 11, 14, 59.00000000000000000, #3 ) ;
#260 = LOCAL_TIME ( 11, 14, 59.00000000000000000, #239 ) ;
#261 = CARTESIAN_POINT ( 'NONE',  ( 1.750000000000000000, 2.143131898507867804E-16, 0.000000000000000000 ) ) ;
#262 = CARTESIAN_POINT ( 'NONE',  ( -6.000000000000000888, 0.000000000000000000, 5.000000000000000000 ) ) ;
#263 = ADVANCED_FACE ( 'NONE', ( #137 ), #230, .F. ) ;
#264 = EDGE_CURVE ( 'NONE', #91, #88, #356, .T. ) ;
#265 = AXIS2_PLACEMENT_3D ( 'NONE', #187, #341, #219 ) ;
#266 = DATE_AND_TIME ( #330, #260 ) ;
#267 = ORIENTED_EDGE ( 'NONE', *, *, #305, .F. ) ;
#268 = PERSON_AND_ORGANIZATION ( #245, #146 ) ;
#269 = ADVANCED_FACE ( 'NONE', ( #377, #78 ), #193, .T. ) ;
#270 = VERTEX_POINT ( 'NONE', #52 ) ;
#271 = PERSON_AND_ORGANIZATION ( #245, #146 ) ;
#272 = VERTEX_POINT ( 'NONE', #313 ) ;
#273 = DIRECTION ( 'NONE',  ( 0.000000000000000000, 0.000000000000000000, 1.000000000000000000 ) ) ;
#274 = ORIENTED_EDGE ( 'NONE', *, *, #232, .T. ) ;
#275 = AXIS2_PLACEMENT_3D ( 'NONE', #9, #235, #96 ) ;
#276 = ORIENTED_EDGE ( 'NONE', *, *, #281, .F. ) ;
#277 = CARTESIAN_POINT ( 'NONE',  ( -1.750000000000000000, 0.000000000000000000, 180.0000000000000000 ) ) ;
#278 = DIRECTION ( 'NONE',  ( 0.000000000000000000, 0.000000000000000000, -1.000000000000000000 ) ) ;
#279 = AXIS2_PLACEMENT_3D ( 'NONE', #143, #165, #107 ) ;
#280 = APPROVAL_PERSON_ORGANIZATION ( #380, #370, #63 ) ;
#281 = EDGE_CURVE ( 'NONE', #270, #2, #51, .T. ) ;
#282 = CARTESIAN_POINT ( 'NONE',  ( 0.000000000000000000, 0.000000000000000000, 5.000000000000000000 ) ) ;
#283 = CYLINDRICAL_SURFACE ( 'NONE', #344, 3.000000000000000444 ) ;
#284 = DIRECTION ( 'NONE',  ( 0.000000000000000000, 0.000000000000000000, 1.000000000000000000 ) ) ;
#285 = AXIS2_PLACEMENT_3D ( 'NONE', #317, #314, #54 ) ;
#286 = CARTESIAN_POINT ( 'NONE',  ( 0.000000000000000000, 0.000000000000000000, 180.0000000000000000 ) ) ;
#287 = DIRECTION ( 'NONE',  ( 0.000000000000000000, 0.000000000000000000, 1.000000000000000000 ) ) ;
#288 = CARTESIAN_POINT ( 'NONE',  ( 0.000000000000000000, 0.000000000000000000, 180.0000000000000000 ) ) ;
#289 = DIRECTION ( 'NONE',  ( 0.000000000000000000, 0.000000000000000000, 1.000000000000000000 ) ) ;
#290 = EDGE_CURVE ( 'NONE', #40, #91, #167, .T. ) ;
#291 = CARTESIAN_POINT ( 'NONE',  ( -1.750000000000000000, 0.000000000000000000, 180.0000000000000000 ) ) ;
#292 = VERTEX_POINT ( 'NONE', #163 ) ;
#293 = DATE_AND_TIME ( #66, #39 ) ;
#294 = ORIENTED_EDGE ( 'NONE', *, *, #223, .F. ) ;
#295 = EDGE_CURVE ( 'NONE', #64, #40, #150, .T. ) ;
#296 = AXIS2_PLACEMENT_3D ( 'NONE', #131, #153, #76 ) ;
#297 = APPROVAL_STATUS ( 'not_yet_approved' ) ;
#298 = ORIENTED_EDGE ( 'NONE', *, *, #264, .F. ) ;
#299 = PERSON_AND_ORGANIZATION_ROLE ( 'classification_officer' ) ;
#300 = ORIENTED_EDGE ( 'NONE', *, *, #338, .T. ) ;
#301 = EDGE_LOOP ( 'NONE', ( #58, #120 ) ) ;
#302 = PERSON_AND_ORGANIZATION_ROLE ( 'creator' ) ;
#303 = CARTESIAN_POINT ( 'NONE',  ( 6.000000000000000888, 7.347880794884120722E-16, 0.000000000000000000 ) ) ;
#304 = AXIS2_PLACEMENT_3D ( 'NONE', #373, #110, #315 ) ;
#305 = EDGE_CURVE ( 'NONE', #148, #10, #25, .T. ) ;
#306 = DIRECTION ( 'NONE',  ( -0.000000000000000000, -0.000000000000000000, -1.000000000000000000 ) ) ;
#307 = CARTESIAN_POINT ( 'NONE',  ( 0.000000000000000000, 0.000000000000000000, 5.000000000000000000 ) ) ;
#308 = EDGE_CURVE ( 'NONE', #272, #88, #335, .T. ) ;
#309 = DIRECTION ( 'NONE',  ( -0.000000000000000000, -0.000000000000000000, -1.000000000000000000 ) ) ;
#310 = AXIS2_PLACEMENT_3D ( 'NONE', #256, #142, #87 ) ;
#311 = DIRECTION ( 'NONE',  ( 0.000000000000000000, 0.000000000000000000, 1.000000000000000000 ) ) ;
#312 = CYLINDRICAL_SURFACE ( 'NONE', #68, 1.750000000000000000 ) ;
#313 = CARTESIAN_POINT ( 'NONE',  ( 3.300000000000000266, 0.000000000000000000, 4.999999999999999112 ) ) ;
#314 = DIRECTION ( 'NONE',  ( 0.000000000000000000, 0.000000000000000000, 1.000000000000000000 ) ) ;
#315 = DIRECTION ( 'NONE',  ( 1.000000000000000000, 0.000000000000000000, 0.000000000000000000 ) ) ;
#316 = EDGE_LOOP ( 'NONE', ( #298, #4, #242, #125 ) ) ;
#317 = CARTESIAN_POINT ( 'NONE',  ( 0.000000000000000000, 0.000000000000000000, 5.000000000000000000 ) ) ;
#318 = EDGE_CURVE ( 'NONE', #147, #272, #327, .T. ) ;
#319 = CC_DESIGN_SECURITY_CLASSIFICATION ( #44, ( #222 ) ) ;
#320 = CARTESIAN_POINT ( 'NONE',  ( 0.000000000000000000, 0.000000000000000000, 5.000000000000000000 ) ) ;
#321 = EDGE_LOOP ( 'NONE', ( #33, #202, #175, #353 ) ) ;
#322 = APPLICATION_PROTOCOL_DEFINITION ( 'international standard', 'config_control_design', 1994, #156 ) ;
#323 = ORIENTED_EDGE ( 'NONE', *, *, #181, .T. ) ;
#324 = EDGE_LOOP ( 'NONE', ( #97, #240, #244, #300 ) ) ;
#325 = AXIS2_PLACEMENT_3D ( 'NONE', #282, #152, #127 ) ;
#326 = SECURITY_CLASSIFICATION_LEVEL ( 'unclassified' ) ;
#327 = CIRCLE ( 'NONE', #236, 0.2999999999999999334 ) ;
#328 = ORIENTED_EDGE ( 'NONE', *, *, #214, .T. ) ;
#329 = EDGE_LOOP ( 'NONE', ( #274, #323 ) ) ;
#330 = CALENDAR_DATE ( 2022, 10, 7 ) ;
#331 = ADVANCED_FACE ( 'NONE', ( #53 ), #209, .F. ) ;
#332 = EDGE_LOOP ( 'NONE', ( #85, #355, #198, #267 ) ) ;
#333 = AXIS2_PLACEMENT_3D ( 'NONE', #339, #48, #224 ) ;
#334 = FACE_OUTER_BOUND ( 'NONE', #151, .T. ) ;
#335 = CIRCLE ( 'NONE', #304, 3.300000000000000266 ) ;
#336 = APPROVAL_STATUS ( 'not_yet_approved' ) ;
#337 = DIRECTION ( 'NONE',  ( 1.000000000000000000, 0.000000000000000000, 0.000000000000000000 ) ) ;
#338 = EDGE_CURVE ( 'NONE', #91, #147, #46, .T. ) ;
#339 = CARTESIAN_POINT ( 'NONE',  ( 0.000000000000000000, 0.000000000000000000, 5.000000000000000000 ) ) ;
#340 = CARTESIAN_POINT ( 'NONE',  ( -3.000000000000000444, 0.000000000000000000, 5.299999999999998934 ) ) ;
#341 = DIRECTION ( 'NONE',  ( -0.000000000000000000, -0.000000000000000000, -1.000000000000000000 ) ) ;
#342 = PLANE ( 'NONE',  #228 ) ;
#343 = DIRECTION ( 'NONE',  ( 0.000000000000000000, 0.000000000000000000, -1.000000000000000000 ) ) ;
#344 = AXIS2_PLACEMENT_3D ( 'NONE', #17, #15, #185 ) ;
#345 = DIRECTION ( 'NONE',  ( 0.000000000000000000, -1.000000000000000000, 0.000000000000000000 ) ) ;
#346 = CC_DESIGN_PERSON_AND_ORGANIZATION_ASSIGNMENT ( #174, #299, ( #44 ) ) ;
#347 = DIRECTION ( 'NONE',  ( -0.000000000000000000, -0.000000000000000000, -1.000000000000000000 ) ) ;
#348 = ORIENTED_EDGE ( 'NONE', *, *, #26, .F. ) ;
#349 = DIRECTION ( 'NONE',  ( 1.000000000000000000, 0.000000000000000000, -0.000000000000000000 ) ) ;
#350 = AXIS2_PLACEMENT_3D ( 'NONE', #20, #23, #225 ) ;
#351 =( LENGTH_UNIT ( ) NAMED_UNIT ( * ) SI_UNIT ( .MILLI., .METRE. ) );
#352 = DIRECTION ( 'NONE',  ( 0.000000000000000000, 0.000000000000000000, 1.000000000000000000 ) ) ;
#353 = ORIENTED_EDGE ( 'NONE', *, *, #318, .F. ) ;
#354 =( NAMED_UNIT ( * ) PLANE_ANGLE_UNIT ( ) SI_UNIT ( $, .RADIAN. ) );
#355 = ORIENTED_EDGE ( 'NONE', *, *, #5, .T. ) ;
#356 = CIRCLE ( 'NONE', #8, 0.2999999999999999334 ) ;
#357 = PERSON_AND_ORGANIZATION_ROLE ( 'design_owner' ) ;
#358 = ORIENTED_EDGE ( 'NONE', *, *, #368, .F. ) ;
#359 = DATE_AND_TIME ( #36, #128 ) ;
#360 = LINE ( 'NONE', #367, #363 ) ;
#361 = EDGE_LOOP ( 'NONE', ( #238, #358 ) ) ;
#362 = DATE_AND_TIME ( #129, #259 ) ;
#363 = VECTOR ( 'NONE', #189, 1000.000000000000000 ) ;
#364 = CYLINDRICAL_SURFACE ( 'NONE', #333, 6.000000000000000888 ) ;
#365 = CALENDAR_DATE ( 2022, 10, 7 ) ;
#366 = DIRECTION ( 'NONE',  ( 1.000000000000000000, 0.000000000000000000, 0.000000000000000000 ) ) ;
#367 = CARTESIAN_POINT ( 'NONE',  ( 1.750000000000000000, 2.143131898507867804E-16, 180.0000000000000000 ) ) ;
#368 = EDGE_CURVE ( 'NONE', #213, #148, #134, .T. ) ;
#369 = CARTESIAN_POINT ( 'NONE',  ( -1.750000000000000000, 0.000000000000000000, 0.000000000000000000 ) ) ;
#370 = APPROVAL ( #297, 'NEURÈENÝ' ) ;
#371 = DIRECTION ( 'NONE',  ( 1.000000000000000000, 0.000000000000000000, 0.000000000000000000 ) ) ;
#372 = DIRECTION ( 'NONE',  ( -1.000000000000000000, 0.000000000000000000, 0.000000000000000000 ) ) ;
#373 = CARTESIAN_POINT ( 'NONE',  ( 0.000000000000000000, 0.000000000000000000, 5.000000000000000000 ) ) ;
#374 = TOROIDAL_SURFACE ( 'NONE', #138, 3.300000000000000266, 0.2999999999999999889 ) ;
#375 = APPROVAL_PERSON_ORGANIZATION ( #271, #234, #212 ) ;
#376 = DIRECTION ( 'NONE',  ( 1.000000000000000000, 0.000000000000000000, 0.000000000000000000 ) ) ;
#377 = FACE_BOUND ( 'NONE', #37, .T. ) ;
#378 = ORIENTED_EDGE ( 'NONE', *, *, #21, .F. ) ;
#379 =( GEOMETRIC_REPRESENTATION_CONTEXT ( 3 ) GLOBAL_UNCERTAINTY_ASSIGNED_CONTEXT ( ( #71 ) ) GLOBAL_UNIT_ASSIGNED_CONTEXT ( ( #351, #354, #116 ) ) REPRESENTATION_CONTEXT ( 'NONE', 'WORKASPACE' ) );
#380 = PERSON_AND_ORGANIZATION ( #245, #146 ) ;
#381 = ORIENTED_EDGE ( 'NONE', *, *, #295, .F. ) ;
ENDSEC;
END-ISO-10303-21;
