ISO-10303-21;
HEADER;
FILE_DESCRIPTION (( 'STEP AP203' ),
    '1' );
FILE_NAME ('aefb.STEP',
    '2022-07-10T09:02:06',
    ( '' ),
    ( '' ),
    'SwSTEP 2.0',
    'SolidWorks 2019',
    '' );
FILE_SCHEMA (( 'CONFIG_CONTROL_DESIGN' ));
ENDSEC;

DATA;
#1 = PERSON_AND_ORGANIZATION ( #254, #242 ) ;
#2 = APPROVAL_STATUS ( 'not_yet_approved' ) ;
#3 = CARTESIAN_POINT ( 'NONE',  ( 0.000000000000000000, 0.000000000000000000, 7.700000000000012612 ) ) ;
#4 = CIRCLE ( 'NONE', #117, 10.00000000000000000 ) ;
#5 = CALENDAR_DATE ( 2022, 10, 7 ) ;
#6 = DIRECTION ( 'NONE',  ( -0.000000000000000000, -0.000000000000000000, -1.000000000000000000 ) ) ;
#7 = ADVANCED_FACE ( 'NONE', ( #377, #110 ), #241, .F. ) ;
#8 = APPROVAL_DATE_TIME ( #78, #322 ) ;
#9 = DIRECTION ( 'NONE',  ( 0.000000000000000000, -1.000000000000000000, 0.000000000000000000 ) ) ;
#10 = ORIENTED_EDGE ( 'NONE', *, *, #185, .F. ) ;
#11 = LOCAL_TIME ( 11, 2, 6.000000000000000000, #182 ) ;
#12 = ORIENTED_EDGE ( 'NONE', *, *, #272, .T. ) ;
#13 = DIRECTION ( 'NONE',  ( -1.000000000000000000, 0.000000000000000000, 0.000000000000000000 ) ) ;
#14 = AXIS2_PLACEMENT_3D ( 'NONE', #34, #324, #289 ) ;
#15 = DIRECTION ( 'NONE',  ( -0.000000000000000000, -0.000000000000000000, -1.000000000000000000 ) ) ;
#16 = CARTESIAN_POINT ( 'NONE',  ( 0.000000000000000000, 0.000000000000000000, 182.0000000000000000 ) ) ;
#17 = VERTEX_POINT ( 'NONE', #83 ) ;
#18 = EDGE_CURVE ( 'NONE', #35, #229, #210, .T. ) ;
#19 = CYLINDRICAL_SURFACE ( 'NONE', #63, 4.099999999999999645 ) ;
#20 = DIRECTION ( 'NONE',  ( -1.000000000000000000, 0.000000000000000000, 0.000000000000000000 ) ) ;
#21 = ORIENTED_EDGE ( 'NONE', *, *, #357, .F. ) ;
#22 = EDGE_CURVE ( 'NONE', #163, #305, #299, .T. ) ;
#23 = DIRECTION ( 'NONE',  ( -1.000000000000000000, 1.224646799147353454E-16, 0.000000000000000000 ) ) ;
#24 = VERTEX_POINT ( 'NONE', #311 ) ;
#25 = PRODUCT ( 'aefb', 'aefb', '', ( #351 ) ) ;
#26 = DIRECTION ( 'NONE',  ( 0.000000000000000000, 0.000000000000000000, 1.000000000000000000 ) ) ;
#27 = APPLICATION_PROTOCOL_DEFINITION ( 'international standard', 'config_control_design', 1994, #80 ) ;
#28 = COORDINATED_UNIVERSAL_TIME_OFFSET ( 1, 0, .AHEAD. ) ;
#29 = LINE ( 'NONE', #183, #336 ) ;
#30 = DATE_AND_TIME ( #5, #153 ) ;
#31 = DIRECTION ( 'NONE',  ( 1.000000000000000000, 0.000000000000000000, 0.000000000000000000 ) ) ;
#32 = VECTOR ( 'NONE', #157, 1000.000000000000000 ) ;
#33 = APPROVAL_STATUS ( 'not_yet_approved' ) ;
#34 = CARTESIAN_POINT ( 'NONE',  ( 0.000000000000000000, 0.000000000000000000, 7.000000000000000000 ) ) ;
#35 = VERTEX_POINT ( 'NONE', #379 ) ;
#36 = FACE_OUTER_BOUND ( 'NONE', #132, .T. ) ;
#37 = EDGE_LOOP ( 'NONE', ( #142, #335, #202, #44 ) ) ;
#38 = CIRCLE ( 'NONE', #355, 6.000000000000000888 ) ;
#39 = ORIENTED_EDGE ( 'NONE', *, *, #306, .T. ) ;
#40 = ORIENTED_EDGE ( 'NONE', *, *, #306, .F. ) ;
#41 = CLOSED_SHELL ( 'NONE', ( #333, #319, #293, #139, #378, #217, #7, #376, #200, #173, #54 ) ) ;
#42 = EDGE_LOOP ( 'NONE', ( #225, #84 ) ) ;
#43 = CC_DESIGN_APPROVAL ( #106, ( #61 ) ) ;
#44 = ORIENTED_EDGE ( 'NONE', *, *, #72, .T. ) ;
#45 = DIRECTION ( 'NONE',  ( 0.000000000000000000, 0.000000000000000000, -1.000000000000000000 ) ) ;
#46 = VERTEX_POINT ( 'NONE', #112 ) ;
#47 = EDGE_LOOP ( 'NONE', ( #71, #315, #122, #197 ) ) ;
#48 = APPROVAL_PERSON_ORGANIZATION ( #294, #322, #221 ) ;
#49 = DIRECTION ( 'NONE',  ( 1.000000000000000000, 0.000000000000000000, 0.000000000000000000 ) ) ;
#50 = DIRECTION ( 'NONE',  ( 1.000000000000000000, 0.000000000000000000, 0.000000000000000000 ) ) ;
#51 = COORDINATED_UNIVERSAL_TIME_OFFSET ( 1, 0, .AHEAD. ) ;
#52 = DIRECTION ( 'NONE',  ( 1.000000000000000000, 0.000000000000000000, 0.000000000000000000 ) ) ;
#53 = PERSON_AND_ORGANIZATION ( #254, #242 ) ;
#54 = ADVANCED_FACE ( 'NONE', ( #281 ), #19, .F. ) ;
#55 = CARTESIAN_POINT ( 'NONE',  ( -6.000000000000000888, 0.000000000000000000, 182.0000000000000000 ) ) ;
#56 = CARTESIAN_POINT ( 'NONE',  ( 0.000000000000000000, 0.000000000000000000, 7.000000000000000000 ) ) ;
#57 = PERSON_AND_ORGANIZATION_ROLE ( 'creator' ) ;
#58 = DIRECTION ( 'NONE',  ( 1.000000000000000000, 0.000000000000000000, 0.000000000000000000 ) ) ;
#59 = EDGE_CURVE ( 'NONE', #345, #17, #234, .T. ) ;
#60 = DIRECTION ( 'NONE',  ( 1.000000000000000000, 0.000000000000000000, 0.000000000000000000 ) ) ;
#61 = PRODUCT_DEFINITION_FORMATION_WITH_SPECIFIED_SOURCE ( 'LIBOVOLNÝ', '', #25, .NOT_KNOWN. ) ;
#62 = DIRECTION ( 'NONE',  ( 0.000000000000000000, 0.000000000000000000, -1.000000000000000000 ) ) ;
#63 = AXIS2_PLACEMENT_3D ( 'NONE', #135, #370, #101 ) ;
#64 = ORIENTED_EDGE ( 'NONE', *, *, #349, .T. ) ;
#65 = SHAPE_DEFINITION_REPRESENTATION ( #134, #372 ) ;
#66 = EDGE_CURVE ( 'NONE', #144, #345, #246, .T. ) ;
#67 = ORIENTED_EDGE ( 'NONE', *, *, #266, .F. ) ;
#68 = AXIS2_PLACEMENT_3D ( 'NONE', #16, #334, #97 ) ;
#69 = CARTESIAN_POINT ( 'NONE',  ( 0.000000000000000000, 0.000000000000000000, 182.0000000000000000 ) ) ;
#70 = ORIENTED_EDGE ( 'NONE', *, *, #59, .T. ) ;
#71 = ORIENTED_EDGE ( 'NONE', *, *, #170, .F. ) ;
#72 = EDGE_CURVE ( 'NONE', #229, #35, #181, .T. ) ;
#73 = CYLINDRICAL_SURFACE ( 'NONE', #356, 10.00000000000000000 ) ;
#74 = ORIENTED_EDGE ( 'NONE', *, *, #22, .T. ) ;
#75 = LINE ( 'NONE', #259, #288 ) ;
#76 =( GEOMETRIC_REPRESENTATION_CONTEXT ( 3 ) GLOBAL_UNCERTAINTY_ASSIGNED_CONTEXT ( ( #363 ) ) GLOBAL_UNIT_ASSIGNED_CONTEXT ( ( #109, #240, #143 ) ) REPRESENTATION_CONTEXT ( 'NONE', 'WORKASPACE' ) );
#77 = VERTEX_POINT ( 'NONE', #212 ) ;
#78 = DATE_AND_TIME ( #255, #230 ) ;
#79 = VERTEX_POINT ( 'NONE', #152 ) ;
#80 = APPLICATION_CONTEXT ( 'configuration controlled 3d designs of mechanical parts and assemblies' ) ;
#81 = CARTESIAN_POINT ( 'NONE',  ( 10.00000000000000000, 1.224646799147353256E-15, 7.000000000000000000 ) ) ;
#82 = CC_DESIGN_SECURITY_CLASSIFICATION ( #178, ( #61 ) ) ;
#83 = CARTESIAN_POINT ( 'NONE',  ( 10.00000000000000000, 1.224646799147353256E-15, 0.000000000000000000 ) ) ;
#84 = ORIENTED_EDGE ( 'NONE', *, *, #309, .T. ) ;
#85 = APPROVAL_STATUS ( 'not_yet_approved' ) ;
#86 = CARTESIAN_POINT ( 'NONE',  ( 0.000000000000000000, 0.000000000000000000, 0.000000000000000000 ) ) ;
#87 = PERSON_AND_ORGANIZATION_ROLE ( 'design_supplier' ) ;
#88 = FACE_OUTER_BOUND ( 'NONE', #194, .T. ) ;
#89 = LOCAL_TIME ( 11, 2, 6.000000000000000000, #211 ) ;
#90 = DIRECTION ( 'NONE',  ( 0.000000000000000000, 0.000000000000000000, 1.000000000000000000 ) ) ;
#91 = EDGE_CURVE ( 'NONE', #77, #79, #282, .T. ) ;
#92 = CALENDAR_DATE ( 2022, 10, 7 ) ;
#93 = DIRECTION ( 'NONE',  ( -0.000000000000000000, -0.000000000000000000, -1.000000000000000000 ) ) ;
#94 = MANIFOLD_SOLID_BREP ( 'Odebrat vysunutím3', #41 ) ;
#95 = LINE ( 'NONE', #222, #32 ) ;
#96 = VERTEX_POINT ( 'NONE', #55 ) ;
#97 = DIRECTION ( 'NONE',  ( 1.000000000000000000, 0.000000000000000000, 0.000000000000000000 ) ) ;
#98 = ORIENTED_EDGE ( 'NONE', *, *, #204, .F. ) ;
#99 = DIRECTION ( 'NONE',  ( 1.000000000000000000, 0.000000000000000000, 0.000000000000000000 ) ) ;
#100 = EDGE_LOOP ( 'NONE', ( #227, #126, #39, #105 ) ) ;
#101 = DIRECTION ( 'NONE',  ( -1.000000000000000000, 0.000000000000000000, 0.000000000000000000 ) ) ;
#102 = TOROIDAL_SURFACE ( 'NONE', #140, 6.700000000000001066, 0.6999999999999999556 ) ;
#103 = DIRECTION ( 'NONE',  ( -1.000000000000000000, 0.000000000000000000, 0.000000000000000000 ) ) ;
#104 = APPROVAL_PERSON_ORGANIZATION ( #53, #215, #177 ) ;
#105 = ORIENTED_EDGE ( 'NONE', *, *, #357, .T. ) ;
#106 = APPROVAL ( #2, 'NEURÈENÝ' ) ;
#107 = DIRECTION ( 'NONE',  ( -0.000000000000000000, -0.000000000000000000, -1.000000000000000000 ) ) ;
#108 = AXIS2_PLACEMENT_3D ( 'NONE', #113, #329, #31 ) ;
#109 =( LENGTH_UNIT ( ) NAMED_UNIT ( * ) SI_UNIT ( .MILLI., .METRE. ) );
#110 = FACE_OUTER_BOUND ( 'NONE', #262, .T. ) ;
#111 = DATE_AND_TIME ( #92, #343 ) ;
#112 = CARTESIAN_POINT ( 'NONE',  ( -10.00000000000000000, 0.000000000000000000, 0.000000000000000000 ) ) ;
#113 = CARTESIAN_POINT ( 'NONE',  ( 0.000000000000000000, 0.000000000000000000, 7.000000000000000000 ) ) ;
#114 = AXIS2_PLACEMENT_3D ( 'NONE', #86, #93, #58 ) ;
#115 = LINE ( 'NONE', #219, #235 ) ;
#116 = APPROVAL_DATE_TIME ( #267, #106 ) ;
#117 = AXIS2_PLACEMENT_3D ( 'NONE', #189, #302, #99 ) ;
#118 = CALENDAR_DATE ( 2022, 10, 7 ) ;
#119 = CC_DESIGN_PERSON_AND_ORGANIZATION_ASSIGNMENT ( #323, #87, ( #61 ) ) ;
#120 = DIRECTION ( 'NONE',  ( 1.000000000000000000, 0.000000000000000000, 0.000000000000000000 ) ) ;
#121 = DIRECTION ( 'NONE',  ( -0.000000000000000000, -0.000000000000000000, -1.000000000000000000 ) ) ;
#122 = ORIENTED_EDGE ( 'NONE', *, *, #353, .T. ) ;
#123 = CC_DESIGN_PERSON_AND_ORGANIZATION_ASSIGNMENT ( #381, #290, ( #25 ) ) ;
#124 = CIRCLE ( 'NONE', #366, 4.099999999999999645 ) ;
#125 = CARTESIAN_POINT ( 'NONE',  ( 0.000000000000000000, 0.000000000000000000, 7.700000000000012612 ) ) ;
#126 = ORIENTED_EDGE ( 'NONE', *, *, #66, .F. ) ;
#127 = DIRECTION ( 'NONE',  ( 0.000000000000000000, 0.000000000000000000, 1.000000000000000000 ) ) ;
#128 = VERTEX_POINT ( 'NONE', #264 ) ;
#129 = ORIENTED_EDGE ( 'NONE', *, *, #349, .F. ) ;
#130 = AXIS2_PLACEMENT_3D ( 'NONE', #346, #342, #23 ) ;
#131 = EDGE_CURVE ( 'NONE', #128, #301, #155, .T. ) ;
#132 = EDGE_LOOP ( 'NONE', ( #98, #160, #275, #303 ) ) ;
#133 = FACE_OUTER_BOUND ( 'NONE', #100, .T. ) ;
#134 = PRODUCT_DEFINITION_SHAPE ( 'NONE', 'NONE',  #371 ) ;
#135 = CARTESIAN_POINT ( 'NONE',  ( 0.000000000000000000, 0.000000000000000000, 182.0000000000000000 ) ) ;
#136 = CARTESIAN_POINT ( 'NONE',  ( 0.000000000000000000, 0.000000000000000000, 0.000000000000000000 ) ) ;
#137 = CARTESIAN_POINT ( 'NONE',  ( 0.000000000000000000, 0.000000000000000000, 7.000000000000000000 ) ) ;
#138 = CC_DESIGN_DATE_AND_TIME_ASSIGNMENT ( #111, #263, ( #371 ) ) ;
#139 = ADVANCED_FACE ( 'NONE', ( #88 ), #244, .T. ) ;
#140 = AXIS2_PLACEMENT_3D ( 'NONE', #3, #358, #120 ) ;
#141 = EDGE_LOOP ( 'NONE', ( #158, #12 ) ) ;
#142 = ORIENTED_EDGE ( 'NONE', *, *, #327, .F. ) ;
#143 =( NAMED_UNIT ( * ) SI_UNIT ( $, .STERADIAN. ) SOLID_ANGLE_UNIT ( ) );
#144 = VERTEX_POINT ( 'NONE', #209 ) ;
#145 = PERSON_AND_ORGANIZATION ( #254, #242 ) ;
#146 = DIRECTION ( 'NONE',  ( 0.000000000000000000, 0.000000000000000000, 1.000000000000000000 ) ) ;
#147 = PERSON_AND_ORGANIZATION_ROLE ( 'creator' ) ;
#148 = DIRECTION ( 'NONE',  ( -0.000000000000000000, -0.000000000000000000, -1.000000000000000000 ) ) ;
#149 = PERSON_AND_ORGANIZATION_ROLE ( 'classification_officer' ) ;
#150 = DIRECTION ( 'NONE',  ( 0.000000000000000000, 0.000000000000000000, 1.000000000000000000 ) ) ;
#151 = CALENDAR_DATE ( 2022, 10, 7 ) ;
#152 = CARTESIAN_POINT ( 'NONE',  ( 4.099999999999999645, 5.021051876504147385E-16, 182.0000000000000000 ) ) ;
#153 = LOCAL_TIME ( 11, 2, 6.000000000000000000, #51 ) ;
#154 = CARTESIAN_POINT ( 'NONE',  ( 0.000000000000000000, 0.000000000000000000, 7.700000000000012612 ) ) ;
#155 = CIRCLE ( 'NONE', #108, 6.700000000000001066 ) ;
#156 = ORIENTED_EDGE ( 'NONE', *, *, #18, .F. ) ;
#157 = DIRECTION ( 'NONE',  ( 0.000000000000000000, 0.000000000000000000, -1.000000000000000000 ) ) ;
#158 = ORIENTED_EDGE ( 'NONE', *, *, #66, .T. ) ;
#159 = CIRCLE ( 'NONE', #374, 6.700000000000001066 ) ;
#160 = ORIENTED_EDGE ( 'NONE', *, *, #344, .T. ) ;
#161 = EDGE_CURVE ( 'NONE', #77, #229, #29, .T. ) ;
#162 = LINE ( 'NONE', #247, #192 ) ;
#163 = VERTEX_POINT ( 'NONE', #321 ) ;
#164 = CC_DESIGN_PERSON_AND_ORGANIZATION_ASSIGNMENT ( #179, #149, ( #178 ) ) ;
#165 = DIRECTION ( 'NONE',  ( 1.000000000000000000, 0.000000000000000000, 0.000000000000000000 ) ) ;
#166 = ORIENTED_EDGE ( 'NONE', *, *, #22, .F. ) ;
#167 = AXIS2_PLACEMENT_3D ( 'NONE', #218, #208, #320 ) ;
#168 = DIRECTION ( 'NONE',  ( 0.000000000000000000, 0.000000000000000000, 1.000000000000000000 ) ) ;
#169 = CARTESIAN_POINT ( 'NONE',  ( 0.000000000000000000, 0.000000000000000000, 0.000000000000000000 ) ) ;
#170 = EDGE_CURVE ( 'NONE', #24, #163, #115, .T. ) ;
#171 = ORIENTED_EDGE ( 'NONE', *, *, #170, .T. ) ;
#172 = DIRECTION ( 'NONE',  ( 1.000000000000000000, 0.000000000000000000, 0.000000000000000000 ) ) ;
#173 = ADVANCED_FACE ( 'NONE', ( #354 ), #102, .F. ) ;
#174 = DIRECTION ( 'NONE',  ( -0.000000000000000000, -0.000000000000000000, -1.000000000000000000 ) ) ;
#175 = CARTESIAN_POINT ( 'NONE',  ( 0.000000000000000000, 0.000000000000000000, 7.700000000000012612 ) ) ;
#176 = FACE_BOUND ( 'NONE', #258, .T. ) ;
#177 = APPROVAL_ROLE ( '' ) ;
#178 = SECURITY_CLASSIFICATION ( '', '', #325 ) ;
#179 = PERSON_AND_ORGANIZATION ( #254, #242 ) ;
#180 = CC_DESIGN_PERSON_AND_ORGANIZATION_ASSIGNMENT ( #145, #147, ( #371 ) ) ;
#181 = CIRCLE ( 'NONE', #114, 4.099999999999999645 ) ;
#182 = COORDINATED_UNIVERSAL_TIME_OFFSET ( 1, 0, .AHEAD. ) ;
#183 = CARTESIAN_POINT ( 'NONE',  ( -4.099999999999999645, 0.000000000000000000, 182.0000000000000000 ) ) ;
#184 = CIRCLE ( 'NONE', #223, 10.00000000000000000 ) ;
#185 = EDGE_CURVE ( 'NONE', #301, #128, #159, .T. ) ;
#186 = CARTESIAN_POINT ( 'NONE',  ( 0.000000000000000000, 0.000000000000000000, 7.000000000000000000 ) ) ;
#187 = FACE_OUTER_BOUND ( 'NONE', #340, .T. ) ;
#188 = ORIENTED_EDGE ( 'NONE', *, *, #72, .F. ) ;
#189 = CARTESIAN_POINT ( 'NONE',  ( 0.000000000000000000, 0.000000000000000000, 7.000000000000000000 ) ) ;
#190 = ORIENTED_EDGE ( 'NONE', *, *, #161, .F. ) ;
#191 = AXIS2_PLACEMENT_3D ( 'NONE', #186, #232, #228 ) ;
#192 = VECTOR ( 'NONE', #15, 1000.000000000000000 ) ;
#193 = CYLINDRICAL_SURFACE ( 'NONE', #199, 6.000000000000000888 ) ;
#194 = EDGE_LOOP ( 'NONE', ( #233, #70, #64, #40 ) ) ;
#195 = CC_DESIGN_PERSON_AND_ORGANIZATION_ASSIGNMENT ( #1, #57, ( #61 ) ) ;
#196 = CARTESIAN_POINT ( 'NONE',  ( -6.000000000000000888, 0.000000000000000000, 7.700000000000012612 ) ) ;
#197 = ORIENTED_EDGE ( 'NONE', *, *, #204, .T. ) ;
#198 = ORIENTED_EDGE ( 'NONE', *, *, #18, .T. ) ;
#199 = AXIS2_PLACEMENT_3D ( 'NONE', #298, #121, #13 ) ;
#200 = ADVANCED_FACE ( 'NONE', ( #176, #245 ), #296, .T. ) ;
#201 = CARTESIAN_POINT ( 'NONE',  ( 10.00000000000000000, 1.224646799147353256E-15, 7.000000000000000000 ) ) ;
#202 = ORIENTED_EDGE ( 'NONE', *, *, #161, .T. ) ;
#203 = CARTESIAN_POINT ( 'NONE',  ( 0.000000000000000000, 0.000000000000000000, 0.000000000000000000 ) ) ;
#204 = EDGE_CURVE ( 'NONE', #305, #163, #38, .T. ) ;
#205 = AXIS2_PLACEMENT_3D ( 'NONE', #136, #206, #172 ) ;
#206 = DIRECTION ( 'NONE',  ( 0.000000000000000000, 0.000000000000000000, 1.000000000000000000 ) ) ;
#207 = CARTESIAN_POINT ( 'NONE',  ( 0.000000000000000000, 0.000000000000000000, 0.000000000000000000 ) ) ;
#208 = DIRECTION ( 'NONE',  ( 0.000000000000000000, 0.000000000000000000, 1.000000000000000000 ) ) ;
#209 = CARTESIAN_POINT ( 'NONE',  ( -10.00000000000000000, 0.000000000000000000, 7.000000000000000000 ) ) ;
#210 = CIRCLE ( 'NONE', #238, 4.099999999999999645 ) ;
#211 = COORDINATED_UNIVERSAL_TIME_OFFSET ( 1, 0, .AHEAD. ) ;
#212 = CARTESIAN_POINT ( 'NONE',  ( -4.099999999999999645, 0.000000000000000000, 182.0000000000000000 ) ) ;
#213 = APPROVAL_ROLE ( '' ) ;
#214 = AXIS2_PLACEMENT_3D ( 'NONE', #291, #150, #268 ) ;
#215 = APPROVAL ( #85, 'NEURÈENÝ' ) ;
#216 = CIRCLE ( 'NONE', #130, 0.7000000000000000666 ) ;
#217 = ADVANCED_FACE ( 'NONE', ( #304, #364 ), #273, .T. ) ;
#218 = CARTESIAN_POINT ( 'NONE',  ( 0.000000000000000000, 0.000000000000000000, 0.000000000000000000 ) ) ;
#219 = CARTESIAN_POINT ( 'NONE',  ( 6.000000000000000888, 7.347880794884120722E-16, 182.0000000000000000 ) ) ;
#220 = DATE_AND_TIME ( #151, #11 ) ;
#221 = APPROVAL_ROLE ( '' ) ;
#222 = CARTESIAN_POINT ( 'NONE',  ( 4.099999999999999645, 5.021051876504147385E-16, 182.0000000000000000 ) ) ;
#223 = AXIS2_PLACEMENT_3D ( 'NONE', #203, #168, #49 ) ;
#224 = CARTESIAN_POINT ( 'NONE',  ( -4.099999999999999645, 0.000000000000000000, 0.000000000000000000 ) ) ;
#225 = ORIENTED_EDGE ( 'NONE', *, *, #253, .T. ) ;
#226 = DIRECTION ( 'NONE',  ( 1.000000000000000000, 0.000000000000000000, 0.000000000000000000 ) ) ;
#227 = ORIENTED_EDGE ( 'NONE', *, *, #59, .F. ) ;
#228 = DIRECTION ( 'NONE',  ( 1.000000000000000000, 0.000000000000000000, -0.000000000000000000 ) ) ;
#229 = VERTEX_POINT ( 'NONE', #224 ) ;
#230 = LOCAL_TIME ( 11, 2, 6.000000000000000000, #312 ) ;
#231 = CC_DESIGN_APPROVAL ( #215, ( #371 ) ) ;
#232 = DIRECTION ( 'NONE',  ( 0.000000000000000000, 0.000000000000000000, 1.000000000000000000 ) ) ;
#233 = ORIENTED_EDGE ( 'NONE', *, *, #272, .F. ) ;
#234 = LINE ( 'NONE', #201, #352 ) ;
#235 = VECTOR ( 'NONE', #148, 1000.000000000000000 ) ;
#236 = FACE_OUTER_BOUND ( 'NONE', #47, .T. ) ;
#237 = DIRECTION ( 'NONE',  ( 1.000000000000000000, 0.000000000000000000, 0.000000000000000000 ) ) ;
#238 = AXIS2_PLACEMENT_3D ( 'NONE', #207, #318, #50 ) ;
#239 = ORIENTED_EDGE ( 'NONE', *, *, #353, .F. ) ;
#240 =( NAMED_UNIT ( * ) PLANE_ANGLE_UNIT ( ) SI_UNIT ( $, .RADIAN. ) );
#241 = PLANE ( 'NONE',  #248 ) ;
#242 = ORGANIZATION ( 'NEURÈENÝ', 'NEURÈENÝ', '' ) ;
#243 = CIRCLE ( 'NONE', #68, 6.000000000000000888 ) ;
#244 = CYLINDRICAL_SURFACE ( 'NONE', #14, 10.00000000000000000 ) ;
#245 = FACE_OUTER_BOUND ( 'NONE', #42, .T. ) ;
#246 = CIRCLE ( 'NONE', #286, 10.00000000000000000 ) ;
#247 = CARTESIAN_POINT ( 'NONE',  ( -10.00000000000000000, 0.000000000000000000, 7.000000000000000000 ) ) ;
#248 = AXIS2_PLACEMENT_3D ( 'NONE', #169, #26, #348 ) ;
#249 = ORIENTED_EDGE ( 'NONE', *, *, #265, .T. ) ;
#250 = CARTESIAN_POINT ( 'NONE',  ( 0.000000000000000000, 0.000000000000000000, 182.0000000000000000 ) ) ;
#251 = APPROVAL_PERSON_ORGANIZATION ( #326, #106, #213 ) ;
#252 = CARTESIAN_POINT ( 'NONE',  ( -6.700000000000001066, 8.205133554287267548E-16, 7.000000000000006217 ) ) ;
#253 = EDGE_CURVE ( 'NONE', #96, #24, #243, .T. ) ;
#254 = PERSON ( 'NEURÈENÝ', 'NEURÈENÝ', 'NEURÈENÝ', ('NEURÈENÝ'), ('NEURÈENÝ'), ('NEURÈENÝ') ) ;
#255 = CALENDAR_DATE ( 2022, 10, 7 ) ;
#256 = CYLINDRICAL_SURFACE ( 'NONE', #350, 4.099999999999999645 ) ;
#257 = DIRECTION ( 'NONE',  ( 0.000000000000000000, 0.000000000000000000, 1.000000000000000000 ) ) ;
#258 = EDGE_LOOP ( 'NONE', ( #369, #67 ) ) ;
#259 = CARTESIAN_POINT ( 'NONE',  ( -6.000000000000000888, 0.000000000000000000, 182.0000000000000000 ) ) ;
#260 = AXIS2_PLACEMENT_3D ( 'NONE', #175, #283, #287 ) ;
#261 = EDGE_LOOP ( 'NONE', ( #362, #337, #198, #190 ) ) ;
#262 = EDGE_LOOP ( 'NONE', ( #21, #129 ) ) ;
#263 = DATE_TIME_ROLE ( 'creation_date' ) ;
#264 = CARTESIAN_POINT ( 'NONE',  ( 6.700000000000001066, 0.000000000000000000, 7.000000000000006217 ) ) ;
#265 = EDGE_CURVE ( 'NONE', #163, #128, #284, .T. ) ;
#266 = EDGE_CURVE ( 'NONE', #79, #77, #124, .T. ) ;
#267 = DATE_AND_TIME ( #118, #89 ) ;
#268 = DIRECTION ( 'NONE',  ( 1.000000000000000000, 0.000000000000000000, -0.000000000000000000 ) ) ;
#269 = AXIS2_PLACEMENT_3D ( 'NONE', #270, #9, #62 ) ;
#270 = CARTESIAN_POINT ( 'NONE',  ( 6.700000000000001066, 0.000000000000000000, 7.700000000000012612 ) ) ;
#271 = AXIS2_PLACEMENT_3D ( 'NONE', #250, #300, #276 ) ;
#272 = EDGE_CURVE ( 'NONE', #345, #144, #4, .T. ) ;
#273 = PLANE ( 'NONE',  #191 ) ;
#274 = AXIS2_PLACEMENT_3D ( 'NONE', #292, #146, #60 ) ;
#275 = ORIENTED_EDGE ( 'NONE', *, *, #131, .F. ) ;
#276 = DIRECTION ( 'NONE',  ( 1.000000000000000000, 0.000000000000000000, 0.000000000000000000 ) ) ;
#277 = ORIENTED_EDGE ( 'NONE', *, *, #344, .F. ) ;
#278 = CC_DESIGN_APPROVAL ( #322, ( #178 ) ) ;
#279 = CYLINDRICAL_SURFACE ( 'NONE', #317, 6.000000000000000888 ) ;
#280 = PRODUCT_RELATED_PRODUCT_CATEGORY ( 'detail', '', ( #25 ) ) ;
#281 = FACE_OUTER_BOUND ( 'NONE', #37, .T. ) ;
#282 = CIRCLE ( 'NONE', #274, 4.099999999999999645 ) ;
#283 = DIRECTION ( 'NONE',  ( 0.000000000000000000, 0.000000000000000000, 1.000000000000000000 ) ) ;
#284 = CIRCLE ( 'NONE', #269, 0.7000000000000000666 ) ;
#285 = CARTESIAN_POINT ( 'NONE',  ( 0.000000000000000000, 0.000000000000000000, 182.0000000000000000 ) ) ;
#286 = AXIS2_PLACEMENT_3D ( 'NONE', #137, #257, #237 ) ;
#287 = DIRECTION ( 'NONE',  ( 1.000000000000000000, 0.000000000000000000, 0.000000000000000000 ) ) ;
#288 = VECTOR ( 'NONE', #107, 1000.000000000000000 ) ;
#289 = DIRECTION ( 'NONE',  ( -1.000000000000000000, 0.000000000000000000, 0.000000000000000000 ) ) ;
#290 = PERSON_AND_ORGANIZATION_ROLE ( 'design_owner' ) ;
#291 = CARTESIAN_POINT ( 'NONE',  ( 0.000000000000000000, 0.000000000000000000, 182.0000000000000000 ) ) ;
#292 = CARTESIAN_POINT ( 'NONE',  ( 0.000000000000000000, 0.000000000000000000, 182.0000000000000000 ) ) ;
#293 = ADVANCED_FACE ( 'NONE', ( #187 ), #193, .T. ) ;
#294 = PERSON_AND_ORGANIZATION ( #254, #242 ) ;
#295 = CIRCLE ( 'NONE', #205, 10.00000000000000000 ) ;
#296 = PLANE ( 'NONE',  #214 ) ;
#297 = CC_DESIGN_DATE_AND_TIME_ASSIGNMENT ( #220, #328, ( #178 ) ) ;
#298 = CARTESIAN_POINT ( 'NONE',  ( 0.000000000000000000, 0.000000000000000000, 182.0000000000000000 ) ) ;
#299 = CIRCLE ( 'NONE', #260, 6.000000000000000888 ) ;
#300 = DIRECTION ( 'NONE',  ( 0.000000000000000000, 0.000000000000000000, 1.000000000000000000 ) ) ;
#301 = VERTEX_POINT ( 'NONE', #252 ) ;
#302 = DIRECTION ( 'NONE',  ( 0.000000000000000000, 0.000000000000000000, 1.000000000000000000 ) ) ;
#303 = ORIENTED_EDGE ( 'NONE', *, *, #265, .F. ) ;
#304 = FACE_BOUND ( 'NONE', #347, .T. ) ;
#305 = VERTEX_POINT ( 'NONE', #196 ) ;
#306 = EDGE_CURVE ( 'NONE', #144, #46, #162, .T. ) ;
#307 = DIRECTION ( 'NONE',  ( 0.000000000000000000, 0.000000000000000000, 1.000000000000000000 ) ) ;
#308 = ORIENTED_EDGE ( 'NONE', *, *, #131, .T. ) ;
#309 = EDGE_CURVE ( 'NONE', #24, #96, #339, .T. ) ;
#310 = CARTESIAN_POINT ( 'NONE',  ( 0.000000000000000000, 0.000000000000000000, 182.0000000000000000 ) ) ;
#311 = CARTESIAN_POINT ( 'NONE',  ( 6.000000000000000888, 7.347880794884120722E-16, 182.0000000000000000 ) ) ;
#312 = COORDINATED_UNIVERSAL_TIME_OFFSET ( 1, 0, .AHEAD. ) ;
#313 = DIRECTION ( 'NONE',  ( -1.000000000000000000, 0.000000000000000000, 0.000000000000000000 ) ) ;
#314 = DIRECTION ( 'NONE',  ( -0.000000000000000000, -0.000000000000000000, -1.000000000000000000 ) ) ;
#315 = ORIENTED_EDGE ( 'NONE', *, *, #253, .F. ) ;
#316 = ORIENTED_EDGE ( 'NONE', *, *, #309, .F. ) ;
#317 = AXIS2_PLACEMENT_3D ( 'NONE', #285, #373, #103 ) ;
#318 = DIRECTION ( 'NONE',  ( -0.000000000000000000, -0.000000000000000000, -1.000000000000000000 ) ) ;
#319 = ADVANCED_FACE ( 'NONE', ( #36 ), #380, .F. ) ;
#320 = DIRECTION ( 'NONE',  ( 1.000000000000000000, 0.000000000000000000, 0.000000000000000000 ) ) ;
#321 = CARTESIAN_POINT ( 'NONE',  ( 6.000000000000000888, 7.347880794884120722E-16, 7.700000000000012612 ) ) ;
#322 = APPROVAL ( #33, 'NEURÈENÝ' ) ;
#323 = PERSON_AND_ORGANIZATION ( #254, #242 ) ;
#324 = DIRECTION ( 'NONE',  ( -0.000000000000000000, -0.000000000000000000, -1.000000000000000000 ) ) ;
#325 = SECURITY_CLASSIFICATION_LEVEL ( 'unclassified' ) ;
#326 = PERSON_AND_ORGANIZATION ( #254, #242 ) ;
#327 = EDGE_CURVE ( 'NONE', #79, #35, #95, .T. ) ;
#328 = DATE_TIME_ROLE ( 'classification_date' ) ;
#329 = DIRECTION ( 'NONE',  ( -0.000000000000000000, -0.000000000000000000, -1.000000000000000000 ) ) ;
#330 = AXIS2_PLACEMENT_3D ( 'NONE', #125, #307, #165 ) ;
#331 = FACE_OUTER_BOUND ( 'NONE', #261, .T. ) ;
#332 = DESIGN_CONTEXT ( 'detailed design', #80, 'design' ) ;
#333 = ADVANCED_FACE ( 'NONE', ( #331 ), #256, .F. ) ;
#334 = DIRECTION ( 'NONE',  ( 0.000000000000000000, 0.000000000000000000, 1.000000000000000000 ) ) ;
#335 = ORIENTED_EDGE ( 'NONE', *, *, #266, .T. ) ;
#336 = VECTOR ( 'NONE', #360, 1000.000000000000000 ) ;
#337 = ORIENTED_EDGE ( 'NONE', *, *, #327, .T. ) ;
#338 = DIRECTION ( 'NONE',  ( 1.000000000000000000, 0.000000000000000000, 0.000000000000000000 ) ) ;
#339 = CIRCLE ( 'NONE', #271, 6.000000000000000888 ) ;
#340 = EDGE_LOOP ( 'NONE', ( #316, #171, #74, #239 ) ) ;
#341 = EDGE_LOOP ( 'NONE', ( #188, #156 ) ) ;
#342 = DIRECTION ( 'NONE',  ( 1.224646799147353207E-16, 1.000000000000000000, -0.000000000000000000 ) ) ;
#343 = LOCAL_TIME ( 11, 2, 6.000000000000000000, #28 ) ;
#344 = EDGE_CURVE ( 'NONE', #305, #301, #216, .T. ) ;
#345 = VERTEX_POINT ( 'NONE', #81 ) ;
#346 = CARTESIAN_POINT ( 'NONE',  ( -6.700000000000001066, 8.205133554287267548E-16, 7.700000000000012612 ) ) ;
#347 = EDGE_LOOP ( 'NONE', ( #308, #365 ) ) ;
#348 = DIRECTION ( 'NONE',  ( 1.000000000000000000, 0.000000000000000000, -0.000000000000000000 ) ) ;
#349 = EDGE_CURVE ( 'NONE', #17, #46, #295, .T. ) ;
#350 = AXIS2_PLACEMENT_3D ( 'NONE', #310, #45, #20 ) ;
#351 = MECHANICAL_CONTEXT ( 'NONE', #361, 'mechanical' ) ;
#352 = VECTOR ( 'NONE', #314, 1000.000000000000000 ) ;
#353 = EDGE_CURVE ( 'NONE', #96, #305, #75, .T. ) ;
#354 = FACE_OUTER_BOUND ( 'NONE', #367, .T. ) ;
#355 = AXIS2_PLACEMENT_3D ( 'NONE', #154, #90, #338 ) ;
#356 = AXIS2_PLACEMENT_3D ( 'NONE', #375, #174, #313 ) ;
#357 = EDGE_CURVE ( 'NONE', #46, #17, #184, .T. ) ;
#358 = DIRECTION ( 'NONE',  ( 0.000000000000000000, 0.000000000000000000, 1.000000000000000000 ) ) ;
#359 = APPROVAL_DATE_TIME ( #30, #215 ) ;
#360 = DIRECTION ( 'NONE',  ( 0.000000000000000000, 0.000000000000000000, -1.000000000000000000 ) ) ;
#361 = APPLICATION_CONTEXT ( 'configuration controlled 3d designs of mechanical parts and assemblies' ) ;
#362 = ORIENTED_EDGE ( 'NONE', *, *, #91, .T. ) ;
#363 = UNCERTAINTY_MEASURE_WITH_UNIT (LENGTH_MEASURE( 1.000000000000000082E-05 ), #109, 'distance_accuracy_value', 'NONE');
#364 = FACE_OUTER_BOUND ( 'NONE', #141, .T. ) ;
#365 = ORIENTED_EDGE ( 'NONE', *, *, #185, .T. ) ;
#366 = AXIS2_PLACEMENT_3D ( 'NONE', #69, #127, #226 ) ;
#367 = EDGE_LOOP ( 'NONE', ( #277, #166, #249, #10 ) ) ;
#368 = APPLICATION_PROTOCOL_DEFINITION ( 'international standard', 'config_control_design', 1994, #361 ) ;
#369 = ORIENTED_EDGE ( 'NONE', *, *, #91, .F. ) ;
#370 = DIRECTION ( 'NONE',  ( 0.000000000000000000, 0.000000000000000000, -1.000000000000000000 ) ) ;
#371 = PRODUCT_DEFINITION ( 'NEZNÁMÝ', '', #61, #332 ) ;
#372 = ADVANCED_BREP_SHAPE_REPRESENTATION ( 'aefb', ( #94, #167 ), #76 ) ;
#373 = DIRECTION ( 'NONE',  ( -0.000000000000000000, -0.000000000000000000, -1.000000000000000000 ) ) ;
#374 = AXIS2_PLACEMENT_3D ( 'NONE', #56, #6, #52 ) ;
#375 = CARTESIAN_POINT ( 'NONE',  ( 0.000000000000000000, 0.000000000000000000, 7.000000000000000000 ) ) ;
#376 = ADVANCED_FACE ( 'NONE', ( #236 ), #279, .T. ) ;
#377 = FACE_BOUND ( 'NONE', #341, .T. ) ;
#378 = ADVANCED_FACE ( 'NONE', ( #133 ), #73, .T. ) ;
#379 = CARTESIAN_POINT ( 'NONE',  ( 4.099999999999999645, 5.021051876504147385E-16, 0.000000000000000000 ) ) ;
#380 = TOROIDAL_SURFACE ( 'NONE', #330, 6.700000000000001066, 0.6999999999999999556 ) ;
#381 = PERSON_AND_ORGANIZATION ( #254, #242 ) ;
ENDSEC;
END-ISO-10303-21;
