ISO-10303-21;
HEADER;
FILE_DESCRIPTION (( 'STEP AP203' ),
    '1' );
FILE_NAME ('970a.STEP',
    '2022-07-10T09:15:44',
    ( '' ),
    ( '' ),
    'SwSTEP 2.0',
    'SolidWorks 2019',
    '' );
FILE_SCHEMA (( 'CONFIG_CONTROL_DESIGN' ));
ENDSEC;

DATA;
#1 = CIRCLE ( 'NONE', #206, 3.300000000000000266 ) ;
#2 = APPROVAL_ROLE ( '' ) ;
#3 = ORIENTED_EDGE ( 'NONE', *, *, #151, .F. ) ;
#4 = DATE_AND_TIME ( #194, #239 ) ;
#5 = CARTESIAN_POINT ( 'NONE',  ( 0.000000000000000000, 0.000000000000000000, 5.000000000000000000 ) ) ;
#6 = AXIS2_PLACEMENT_3D ( 'NONE', #32, #141, #87 ) ;
#7 = EDGE_CURVE ( 'NONE', #83, #175, #187, .T. ) ;
#8 = LINE ( 'NONE', #246, #128 ) ;
#9 = PLANE ( 'NONE',  #126 ) ;
#10 = AXIS2_PLACEMENT_3D ( 'NONE', #225, #335, #197 ) ;
#11 = CYLINDRICAL_SURFACE ( 'NONE', #176, 6.000000000000000888 ) ;
#12 = DIRECTION ( 'NONE',  ( 1.000000000000000000, 0.000000000000000000, -0.000000000000000000 ) ) ;
#13 = PERSON_AND_ORGANIZATION ( #376, #279 ) ;
#14 = LINE ( 'NONE', #91, #286 ) ;
#15 = AXIS2_PLACEMENT_3D ( 'NONE', #145, #109, #236 ) ;
#16 = ADVANCED_FACE ( 'NONE', ( #276, #242 ), #9, .T. ) ;
#17 = CIRCLE ( 'NONE', #320, 1.750000000000000000 ) ;
#18 = DIRECTION ( 'NONE',  ( 1.000000000000000000, 0.000000000000000000, 0.000000000000000000 ) ) ;
#19 = DIRECTION ( 'NONE',  ( 0.000000000000000000, 0.000000000000000000, -1.000000000000000000 ) ) ;
#20 = DESIGN_CONTEXT ( 'detailed design', #173, 'design' ) ;
#21 = DIRECTION ( 'NONE',  ( 1.000000000000000000, 0.000000000000000000, 0.000000000000000000 ) ) ;
#22 = DIRECTION ( 'NONE',  ( 0.000000000000000000, 0.000000000000000000, -1.000000000000000000 ) ) ;
#23 = CC_DESIGN_APPROVAL ( #196, ( #161 ) ) ;
#24 = ORIENTED_EDGE ( 'NONE', *, *, #122, .F. ) ;
#25 = CARTESIAN_POINT ( 'NONE',  ( 0.000000000000000000, 0.000000000000000000, 5.000000000000000000 ) ) ;
#26 = CARTESIAN_POINT ( 'NONE',  ( -3.000000000000000444, 0.000000000000000000, 80.00000000000000000 ) ) ;
#27 = EDGE_LOOP ( 'NONE', ( #139, #237, #268, #50 ) ) ;
#28 = AXIS2_PLACEMENT_3D ( 'NONE', #346, #203, #53 ) ;
#29 = ORIENTED_EDGE ( 'NONE', *, *, #71, .T. ) ;
#30 = APPLICATION_CONTEXT ( 'configuration controlled 3d designs of mechanical parts and assemblies' ) ;
#31 = DIRECTION ( 'NONE',  ( 1.000000000000000000, 0.000000000000000000, 0.000000000000000000 ) ) ;
#32 = CARTESIAN_POINT ( 'NONE',  ( 0.000000000000000000, 0.000000000000000000, 80.00000000000000000 ) ) ;
#33 = ADVANCED_FACE ( 'NONE', ( #88 ), #52, .F. ) ;
#34 = ORIENTED_EDGE ( 'NONE', *, *, #289, .F. ) ;
#35 = AXIS2_PLACEMENT_3D ( 'NONE', #66, #192, #307 ) ;
#36 = DIRECTION ( 'NONE',  ( 0.000000000000000000, 0.000000000000000000, 1.000000000000000000 ) ) ;
#37 = CC_DESIGN_PERSON_AND_ORGANIZATION_ASSIGNMENT ( #13, #72, ( #161 ) ) ;
#38 = DATE_AND_TIME ( #68, #157 ) ;
#39 = PERSON_AND_ORGANIZATION ( #376, #279 ) ;
#40 = DATE_TIME_ROLE ( 'classification_date' ) ;
#41 = EDGE_CURVE ( 'NONE', #259, #92, #123, .T. ) ;
#42 = CARTESIAN_POINT ( 'NONE',  ( 0.000000000000000000, 0.000000000000000000, 80.00000000000000000 ) ) ;
#43 = CARTESIAN_POINT ( 'NONE',  ( 6.000000000000000888, 7.347880794884120722E-16, 5.000000000000000000 ) ) ;
#44 = CARTESIAN_POINT ( 'NONE',  ( 0.000000000000000000, 0.000000000000000000, 80.00000000000000000 ) ) ;
#45 = APPROVAL ( #362, 'NEURÈENÝ' ) ;
#46 = CARTESIAN_POINT ( 'NONE',  ( 3.300000000000000266, 0.000000000000000000, 5.299999999999998934 ) ) ;
#47 = VECTOR ( 'NONE', #257, 1000.000000000000000 ) ;
#48 = DIRECTION ( 'NONE',  ( 0.000000000000000000, 0.000000000000000000, 1.000000000000000000 ) ) ;
#49 = AXIS2_PLACEMENT_3D ( 'NONE', #226, #337, #199 ) ;
#50 = ORIENTED_EDGE ( 'NONE', *, *, #71, .F. ) ;
#51 = VERTEX_POINT ( 'NONE', #179 ) ;
#52 = TOROIDAL_SURFACE ( 'NONE', #211, 3.300000000000000266, 0.2999999999999999889 ) ;
#53 = DIRECTION ( 'NONE',  ( 1.000000000000000000, 0.000000000000000000, 0.000000000000000000 ) ) ;
#54 = VERTEX_POINT ( 'NONE', #152 ) ;
#55 = SECURITY_CLASSIFICATION ( '', '', #191 ) ;
#56 = ADVANCED_FACE ( 'NONE', ( #324 ), #61, .T. ) ;
#57 = DIRECTION ( 'NONE',  ( 0.000000000000000000, 0.000000000000000000, 1.000000000000000000 ) ) ;
#58 = DIRECTION ( 'NONE',  ( 1.000000000000000000, 0.000000000000000000, 0.000000000000000000 ) ) ;
#59 = CARTESIAN_POINT ( 'NONE',  ( 3.000000000000000444, 3.673940397442060361E-16, 80.00000000000000000 ) ) ;
#60 = EDGE_CURVE ( 'NONE', #51, #296, #252, .T. ) ;
#61 = CYLINDRICAL_SURFACE ( 'NONE', #220, 3.000000000000000444 ) ;
#62 = CALENDAR_DATE ( 2022, 10, 7 ) ;
#63 = DIRECTION ( 'NONE',  ( -0.000000000000000000, -0.000000000000000000, -1.000000000000000000 ) ) ;
#64 = EDGE_LOOP ( 'NONE', ( #3, #280 ) ) ;
#65 = APPROVAL_DATE_TIME ( #330, #196 ) ;
#66 = CARTESIAN_POINT ( 'NONE',  ( -3.300000000000000266, 4.041334437186266003E-16, 5.299999999999998934 ) ) ;
#67 = DIRECTION ( 'NONE',  ( -0.000000000000000000, -0.000000000000000000, -1.000000000000000000 ) ) ;
#68 = CALENDAR_DATE ( 2022, 10, 7 ) ;
#69 = FACE_BOUND ( 'NONE', #64, .T. ) ;
#70 = FACE_OUTER_BOUND ( 'NONE', #294, .T. ) ;
#71 = EDGE_CURVE ( 'NONE', #375, #95, #274, .T. ) ;
#72 = PERSON_AND_ORGANIZATION_ROLE ( 'creator' ) ;
#73 = APPROVAL_PERSON_ORGANIZATION ( #159, #45, #283 ) ;
#74 = FACE_OUTER_BOUND ( 'NONE', #213, .T. ) ;
#75 = CALENDAR_DATE ( 2022, 10, 7 ) ;
#76 = CYLINDRICAL_SURFACE ( 'NONE', #82, 6.000000000000000888 ) ;
#77 = CC_DESIGN_PERSON_AND_ORGANIZATION_ASSIGNMENT ( #147, #381, ( #166 ) ) ;
#78 = DIRECTION ( 'NONE',  ( -0.000000000000000000, -0.000000000000000000, -1.000000000000000000 ) ) ;
#79 = COORDINATED_UNIVERSAL_TIME_OFFSET ( 1, 0, .AHEAD. ) ;
#80 = ADVANCED_FACE ( 'NONE', ( #70 ), #298, .F. ) ;
#81 = ORIENTED_EDGE ( 'NONE', *, *, #7, .F. ) ;
#82 = AXIS2_PLACEMENT_3D ( 'NONE', #255, #78, #367 ) ;
#83 = VERTEX_POINT ( 'NONE', #204 ) ;
#84 = CARTESIAN_POINT ( 'NONE',  ( -3.300000000000000266, 4.041334437186266003E-16, 4.999999999999999112 ) ) ;
#85 = VERTEX_POINT ( 'NONE', #118 ) ;
#86 = AXIS2_PLACEMENT_3D ( 'NONE', #373, #48, #21 ) ;
#87 = DIRECTION ( 'NONE',  ( -1.000000000000000000, 0.000000000000000000, 0.000000000000000000 ) ) ;
#88 = FACE_OUTER_BOUND ( 'NONE', #27, .T. ) ;
#89 = CC_DESIGN_PERSON_AND_ORGANIZATION_ASSIGNMENT ( #39, #127, ( #55 ) ) ;
#90 = DIRECTION ( 'NONE',  ( 0.000000000000000000, 0.000000000000000000, 1.000000000000000000 ) ) ;
#91 = CARTESIAN_POINT ( 'NONE',  ( -6.000000000000000888, 0.000000000000000000, 5.000000000000000000 ) ) ;
#92 = VERTEX_POINT ( 'NONE', #182 ) ;
#93 = DIRECTION ( 'NONE',  ( 1.000000000000000000, 0.000000000000000000, -0.000000000000000000 ) ) ;
#94 = ADVANCED_BREP_SHAPE_REPRESENTATION ( '970a', ( #195, #325 ), #314 ) ;
#95 = VERTEX_POINT ( 'NONE', #322 ) ;
#96 = FACE_OUTER_BOUND ( 'NONE', #119, .T. ) ;
#97 = EDGE_CURVE ( 'NONE', #175, #296, #368, .T. ) ;
#98 = ORIENTED_EDGE ( 'NONE', *, *, #214, .T. ) ;
#99 = APPROVAL_ROLE ( '' ) ;
#100 = PRODUCT_DEFINITION_FORMATION_WITH_SPECIFIED_SOURCE ( 'LIBOVOLNÝ', '', #166, .NOT_KNOWN. ) ;
#101 = DIRECTION ( 'NONE',  ( -0.000000000000000000, -0.000000000000000000, -1.000000000000000000 ) ) ;
#102 = ADVANCED_FACE ( 'NONE', ( #148 ), #212, .T. ) ;
#103 = CARTESIAN_POINT ( 'NONE',  ( 0.000000000000000000, 0.000000000000000000, 0.000000000000000000 ) ) ;
#104 = AXIS2_PLACEMENT_3D ( 'NONE', #42, #331, #125 ) ;
#105 = DIRECTION ( 'NONE',  ( 0.000000000000000000, 0.000000000000000000, 1.000000000000000000 ) ) ;
#106 = ORIENTED_EDGE ( 'NONE', *, *, #292, .T. ) ;
#107 = DIRECTION ( 'NONE',  ( 1.000000000000000000, 0.000000000000000000, 0.000000000000000000 ) ) ;
#108 = ORIENTED_EDGE ( 'NONE', *, *, #281, .T. ) ;
#109 = DIRECTION ( 'NONE',  ( 0.000000000000000000, 0.000000000000000000, 1.000000000000000000 ) ) ;
#110 = ORIENTED_EDGE ( 'NONE', *, *, #340, .F. ) ;
#111 = CC_DESIGN_DATE_AND_TIME_ASSIGNMENT ( #4, #40, ( #55 ) ) ;
#112 = ORIENTED_EDGE ( 'NONE', *, *, #171, .F. ) ;
#113 = CLOSED_SHELL ( 'NONE', ( #80, #323, #56, #254, #357, #208, #258, #102, #16, #33, #243 ) ) ;
#114 = CARTESIAN_POINT ( 'NONE',  ( 0.000000000000000000, 0.000000000000000000, 5.000000000000000000 ) ) ;
#115 = AXIS2_PLACEMENT_3D ( 'NONE', #229, #135, #202 ) ;
#116 = EDGE_LOOP ( 'NONE', ( #106, #377 ) ) ;
#117 = COORDINATED_UNIVERSAL_TIME_OFFSET ( 1, 0, .AHEAD. ) ;
#118 = CARTESIAN_POINT ( 'NONE',  ( 1.750000000000000000, 2.143131898507868297E-16, 0.000000000000000000 ) ) ;
#119 = EDGE_LOOP ( 'NONE', ( #216, #240 ) ) ;
#120 = ORIENTED_EDGE ( 'NONE', *, *, #270, .F. ) ;
#121 = LOCAL_TIME ( 11, 15, 44.00000000000000000, #117 ) ;
#122 = EDGE_CURVE ( 'NONE', #296, #175, #342, .T. ) ;
#123 = LINE ( 'NONE', #321, #380 ) ;
#124 = DATE_AND_TIME ( #184, #269 ) ;
#125 = DIRECTION ( 'NONE',  ( -1.000000000000000000, 0.000000000000000000, 0.000000000000000000 ) ) ;
#126 = AXIS2_PLACEMENT_3D ( 'NONE', #190, #306, #12 ) ;
#127 = PERSON_AND_ORGANIZATION_ROLE ( 'classification_officer' ) ;
#128 = VECTOR ( 'NONE', #22, 1000.000000000000000 ) ;
#129 = CARTESIAN_POINT ( 'NONE',  ( 1.750000000000000000, 2.143131898507868297E-16, 80.00000000000000000 ) ) ;
#130 = DIRECTION ( 'NONE',  ( -0.000000000000000000, -0.000000000000000000, -1.000000000000000000 ) ) ;
#131 = CIRCLE ( 'NONE', #227, 6.000000000000000888 ) ;
#132 = CARTESIAN_POINT ( 'NONE',  ( -3.000000000000000444, 0.000000000000000000, 5.299999999999998934 ) ) ;
#133 = CC_DESIGN_PERSON_AND_ORGANIZATION_ASSIGNMENT ( #328, #277, ( #100 ) ) ;
#134 = APPROVAL_DATE_TIME ( #228, #45 ) ;
#135 = DIRECTION ( 'NONE',  ( 0.000000000000000000, 0.000000000000000000, 1.000000000000000000 ) ) ;
#136 = CARTESIAN_POINT ( 'NONE',  ( 0.000000000000000000, 0.000000000000000000, 80.00000000000000000 ) ) ;
#137 = EDGE_LOOP ( 'NONE', ( #81, #327, #172, #181 ) ) ;
#138 = EDGE_CURVE ( 'NONE', #83, #51, #230, .T. ) ;
#139 = ORIENTED_EDGE ( 'NONE', *, *, #214, .F. ) ;
#140 = TOROIDAL_SURFACE ( 'NONE', #115, 3.300000000000000266, 0.2999999999999999889 ) ;
#141 = DIRECTION ( 'NONE',  ( 0.000000000000000000, 0.000000000000000000, -1.000000000000000000 ) ) ;
#142 = CC_DESIGN_APPROVAL ( #45, ( #55 ) ) ;
#143 = ORIENTED_EDGE ( 'NONE', *, *, #329, .T. ) ;
#144 = APPLICATION_PROTOCOL_DEFINITION ( 'international standard', 'config_control_design', 1994, #30 ) ;
#145 = CARTESIAN_POINT ( 'NONE',  ( 0.000000000000000000, 0.000000000000000000, 5.299999999999998934 ) ) ;
#146 = ORIENTED_EDGE ( 'NONE', *, *, #7, .T. ) ;
#147 = PERSON_AND_ORGANIZATION ( #376, #279 ) ;
#148 = FACE_OUTER_BOUND ( 'NONE', #137, .T. ) ;
#149 = ORIENTED_EDGE ( 'NONE', *, *, #231, .T. ) ;
#150 = PERSON_AND_ORGANIZATION ( #376, #279 ) ;
#151 = EDGE_CURVE ( 'NONE', #301, #85, #247, .T. ) ;
#152 = CARTESIAN_POINT ( 'NONE',  ( 1.750000000000000000, 2.143131898507868297E-16, 80.00000000000000000 ) ) ;
#153 = CARTESIAN_POINT ( 'NONE',  ( 0.000000000000000000, 0.000000000000000000, 80.00000000000000000 ) ) ;
#154 = FACE_OUTER_BOUND ( 'NONE', #265, .T. ) ;
#155 = AXIS2_PLACEMENT_3D ( 'NONE', #365, #312, #221 ) ;
#156 = DIRECTION ( 'NONE',  ( 1.000000000000000000, 0.000000000000000000, 0.000000000000000000 ) ) ;
#157 = LOCAL_TIME ( 11, 15, 44.00000000000000000, #353 ) ;
#158 = ORIENTED_EDGE ( 'NONE', *, *, #285, .F. ) ;
#159 = PERSON_AND_ORGANIZATION ( #376, #279 ) ;
#160 = DIRECTION ( 'NONE',  ( -1.000000000000000000, 0.000000000000000000, 0.000000000000000000 ) ) ;
#161 = PRODUCT_DEFINITION ( 'NEZNÁMÝ', '', #100, #20 ) ;
#162 = AXIS2_PLACEMENT_3D ( 'NONE', #5, #364, #93 ) ;
#163 = CARTESIAN_POINT ( 'NONE',  ( 0.000000000000000000, 0.000000000000000000, 0.000000000000000000 ) ) ;
#164 = DIRECTION ( 'NONE',  ( 1.000000000000000000, 0.000000000000000000, 0.000000000000000000 ) ) ;
#165 = VECTOR ( 'NONE', #67, 1000.000000000000000 ) ;
#166 = PRODUCT ( '970a', '970a', '', ( #349 ) ) ;
#167 = DIRECTION ( 'NONE',  ( -0.000000000000000000, -0.000000000000000000, -1.000000000000000000 ) ) ;
#168 = AXIS2_PLACEMENT_3D ( 'NONE', #163, #130, #371 ) ;
#169 = ORIENTED_EDGE ( 'NONE', *, *, #151, .T. ) ;
#170 =( LENGTH_UNIT ( ) NAMED_UNIT ( * ) SI_UNIT ( .MILLI., .METRE. ) );
#171 = EDGE_CURVE ( 'NONE', #205, #259, #131, .T. ) ;
#172 = ORIENTED_EDGE ( 'NONE', *, *, #60, .T. ) ;
#173 = APPLICATION_CONTEXT ( 'configuration controlled 3d designs of mechanical parts and assemblies' ) ;
#174 = PRODUCT_DEFINITION_SHAPE ( 'NONE', 'NONE',  #161 ) ;
#175 = VERTEX_POINT ( 'NONE', #354 ) ;
#176 = AXIS2_PLACEMENT_3D ( 'NONE', #219, #215, #160 ) ;
#177 = DIRECTION ( 'NONE',  ( 1.000000000000000000, 0.000000000000000000, 0.000000000000000000 ) ) ;
#178 = ORIENTED_EDGE ( 'NONE', *, *, #138, .F. ) ;
#179 = CARTESIAN_POINT ( 'NONE',  ( -3.000000000000000444, 0.000000000000000000, 80.00000000000000000 ) ) ;
#180 = AXIS2_PLACEMENT_3D ( 'NONE', #153, #348, #273 ) ;
#181 = ORIENTED_EDGE ( 'NONE', *, *, #122, .T. ) ;
#182 = CARTESIAN_POINT ( 'NONE',  ( 6.000000000000000888, 7.347880794884120722E-16, 0.000000000000000000 ) ) ;
#183 = CIRCLE ( 'NONE', #168, 1.750000000000000000 ) ;
#184 = CALENDAR_DATE ( 2022, 10, 7 ) ;
#185 = DIRECTION ( 'NONE',  ( 1.000000000000000000, 0.000000000000000000, 0.000000000000000000 ) ) ;
#186 = APPROVAL ( #302, 'NEURÈENÝ' ) ;
#187 = LINE ( 'NONE', #59, #165 ) ;
#188 = DATE_TIME_ROLE ( 'creation_date' ) ;
#189 = CARTESIAN_POINT ( 'NONE',  ( 0.000000000000000000, 0.000000000000000000, 80.00000000000000000 ) ) ;
#190 = CARTESIAN_POINT ( 'NONE',  ( 0.000000000000000000, 0.000000000000000000, 80.00000000000000000 ) ) ;
#191 = SECURITY_CLASSIFICATION_LEVEL ( 'unclassified' ) ;
#192 = DIRECTION ( 'NONE',  ( 1.224646799147353207E-16, 1.000000000000000000, -0.000000000000000000 ) ) ;
#193 = CC_DESIGN_SECURITY_CLASSIFICATION ( #55, ( #100 ) ) ;
#194 = CALENDAR_DATE ( 2022, 10, 7 ) ;
#195 = MANIFOLD_SOLID_BREP ( 'Odebrat vysunutím3', #113 ) ;
#196 = APPROVAL ( #209, 'NEURÈENÝ' ) ;
#197 = DIRECTION ( 'NONE',  ( 1.000000000000000000, 0.000000000000000000, -0.000000000000000000 ) ) ;
#198 = CIRCLE ( 'NONE', #86, 3.000000000000000444 ) ;
#199 = DIRECTION ( 'NONE',  ( 1.000000000000000000, 0.000000000000000000, 0.000000000000000000 ) ) ;
#200 = EDGE_LOOP ( 'NONE', ( #378, #112, #149, #347 ) ) ;
#201 = CC_DESIGN_APPROVAL ( #186, ( #100 ) ) ;
#202 = DIRECTION ( 'NONE',  ( 1.000000000000000000, 0.000000000000000000, 0.000000000000000000 ) ) ;
#203 = DIRECTION ( 'NONE',  ( 0.000000000000000000, 0.000000000000000000, 1.000000000000000000 ) ) ;
#204 = CARTESIAN_POINT ( 'NONE',  ( 3.000000000000000444, 3.673940397442060361E-16, 80.00000000000000000 ) ) ;
#205 = VERTEX_POINT ( 'NONE', #222 ) ;
#206 = AXIS2_PLACEMENT_3D ( 'NONE', #244, #63, #185 ) ;
#207 = DIRECTION ( 'NONE',  ( 0.000000000000000000, 0.000000000000000000, 1.000000000000000000 ) ) ;
#208 = ADVANCED_FACE ( 'NONE', ( #275, #96 ), #282, .T. ) ;
#209 = APPROVAL_STATUS ( 'not_yet_approved' ) ;
#210 = ORIENTED_EDGE ( 'NONE', *, *, #345, .F. ) ;
#211 = AXIS2_PLACEMENT_3D ( 'NONE', #352, #36, #304 ) ;
#212 = CYLINDRICAL_SURFACE ( 'NONE', #180, 3.000000000000000444 ) ;
#213 = EDGE_LOOP ( 'NONE', ( #110, #234, #358, #261 ) ) ;
#214 = EDGE_CURVE ( 'NONE', #296, #375, #356, .T. ) ;
#215 = DIRECTION ( 'NONE',  ( -0.000000000000000000, -0.000000000000000000, -1.000000000000000000 ) ) ;
#216 = ORIENTED_EDGE ( 'NONE', *, *, #171, .T. ) ;
#217 = PERSON_AND_ORGANIZATION_ROLE ( 'creator' ) ;
#218 = ORIENTED_EDGE ( 'NONE', *, *, #297, .T. ) ;
#219 = CARTESIAN_POINT ( 'NONE',  ( 0.000000000000000000, 0.000000000000000000, 5.000000000000000000 ) ) ;
#220 = AXIS2_PLACEMENT_3D ( 'NONE', #136, #167, #334 ) ;
#221 = DIRECTION ( 'NONE',  ( 1.000000000000000000, 0.000000000000000000, 0.000000000000000000 ) ) ;
#222 = CARTESIAN_POINT ( 'NONE',  ( -6.000000000000000888, 0.000000000000000000, 5.000000000000000000 ) ) ;
#223 = EDGE_CURVE ( 'NONE', #290, #54, #284, .T. ) ;
#224 = APPROVAL_DATE_TIME ( #38, #186 ) ;
#225 = CARTESIAN_POINT ( 'NONE',  ( 0.000000000000000000, 0.000000000000000000, 0.000000000000000000 ) ) ;
#226 = CARTESIAN_POINT ( 'NONE',  ( 0.000000000000000000, 0.000000000000000000, 0.000000000000000000 ) ) ;
#227 = AXIS2_PLACEMENT_3D ( 'NONE', #114, #207, #58 ) ;
#228 = DATE_AND_TIME ( #75, #350 ) ;
#229 = CARTESIAN_POINT ( 'NONE',  ( 0.000000000000000000, 0.000000000000000000, 5.299999999999998934 ) ) ;
#230 = CIRCLE ( 'NONE', #28, 3.000000000000000444 ) ;
#231 = EDGE_CURVE ( 'NONE', #205, #249, #14, .T. ) ;
#232 = ORIENTED_EDGE ( 'NONE', *, *, #97, .T. ) ;
#233 = DIRECTION ( 'NONE',  ( 0.000000000000000000, 0.000000000000000000, 1.000000000000000000 ) ) ;
#234 = ORIENTED_EDGE ( 'NONE', *, *, #41, .T. ) ;
#235 = VECTOR ( 'NONE', #19, 1000.000000000000000 ) ;
#236 = DIRECTION ( 'NONE',  ( 1.000000000000000000, 0.000000000000000000, 0.000000000000000000 ) ) ;
#237 = ORIENTED_EDGE ( 'NONE', *, *, #97, .F. ) ;
#238 = ORIENTED_EDGE ( 'NONE', *, *, #345, .T. ) ;
#239 = LOCAL_TIME ( 11, 15, 44.00000000000000000, #250 ) ;
#240 = ORIENTED_EDGE ( 'NONE', *, *, #340, .T. ) ;
#241 = CARTESIAN_POINT ( 'NONE',  ( 0.000000000000000000, 0.000000000000000000, 5.299999999999998934 ) ) ;
#242 = FACE_OUTER_BOUND ( 'NONE', #116, .T. ) ;
#243 = ADVANCED_FACE ( 'NONE', ( #303 ), #333, .F. ) ;
#244 = CARTESIAN_POINT ( 'NONE',  ( 0.000000000000000000, 0.000000000000000000, 5.000000000000000000 ) ) ;
#245 = PERSON_AND_ORGANIZATION ( #376, #279 ) ;
#246 = CARTESIAN_POINT ( 'NONE',  ( -1.750000000000000000, 0.000000000000000000, 80.00000000000000000 ) ) ;
#247 = CIRCLE ( 'NONE', #300, 1.750000000000000000 ) ;
#248 = ORIENTED_EDGE ( 'NONE', *, *, #281, .F. ) ;
#249 = VERTEX_POINT ( 'NONE', #278 ) ;
#250 = COORDINATED_UNIVERSAL_TIME_OFFSET ( 1, 0, .AHEAD. ) ;
#251 = CIRCLE ( 'NONE', #343, 6.000000000000000888 ) ;
#252 = LINE ( 'NONE', #26, #47 ) ;
#253 = FACE_OUTER_BOUND ( 'NONE', #271, .T. ) ;
#254 = ADVANCED_FACE ( 'NONE', ( #74 ), #11, .T. ) ;
#255 = CARTESIAN_POINT ( 'NONE',  ( 0.000000000000000000, 0.000000000000000000, 5.000000000000000000 ) ) ;
#256 = CARTESIAN_POINT ( 'NONE',  ( -1.750000000000000000, 0.000000000000000000, 80.00000000000000000 ) ) ;
#257 = DIRECTION ( 'NONE',  ( -0.000000000000000000, -0.000000000000000000, -1.000000000000000000 ) ) ;
#258 = ADVANCED_FACE ( 'NONE', ( #69, #154 ), #326, .F. ) ;
#259 = VERTEX_POINT ( 'NONE', #43 ) ;
#260 =( NAMED_UNIT ( * ) SI_UNIT ( $, .STERADIAN. ) SOLID_ANGLE_UNIT ( ) );
#261 = ORIENTED_EDGE ( 'NONE', *, *, #231, .F. ) ;
#262 = CIRCLE ( 'NONE', #287, 0.2999999999999999334 ) ;
#263 =( NAMED_UNIT ( * ) PLANE_ANGLE_UNIT ( ) SI_UNIT ( $, .RADIAN. ) );
#264 = DIRECTION ( 'NONE',  ( -0.000000000000000000, -0.000000000000000000, -1.000000000000000000 ) ) ;
#265 = EDGE_LOOP ( 'NONE', ( #34, #316 ) ) ;
#266 = CARTESIAN_POINT ( 'NONE',  ( 0.000000000000000000, 0.000000000000000000, 0.000000000000000000 ) ) ;
#267 = ORIENTED_EDGE ( 'NONE', *, *, #60, .F. ) ;
#268 = ORIENTED_EDGE ( 'NONE', *, *, #285, .T. ) ;
#269 = LOCAL_TIME ( 11, 15, 44.00000000000000000, #272 ) ;
#270 = EDGE_CURVE ( 'NONE', #95, #375, #1, .T. ) ;
#271 = EDGE_LOOP ( 'NONE', ( #24, #98, #120, #158 ) ) ;
#272 = COORDINATED_UNIVERSAL_TIME_OFFSET ( 1, 0, .AHEAD. ) ;
#273 = DIRECTION ( 'NONE',  ( -1.000000000000000000, 0.000000000000000000, 0.000000000000000000 ) ) ;
#274 = CIRCLE ( 'NONE', #155, 3.300000000000000266 ) ;
#275 = FACE_BOUND ( 'NONE', #318, .T. ) ;
#276 = FACE_BOUND ( 'NONE', #360, .T. ) ;
#277 = PERSON_AND_ORGANIZATION_ROLE ( 'design_supplier' ) ;
#278 = CARTESIAN_POINT ( 'NONE',  ( -6.000000000000000888, 0.000000000000000000, 0.000000000000000000 ) ) ;
#279 = ORGANIZATION ( 'NEURÈENÝ', 'NEURÈENÝ', '' ) ;
#280 = ORIENTED_EDGE ( 'NONE', *, *, #297, .F. ) ;
#281 = EDGE_CURVE ( 'NONE', #290, #301, #8, .T. ) ;
#282 = PLANE ( 'NONE',  #162 ) ;
#283 = APPROVAL_ROLE ( '' ) ;
#284 = CIRCLE ( 'NONE', #370, 1.750000000000000000 ) ;
#285 = EDGE_CURVE ( 'NONE', #175, #95, #262, .T. ) ;
#286 = VECTOR ( 'NONE', #101, 1000.000000000000000 ) ;
#287 = AXIS2_PLACEMENT_3D ( 'NONE', #46, #336, #311 ) ;
#288 = CARTESIAN_POINT ( 'NONE',  ( -1.750000000000000000, 0.000000000000000000, 0.000000000000000000 ) ) ;
#289 = EDGE_CURVE ( 'NONE', #249, #92, #251, .T. ) ;
#290 = VERTEX_POINT ( 'NONE', #256 ) ;
#291 = ORIENTED_EDGE ( 'NONE', *, *, #223, .F. ) ;
#292 = EDGE_CURVE ( 'NONE', #51, #83, #198, .T. ) ;
#293 = APPROVAL_PERSON_ORGANIZATION ( #150, #196, #2 ) ;
#294 = EDGE_LOOP ( 'NONE', ( #372, #143, #218, #248 ) ) ;
#295 = CARTESIAN_POINT ( 'NONE',  ( 0.000000000000000000, 0.000000000000000000, 0.000000000000000000 ) ) ;
#296 = VERTEX_POINT ( 'NONE', #132 ) ;
#297 = EDGE_CURVE ( 'NONE', #85, #301, #183, .T. ) ;
#298 = CYLINDRICAL_SURFACE ( 'NONE', #6, 1.750000000000000000 ) ;
#299 = DIRECTION ( 'NONE',  ( -0.000000000000000000, -0.000000000000000000, -1.000000000000000000 ) ) ;
#300 = AXIS2_PLACEMENT_3D ( 'NONE', #266, #264, #379 ) ;
#301 = VERTEX_POINT ( 'NONE', #288 ) ;
#302 = APPROVAL_STATUS ( 'not_yet_approved' ) ;
#303 = FACE_OUTER_BOUND ( 'NONE', #315, .T. ) ;
#304 = DIRECTION ( 'NONE',  ( 1.000000000000000000, 0.000000000000000000, 0.000000000000000000 ) ) ;
#305 = DIRECTION ( 'NONE',  ( 0.000000000000000000, 0.000000000000000000, 1.000000000000000000 ) ) ;
#306 = DIRECTION ( 'NONE',  ( 0.000000000000000000, 0.000000000000000000, 1.000000000000000000 ) ) ;
#307 = DIRECTION ( 'NONE',  ( -1.000000000000000000, 1.224646799147353207E-16, 0.000000000000000000 ) ) ;
#308 = CIRCLE ( 'NONE', #332, 6.000000000000000888 ) ;
#309 = PRODUCT_RELATED_PRODUCT_CATEGORY ( 'detail', '', ( #166 ) ) ;
#310 = SHAPE_DEFINITION_REPRESENTATION ( #174, #94 ) ;
#311 = DIRECTION ( 'NONE',  ( 0.000000000000000000, 0.000000000000000000, -1.000000000000000000 ) ) ;
#312 = DIRECTION ( 'NONE',  ( -0.000000000000000000, -0.000000000000000000, -1.000000000000000000 ) ) ;
#313 = DIRECTION ( 'NONE',  ( 0.000000000000000000, 0.000000000000000000, 1.000000000000000000 ) ) ;
#314 =( GEOMETRIC_REPRESENTATION_CONTEXT ( 3 ) GLOBAL_UNCERTAINTY_ASSIGNED_CONTEXT ( ( #338 ) ) GLOBAL_UNIT_ASSIGNED_CONTEXT ( ( #170, #263, #260 ) ) REPRESENTATION_CONTEXT ( 'NONE', 'WORKASPACE' ) );
#315 = EDGE_LOOP ( 'NONE', ( #355, #238, #108, #169 ) ) ;
#316 = ORIENTED_EDGE ( 'NONE', *, *, #369, .F. ) ;
#317 = CC_DESIGN_DATE_AND_TIME_ASSIGNMENT ( #124, #188, ( #161 ) ) ;
#318 = EDGE_LOOP ( 'NONE', ( #319, #29 ) ) ;
#319 = ORIENTED_EDGE ( 'NONE', *, *, #270, .T. ) ;
#320 = AXIS2_PLACEMENT_3D ( 'NONE', #44, #233, #18 ) ;
#321 = CARTESIAN_POINT ( 'NONE',  ( 6.000000000000000888, 7.347880794884120722E-16, 5.000000000000000000 ) ) ;
#322 = CARTESIAN_POINT ( 'NONE',  ( 3.300000000000000266, 0.000000000000000000, 4.999999999999999112 ) ) ;
#323 = ADVANCED_FACE ( 'NONE', ( #253 ), #140, .F. ) ;
#324 = FACE_OUTER_BOUND ( 'NONE', #344, .T. ) ;
#325 = AXIS2_PLACEMENT_3D ( 'NONE', #295, #57, #31 ) ;
#326 = PLANE ( 'NONE',  #10 ) ;
#327 = ORIENTED_EDGE ( 'NONE', *, *, #292, .F. ) ;
#328 = PERSON_AND_ORGANIZATION ( #376, #279 ) ;
#329 = EDGE_CURVE ( 'NONE', #54, #85, #341, .T. ) ;
#330 = DATE_AND_TIME ( #62, #121 ) ;
#331 = DIRECTION ( 'NONE',  ( 0.000000000000000000, 0.000000000000000000, -1.000000000000000000 ) ) ;
#332 = AXIS2_PLACEMENT_3D ( 'NONE', #25, #105, #107 ) ;
#333 = CYLINDRICAL_SURFACE ( 'NONE', #104, 1.750000000000000000 ) ;
#334 = DIRECTION ( 'NONE',  ( -1.000000000000000000, 0.000000000000000000, 0.000000000000000000 ) ) ;
#335 = DIRECTION ( 'NONE',  ( 0.000000000000000000, 0.000000000000000000, 1.000000000000000000 ) ) ;
#336 = DIRECTION ( 'NONE',  ( 0.000000000000000000, -1.000000000000000000, 0.000000000000000000 ) ) ;
#337 = DIRECTION ( 'NONE',  ( 0.000000000000000000, 0.000000000000000000, 1.000000000000000000 ) ) ;
#338 = UNCERTAINTY_MEASURE_WITH_UNIT (LENGTH_MEASURE( 1.000000000000000082E-05 ), #170, 'distance_accuracy_value', 'NONE');
#339 = CIRCLE ( 'NONE', #49, 6.000000000000000888 ) ;
#340 = EDGE_CURVE ( 'NONE', #259, #205, #308, .T. ) ;
#341 = LINE ( 'NONE', #129, #235 ) ;
#342 = CIRCLE ( 'NONE', #15, 3.000000000000000444 ) ;
#343 = AXIS2_PLACEMENT_3D ( 'NONE', #103, #313, #164 ) ;
#344 = EDGE_LOOP ( 'NONE', ( #178, #146, #232, #267 ) ) ;
#345 = EDGE_CURVE ( 'NONE', #54, #290, #17, .T. ) ;
#346 = CARTESIAN_POINT ( 'NONE',  ( 0.000000000000000000, 0.000000000000000000, 80.00000000000000000 ) ) ;
#347 = ORIENTED_EDGE ( 'NONE', *, *, #289, .T. ) ;
#348 = DIRECTION ( 'NONE',  ( -0.000000000000000000, -0.000000000000000000, -1.000000000000000000 ) ) ;
#349 = MECHANICAL_CONTEXT ( 'NONE', #30, 'mechanical' ) ;
#350 = LOCAL_TIME ( 11, 15, 44.00000000000000000, #79 ) ;
#351 = APPLICATION_PROTOCOL_DEFINITION ( 'international standard', 'config_control_design', 1994, #173 ) ;
#352 = CARTESIAN_POINT ( 'NONE',  ( 0.000000000000000000, 0.000000000000000000, 5.299999999999998934 ) ) ;
#353 = COORDINATED_UNIVERSAL_TIME_OFFSET ( 1, 0, .AHEAD. ) ;
#354 = CARTESIAN_POINT ( 'NONE',  ( 3.000000000000000444, 3.673940397442060361E-16, 5.299999999999998934 ) ) ;
#355 = ORIENTED_EDGE ( 'NONE', *, *, #329, .F. ) ;
#356 = CIRCLE ( 'NONE', #35, 0.2999999999999999334 ) ;
#357 = ADVANCED_FACE ( 'NONE', ( #366 ), #76, .T. ) ;
#358 = ORIENTED_EDGE ( 'NONE', *, *, #369, .T. ) ;
#359 = PERSON_AND_ORGANIZATION ( #376, #279 ) ;
#360 = EDGE_LOOP ( 'NONE', ( #291, #210 ) ) ;
#361 = AXIS2_PLACEMENT_3D ( 'NONE', #241, #90, #177 ) ;
#362 = APPROVAL_STATUS ( 'not_yet_approved' ) ;
#363 = APPROVAL_PERSON_ORGANIZATION ( #359, #186, #99 ) ;
#364 = DIRECTION ( 'NONE',  ( 0.000000000000000000, 0.000000000000000000, 1.000000000000000000 ) ) ;
#365 = CARTESIAN_POINT ( 'NONE',  ( 0.000000000000000000, 0.000000000000000000, 5.000000000000000000 ) ) ;
#366 = FACE_OUTER_BOUND ( 'NONE', #200, .T. ) ;
#367 = DIRECTION ( 'NONE',  ( -1.000000000000000000, 0.000000000000000000, 0.000000000000000000 ) ) ;
#368 = CIRCLE ( 'NONE', #361, 3.000000000000000444 ) ;
#369 = EDGE_CURVE ( 'NONE', #92, #249, #339, .T. ) ;
#370 = AXIS2_PLACEMENT_3D ( 'NONE', #189, #305, #156 ) ;
#371 = DIRECTION ( 'NONE',  ( 1.000000000000000000, 0.000000000000000000, 0.000000000000000000 ) ) ;
#372 = ORIENTED_EDGE ( 'NONE', *, *, #223, .T. ) ;
#373 = CARTESIAN_POINT ( 'NONE',  ( 0.000000000000000000, 0.000000000000000000, 80.00000000000000000 ) ) ;
#374 = CC_DESIGN_PERSON_AND_ORGANIZATION_ASSIGNMENT ( #245, #217, ( #100 ) ) ;
#375 = VERTEX_POINT ( 'NONE', #84 ) ;
#376 = PERSON ( 'NEURÈENÝ', 'NEURÈENÝ', 'NEURÈENÝ', ('NEURÈENÝ'), ('NEURÈENÝ'), ('NEURÈENÝ') ) ;
#377 = ORIENTED_EDGE ( 'NONE', *, *, #138, .T. ) ;
#378 = ORIENTED_EDGE ( 'NONE', *, *, #41, .F. ) ;
#379 = DIRECTION ( 'NONE',  ( 1.000000000000000000, 0.000000000000000000, 0.000000000000000000 ) ) ;
#380 = VECTOR ( 'NONE', #299, 1000.000000000000000 ) ;
#381 = PERSON_AND_ORGANIZATION_ROLE ( 'design_owner' ) ;
ENDSEC;
END-ISO-10303-21;
