ISO-10303-21;
HEADER;
FILE_DESCRIPTION (( 'STEP AP203' ),
    '1' );
FILE_NAME ('d354.STEP',
    '2022-07-10T09:14:33',
    ( '' ),
    ( '' ),
    'SwSTEP 2.0',
    'SolidWorks 2019',
    '' );
FILE_SCHEMA (( 'CONFIG_CONTROL_DESIGN' ));
ENDSEC;

DATA;
#1 = CARTESIAN_POINT ( 'NONE',  ( -6.000000000000000888, 0.000000000000000000, 0.000000000000000000 ) ) ;
#2 = AXIS2_PLACEMENT_3D ( 'NONE', #335, #209, #358 ) ;
#3 = APPROVAL_DATE_TIME ( #334, #112 ) ;
#4 = ORIENTED_EDGE ( 'NONE', *, *, #174, .F. ) ;
#5 = CALENDAR_DATE ( 2022, 10, 7 ) ;
#6 = FACE_BOUND ( 'NONE', #48, .T. ) ;
#7 = DATE_TIME_ROLE ( 'classification_date' ) ;
#8 = DIRECTION ( 'NONE',  ( 1.000000000000000000, 0.000000000000000000, 0.000000000000000000 ) ) ;
#9 = CIRCLE ( 'NONE', #146, 2.000000000000000000 ) ;
#10 = FACE_OUTER_BOUND ( 'NONE', #87, .T. ) ;
#11 = ADVANCED_FACE ( 'NONE', ( #6, #10 ), #325, .T. ) ;
#12 = DIRECTION ( 'NONE',  ( 1.000000000000000000, 0.000000000000000000, 0.000000000000000000 ) ) ;
#13 = AXIS2_PLACEMENT_3D ( 'NONE', #136, #368, #192 ) ;
#14 = DIRECTION ( 'NONE',  ( -1.000000000000000000, 0.000000000000000000, 0.000000000000000000 ) ) ;
#15 = DIRECTION ( 'NONE',  ( -1.000000000000000000, 0.000000000000000000, 0.000000000000000000 ) ) ;
#16 = AXIS2_PLACEMENT_3D ( 'NONE', #333, #90, #207 ) ;
#17 = EDGE_CURVE ( 'NONE', #45, #22, #275, .T. ) ;
#18 = ORIENTED_EDGE ( 'NONE', *, *, #284, .F. ) ;
#19 = DIRECTION ( 'NONE',  ( 1.000000000000000000, 0.000000000000000000, 0.000000000000000000 ) ) ;
#20 = ORIENTED_EDGE ( 'NONE', *, *, #240, .T. ) ;
#21 = CARTESIAN_POINT ( 'NONE',  ( -2.000000000000000000, 0.000000000000000000, 105.0000000000000142 ) ) ;
#22 = VERTEX_POINT ( 'NONE', #212 ) ;
#23 = EDGE_CURVE ( 'NONE', #249, #276, #216, .T. ) ;
#24 = CARTESIAN_POINT ( 'NONE',  ( 0.000000000000000000, 0.000000000000000000, 0.000000000000000000 ) ) ;
#25 = DIRECTION ( 'NONE',  ( 1.224646799147353207E-16, 1.000000000000000000, -0.000000000000000000 ) ) ;
#26 = EDGE_CURVE ( 'NONE', #22, #106, #369, .T. ) ;
#27 = ORIENTED_EDGE ( 'NONE', *, *, #23, .F. ) ;
#28 = PERSON_AND_ORGANIZATION_ROLE ( 'creator' ) ;
#29 = DIRECTION ( 'NONE',  ( 0.000000000000000000, 0.000000000000000000, 1.000000000000000000 ) ) ;
#30 = AXIS2_PLACEMENT_3D ( 'NONE', #64, #232, #157 ) ;
#31 = PRODUCT_RELATED_PRODUCT_CATEGORY ( 'detail', '', ( #35 ) ) ;
#32 = ORIENTED_EDGE ( 'NONE', *, *, #344, .T. ) ;
#33 = LINE ( 'NONE', #130, #133 ) ;
#34 = AXIS2_PLACEMENT_3D ( 'NONE', #311, #159, #40 ) ;
#35 = PRODUCT ( 'd354', 'd354', '', ( #349 ) ) ;
#36 = DATE_AND_TIME ( #5, #248 ) ;
#37 = DIRECTION ( 'NONE',  ( 1.000000000000000000, 0.000000000000000000, 0.000000000000000000 ) ) ;
#38 = EDGE_CURVE ( 'NONE', #245, #45, #33, .T. ) ;
#39 = CARTESIAN_POINT ( 'NONE',  ( 0.000000000000000000, 0.000000000000000000, 5.000000000000000000 ) ) ;
#40 = DIRECTION ( 'NONE',  ( -1.000000000000000000, 0.000000000000000000, 0.000000000000000000 ) ) ;
#41 = VECTOR ( 'NONE', #371, 1000.000000000000000 ) ;
#42 = DIRECTION ( 'NONE',  ( 1.000000000000000000, 0.000000000000000000, -0.000000000000000000 ) ) ;
#43 = EDGE_LOOP ( 'NONE', ( #202, #224 ) ) ;
#44 = FACE_OUTER_BOUND ( 'NONE', #135, .T. ) ;
#45 = VERTEX_POINT ( 'NONE', #363 ) ;
#46 = DIRECTION ( 'NONE',  ( -1.000000000000000000, 0.000000000000000000, 0.000000000000000000 ) ) ;
#47 = AXIS2_PLACEMENT_3D ( 'NONE', #100, #277, #12 ) ;
#48 = EDGE_LOOP ( 'NONE', ( #98, #347 ) ) ;
#49 = APPROVAL_ROLE ( '' ) ;
#50 = ORIENTED_EDGE ( 'NONE', *, *, #344, .F. ) ;
#51 = CC_DESIGN_PERSON_AND_ORGANIZATION_ASSIGNMENT ( #324, #28, ( #228 ) ) ;
#52 = EDGE_LOOP ( 'NONE', ( #355, #312, #163, #310 ) ) ;
#53 = AXIS2_PLACEMENT_3D ( 'NONE', #340, #139, #247 ) ;
#54 = CC_DESIGN_APPROVAL ( #242, ( #97 ) ) ;
#55 = DIRECTION ( 'NONE',  ( 1.000000000000000000, 0.000000000000000000, 0.000000000000000000 ) ) ;
#56 = CYLINDRICAL_SURFACE ( 'NONE', #257, 6.000000000000000888 ) ;
#57 = CARTESIAN_POINT ( 'NONE',  ( 0.000000000000000000, 0.000000000000000000, 0.000000000000000000 ) ) ;
#58 = APPLICATION_CONTEXT ( 'configuration controlled 3d designs of mechanical parts and assemblies' ) ;
#59 = CALENDAR_DATE ( 2022, 10, 7 ) ;
#60 = DIRECTION ( 'NONE',  ( -0.000000000000000000, -0.000000000000000000, -1.000000000000000000 ) ) ;
#61 = EDGE_CURVE ( 'NONE', #75, #142, #145, .T. ) ;
#62 = DIRECTION ( 'NONE',  ( -0.000000000000000000, -0.000000000000000000, -1.000000000000000000 ) ) ;
#63 = CIRCLE ( 'NONE', #114, 2.000000000000000000 ) ;
#64 = CARTESIAN_POINT ( 'NONE',  ( 0.000000000000000000, 0.000000000000000000, 0.000000000000000000 ) ) ;
#65 = ORIENTED_EDGE ( 'NONE', *, *, #190, .T. ) ;
#66 = CARTESIAN_POINT ( 'NONE',  ( 0.000000000000000000, 0.000000000000000000, 5.000000000000000000 ) ) ;
#67 = VERTEX_POINT ( 'NONE', #151 ) ;
#68 = DIRECTION ( 'NONE',  ( 1.000000000000000000, 0.000000000000000000, 0.000000000000000000 ) ) ;
#69 = FACE_BOUND ( 'NONE', #198, .T. ) ;
#70 = CIRCLE ( 'NONE', #95, 3.000000000000000444 ) ;
#71 = ORIENTED_EDGE ( 'NONE', *, *, #121, .F. ) ;
#72 = CARTESIAN_POINT ( 'NONE',  ( 2.000000000000000000, 2.449293598294706414E-16, 105.0000000000000142 ) ) ;
#73 = LINE ( 'NONE', #160, #147 ) ;
#74 = CIRCLE ( 'NONE', #129, 3.000000000000000444 ) ;
#75 = VERTEX_POINT ( 'NONE', #298 ) ;
#76 = APPROVAL_STATUS ( 'not_yet_approved' ) ;
#77 = ADVANCED_FACE ( 'NONE', ( #188, #361 ), #210, .F. ) ;
#78 = CIRCLE ( 'NONE', #307, 6.000000000000000888 ) ;
#79 = EDGE_LOOP ( 'NONE', ( #50, #104 ) ) ;
#80 =( NAMED_UNIT ( * ) PLANE_ANGLE_UNIT ( ) SI_UNIT ( $, .RADIAN. ) );
#81 = APPLICATION_CONTEXT ( 'configuration controlled 3d designs of mechanical parts and assemblies' ) ;
#82 = ORIENTED_EDGE ( 'NONE', *, *, #185, .T. ) ;
#83 = LINE ( 'NONE', #203, #125 ) ;
#84 = CARTESIAN_POINT ( 'NONE',  ( 0.000000000000000000, 0.000000000000000000, 5.000000000000000000 ) ) ;
#85 = CC_DESIGN_APPROVAL ( #112, ( #228 ) ) ;
#86 = DIRECTION ( 'NONE',  ( 1.000000000000000000, 0.000000000000000000, 0.000000000000000000 ) ) ;
#87 = EDGE_LOOP ( 'NONE', ( #65, #20 ) ) ;
#88 = DIRECTION ( 'NONE',  ( 1.000000000000000000, 0.000000000000000000, 0.000000000000000000 ) ) ;
#89 = COORDINATED_UNIVERSAL_TIME_OFFSET ( 1, 0, .AHEAD. ) ;
#90 = DIRECTION ( 'NONE',  ( 0.000000000000000000, 0.000000000000000000, 1.000000000000000000 ) ) ;
#91 = PERSON_AND_ORGANIZATION_ROLE ( 'design_supplier' ) ;
#92 = EDGE_LOOP ( 'NONE', ( #71, #265, #251, #370 ) ) ;
#93 = EDGE_CURVE ( 'NONE', #276, #249, #63, .T. ) ;
#94 = DIRECTION ( 'NONE',  ( 0.000000000000000000, 0.000000000000000000, 1.000000000000000000 ) ) ;
#95 = AXIS2_PLACEMENT_3D ( 'NONE', #305, #365, #342 ) ;
#96 = FACE_OUTER_BOUND ( 'NONE', #43, .T. ) ;
#97 = SECURITY_CLASSIFICATION ( '', '', #356 ) ;
#98 = ORIENTED_EDGE ( 'NONE', *, *, #26, .T. ) ;
#99 = DIRECTION ( 'NONE',  ( 0.000000000000000000, 0.000000000000000000, 1.000000000000000000 ) ) ;
#100 = CARTESIAN_POINT ( 'NONE',  ( 0.000000000000000000, 0.000000000000000000, 105.0000000000000142 ) ) ;
#101 = APPROVAL ( #76, 'NEURÈENÝ' ) ;
#102 = ORIENTED_EDGE ( 'NONE', *, *, #121, .T. ) ;
#103 = FACE_OUTER_BOUND ( 'NONE', #297, .T. ) ;
#104 = ORIENTED_EDGE ( 'NONE', *, *, #148, .F. ) ;
#105 = CARTESIAN_POINT ( 'NONE',  ( 0.000000000000000000, 0.000000000000000000, 105.0000000000000142 ) ) ;
#106 = VERTEX_POINT ( 'NONE', #299 ) ;
#107 = ADVANCED_FACE ( 'NONE', ( #128 ), #332, .F. ) ;
#108 = ORIENTED_EDGE ( 'NONE', *, *, #354, .F. ) ;
#109 = CALENDAR_DATE ( 2022, 10, 7 ) ;
#110 = CC_DESIGN_APPROVAL ( #101, ( #296 ) ) ;
#111 = PERSON_AND_ORGANIZATION ( #279, #348 ) ;
#112 = APPROVAL ( #113, 'NEURÈENÝ' ) ;
#113 = APPROVAL_STATUS ( 'not_yet_approved' ) ;
#114 = AXIS2_PLACEMENT_3D ( 'NONE', #268, #208, #8 ) ;
#115 = DIRECTION ( 'NONE',  ( -1.000000000000000000, 0.000000000000000000, 0.000000000000000000 ) ) ;
#116 = CIRCLE ( 'NONE', #295, 6.000000000000000888 ) ;
#117 = APPROVAL_PERSON_ORGANIZATION ( #183, #242, #153 ) ;
#118 = SHAPE_DEFINITION_REPRESENTATION ( #367, #320 ) ;
#119 = EDGE_LOOP ( 'NONE', ( #372, #171 ) ) ;
#120 = PERSON_AND_ORGANIZATION ( #279, #348 ) ;
#121 = EDGE_CURVE ( 'NONE', #67, #45, #74, .T. ) ;
#122 = EDGE_LOOP ( 'NONE', ( #221, #193, #318, #237 ) ) ;
#123 = COORDINATED_UNIVERSAL_TIME_OFFSET ( 1, 0, .AHEAD. ) ;
#124 = EDGE_LOOP ( 'NONE', ( #140, #173, #374, #32 ) ) ;
#125 = VECTOR ( 'NONE', #256, 1000.000000000000000 ) ;
#126 = APPROVAL_DATE_TIME ( #36, #242 ) ;
#127 = CARTESIAN_POINT ( 'NONE',  ( 0.000000000000000000, 0.000000000000000000, 105.0000000000000142 ) ) ;
#128 = FACE_OUTER_BOUND ( 'NONE', #92, .T. ) ;
#129 = AXIS2_PLACEMENT_3D ( 'NONE', #238, #94, #37 ) ;
#130 = CARTESIAN_POINT ( 'NONE',  ( 3.000000000000000444, 3.673940397442060361E-16, 105.0000000000000142 ) ) ;
#131 = DIRECTION ( 'NONE',  ( -0.000000000000000000, -0.000000000000000000, -1.000000000000000000 ) ) ;
#132 = CARTESIAN_POINT ( 'NONE',  ( 0.000000000000000000, 0.000000000000000000, 105.0000000000000142 ) ) ;
#133 = VECTOR ( 'NONE', #241, 1000.000000000000000 ) ;
#134 = CARTESIAN_POINT ( 'NONE',  ( -2.000000000000000000, 0.000000000000000000, 0.000000000000000000 ) ) ;
#135 = EDGE_LOOP ( 'NONE', ( #343, #286, #243, #102 ) ) ;
#136 = CARTESIAN_POINT ( 'NONE',  ( 0.000000000000000000, 0.000000000000000000, 5.500000000000005329 ) ) ;
#137 = CIRCLE ( 'NONE', #280, 6.000000000000000888 ) ;
#138 = VERTEX_POINT ( 'NONE', #158 ) ;
#139 = DIRECTION ( 'NONE',  ( -0.000000000000000000, -0.000000000000000000, -1.000000000000000000 ) ) ;
#140 = ORIENTED_EDGE ( 'NONE', *, *, #351, .F. ) ;
#141 = APPROVAL_DATE_TIME ( #285, #101 ) ;
#142 = VERTEX_POINT ( 'NONE', #1 ) ;
#143 = CIRCLE ( 'NONE', #53, 3.500000000000000444 ) ;
#144 = DIRECTION ( 'NONE',  ( 0.000000000000000000, 0.000000000000000000, 1.000000000000000000 ) ) ;
#145 = CIRCLE ( 'NONE', #30, 6.000000000000000888 ) ;
#146 = AXIS2_PLACEMENT_3D ( 'NONE', #57, #180, #88 ) ;
#147 = VECTOR ( 'NONE', #273, 1000.000000000000000 ) ;
#148 = EDGE_CURVE ( 'NONE', #377, #316, #9, .T. ) ;
#149 = APPROVAL_STATUS ( 'not_yet_approved' ) ;
#150 = CARTESIAN_POINT ( 'NONE',  ( 0.000000000000000000, 0.000000000000000000, 5.000000000000000000 ) ) ;
#151 = CARTESIAN_POINT ( 'NONE',  ( -3.000000000000000444, 0.000000000000000000, 5.500000000000005329 ) ) ;
#152 = AXIS2_PLACEMENT_3D ( 'NONE', #127, #29, #357 ) ;
#153 = APPROVAL_ROLE ( '' ) ;
#154 = CC_DESIGN_PERSON_AND_ORGANIZATION_ASSIGNMENT ( #205, #346, ( #35 ) ) ;
#155 = VERTEX_POINT ( 'NONE', #327 ) ;
#156 =( GEOMETRIC_REPRESENTATION_CONTEXT ( 3 ) GLOBAL_UNCERTAINTY_ASSIGNED_CONTEXT ( ( #161 ) ) GLOBAL_UNIT_ASSIGNED_CONTEXT ( ( #204, #80, #225 ) ) REPRESENTATION_CONTEXT ( 'NONE', 'WORKASPACE' ) );
#157 = DIRECTION ( 'NONE',  ( 1.000000000000000000, 0.000000000000000000, 0.000000000000000000 ) ) ;
#158 = CARTESIAN_POINT ( 'NONE',  ( 6.000000000000000888, 7.347880794884120722E-16, 5.000000000000000000 ) ) ;
#159 = DIRECTION ( 'NONE',  ( 0.000000000000000000, 0.000000000000000000, -1.000000000000000000 ) ) ;
#160 = CARTESIAN_POINT ( 'NONE',  ( -2.000000000000000000, 0.000000000000000000, 105.0000000000000142 ) ) ;
#161 = UNCERTAINTY_MEASURE_WITH_UNIT (LENGTH_MEASURE( 1.000000000000000082E-05 ), #204, 'distance_accuracy_value', 'NONE');
#162 = CYLINDRICAL_SURFACE ( 'NONE', #336, 6.000000000000000888 ) ;
#163 = ORIENTED_EDGE ( 'NONE', *, *, #148, .T. ) ;
#164 = CYLINDRICAL_SURFACE ( 'NONE', #230, 3.000000000000000444 ) ;
#165 = ADVANCED_FACE ( 'NONE', ( #262 ), #233, .T. ) ;
#166 = ORIENTED_EDGE ( 'NONE', *, *, #366, .T. ) ;
#167 = CARTESIAN_POINT ( 'NONE',  ( 0.000000000000000000, 0.000000000000000000, 5.000000000000000000 ) ) ;
#168 = AXIS2_PLACEMENT_3D ( 'NONE', #373, #213, #42 ) ;
#169 = ORIENTED_EDGE ( 'NONE', *, *, #17, .T. ) ;
#170 = COORDINATED_UNIVERSAL_TIME_OFFSET ( 1, 0, .AHEAD. ) ;
#171 = ORIENTED_EDGE ( 'NONE', *, *, #61, .F. ) ;
#172 = CARTESIAN_POINT ( 'NONE',  ( 0.000000000000000000, 0.000000000000000000, 5.500000000000005329 ) ) ;
#173 = ORIENTED_EDGE ( 'NONE', *, *, #23, .T. ) ;
#174 = EDGE_CURVE ( 'NONE', #245, #155, #70, .T. ) ;
#175 = DESIGN_CONTEXT ( 'detailed design', #81, 'design' ) ;
#176 = CALENDAR_DATE ( 2022, 10, 7 ) ;
#177 = DIRECTION ( 'NONE',  ( -0.000000000000000000, -0.000000000000000000, -1.000000000000000000 ) ) ;
#178 = FACE_OUTER_BOUND ( 'NONE', #263, .T. ) ;
#179 = ADVANCED_FACE ( 'NONE', ( #282 ), #345, .F. ) ;
#180 = DIRECTION ( 'NONE',  ( -0.000000000000000000, -0.000000000000000000, -1.000000000000000000 ) ) ;
#181 = APPROVAL_PERSON_ORGANIZATION ( #111, #101, #49 ) ;
#182 = LOCAL_TIME ( 11, 14, 33.00000000000000000, #89 ) ;
#183 = PERSON_AND_ORGANIZATION ( #279, #348 ) ;
#184 = DIRECTION ( 'NONE',  ( 1.000000000000000000, 0.000000000000000000, -0.000000000000000000 ) ) ;
#185 = EDGE_CURVE ( 'NONE', #142, #75, #78, .T. ) ;
#186 = DIRECTION ( 'NONE',  ( -1.000000000000000000, 0.000000000000000000, 0.000000000000000000 ) ) ;
#187 = LOCAL_TIME ( 11, 14, 33.00000000000000000, #360 ) ;
#188 = FACE_BOUND ( 'NONE', #79, .T. ) ;
#189 = DIRECTION ( 'NONE',  ( 0.000000000000000000, 0.000000000000000000, 1.000000000000000000 ) ) ;
#190 = EDGE_CURVE ( 'NONE', #278, #138, #116, .T. ) ;
#191 = CARTESIAN_POINT ( 'NONE',  ( 0.000000000000000000, 0.000000000000000000, 0.000000000000000000 ) ) ;
#192 = DIRECTION ( 'NONE',  ( 1.000000000000000000, 0.000000000000000000, 0.000000000000000000 ) ) ;
#193 = ORIENTED_EDGE ( 'NONE', *, *, #326, .T. ) ;
#194 = EDGE_CURVE ( 'NONE', #155, #245, #281, .T. ) ;
#195 = CARTESIAN_POINT ( 'NONE',  ( -3.000000000000000444, 0.000000000000000000, 105.0000000000000142 ) ) ;
#196 = ORIENTED_EDGE ( 'NONE', *, *, #269, .T. ) ;
#197 = DIRECTION ( 'NONE',  ( 0.000000000000000000, 0.000000000000000000, 1.000000000000000000 ) ) ;
#198 = EDGE_LOOP ( 'NONE', ( #315, #27 ) ) ;
#199 = DIRECTION ( 'NONE',  ( -0.000000000000000000, -0.000000000000000000, -1.000000000000000000 ) ) ;
#200 = ORIENTED_EDGE ( 'NONE', *, *, #326, .F. ) ;
#201 = DATE_AND_TIME ( #109, #266 ) ;
#202 = ORIENTED_EDGE ( 'NONE', *, *, #194, .T. ) ;
#203 = CARTESIAN_POINT ( 'NONE',  ( 2.000000000000000000, 2.449293598294706414E-16, 105.0000000000000142 ) ) ;
#204 =( LENGTH_UNIT ( ) NAMED_UNIT ( * ) SI_UNIT ( .MILLI., .METRE. ) );
#205 = PERSON_AND_ORGANIZATION ( #279, #348 ) ;
#206 = CC_DESIGN_PERSON_AND_ORGANIZATION_ASSIGNMENT ( #253, #289, ( #296 ) ) ;
#207 = DIRECTION ( 'NONE',  ( 1.000000000000000000, 0.000000000000000000, -0.000000000000000000 ) ) ;
#208 = DIRECTION ( 'NONE',  ( 0.000000000000000000, 0.000000000000000000, 1.000000000000000000 ) ) ;
#209 = DIRECTION ( 'NONE',  ( 0.000000000000000000, -1.000000000000000000, 0.000000000000000000 ) ) ;
#210 = PLANE ( 'NONE',  #16 ) ;
#211 = AXIS2_PLACEMENT_3D ( 'NONE', #270, #303, #362 ) ;
#212 = CARTESIAN_POINT ( 'NONE',  ( 3.500000000000000444, 0.000000000000000000, 5.000000000000002665 ) ) ;
#213 = DIRECTION ( 'NONE',  ( 0.000000000000000000, 0.000000000000000000, 1.000000000000000000 ) ) ;
#214 = EDGE_CURVE ( 'NONE', #155, #67, #338, .T. ) ;
#215 = DIRECTION ( 'NONE',  ( 1.000000000000000000, 0.000000000000000000, 0.000000000000000000 ) ) ;
#216 = CIRCLE ( 'NONE', #152, 2.000000000000000000 ) ;
#217 = CARTESIAN_POINT ( 'NONE',  ( -6.000000000000000888, 0.000000000000000000, 5.000000000000000000 ) ) ;
#218 = ORIENTED_EDGE ( 'NONE', *, *, #190, .F. ) ;
#219 = EDGE_CURVE ( 'NONE', #276, #316, #73, .T. ) ;
#220 = CARTESIAN_POINT ( 'NONE',  ( 3.000000000000000444, 3.673940397442060361E-16, 105.0000000000000142 ) ) ;
#221 = ORIENTED_EDGE ( 'NONE', *, *, #240, .F. ) ;
#222 = FACE_OUTER_BOUND ( 'NONE', #124, .T. ) ;
#223 = APPLICATION_PROTOCOL_DEFINITION ( 'international standard', 'config_control_design', 1994, #58 ) ;
#224 = ORIENTED_EDGE ( 'NONE', *, *, #174, .T. ) ;
#225 =( NAMED_UNIT ( * ) SI_UNIT ( $, .STERADIAN. ) SOLID_ANGLE_UNIT ( ) );
#226 = LOCAL_TIME ( 11, 14, 33.00000000000000000, #170 ) ;
#227 = CC_DESIGN_DATE_AND_TIME_ASSIGNMENT ( #201, #317, ( #296 ) ) ;
#228 = PRODUCT_DEFINITION_FORMATION_WITH_SPECIFIED_SOURCE ( 'LIBOVOLNÝ', '', #35, .NOT_KNOWN. ) ;
#229 = DIRECTION ( 'NONE',  ( -0.000000000000000000, -0.000000000000000000, -1.000000000000000000 ) ) ;
#230 = AXIS2_PLACEMENT_3D ( 'NONE', #132, #313, #46 ) ;
#231 = EDGE_LOOP ( 'NONE', ( #4, #254, #196, #288 ) ) ;
#232 = DIRECTION ( 'NONE',  ( 0.000000000000000000, 0.000000000000000000, 1.000000000000000000 ) ) ;
#233 = CYLINDRICAL_SURFACE ( 'NONE', #341, 3.000000000000000444 ) ;
#234 = ADVANCED_FACE ( 'NONE', ( #222 ), #250, .F. ) ;
#235 = PERSON_AND_ORGANIZATION_ROLE ( 'classification_officer' ) ;
#236 = CARTESIAN_POINT ( 'NONE',  ( 0.000000000000000000, 0.000000000000000000, 5.000000000000000000 ) ) ;
#237 = ORIENTED_EDGE ( 'NONE', *, *, #366, .F. ) ;
#238 = CARTESIAN_POINT ( 'NONE',  ( 0.000000000000000000, 0.000000000000000000, 5.500000000000005329 ) ) ;
#239 = AXIS2_PLACEMENT_3D ( 'NONE', #150, #294, #184 ) ;
#240 = EDGE_CURVE ( 'NONE', #138, #278, #137, .T. ) ;
#241 = DIRECTION ( 'NONE',  ( -0.000000000000000000, -0.000000000000000000, -1.000000000000000000 ) ) ;
#242 = APPROVAL ( #149, 'NEURÈENÝ' ) ;
#243 = ORIENTED_EDGE ( 'NONE', *, *, #214, .T. ) ;
#244 = CARTESIAN_POINT ( 'NONE',  ( 6.000000000000000888, 7.347880794884120722E-16, 5.000000000000000000 ) ) ;
#245 = VERTEX_POINT ( 'NONE', #220 ) ;
#246 = AXIS2_PLACEMENT_3D ( 'NONE', #321, #25, #287 ) ;
#247 = DIRECTION ( 'NONE',  ( 1.000000000000000000, 0.000000000000000000, 0.000000000000000000 ) ) ;
#248 = LOCAL_TIME ( 11, 14, 33.00000000000000000, #123 ) ;
#249 = VERTEX_POINT ( 'NONE', #72 ) ;
#250 = CYLINDRICAL_SURFACE ( 'NONE', #353, 2.000000000000000000 ) ;
#251 = ORIENTED_EDGE ( 'NONE', *, *, #26, .F. ) ;
#252 = CC_DESIGN_PERSON_AND_ORGANIZATION_ASSIGNMENT ( #331, #235, ( #97 ) ) ;
#253 = PERSON_AND_ORGANIZATION ( #279, #348 ) ;
#254 = ORIENTED_EDGE ( 'NONE', *, *, #38, .T. ) ;
#255 = PERSON_AND_ORGANIZATION ( #279, #348 ) ;
#256 = DIRECTION ( 'NONE',  ( 0.000000000000000000, 0.000000000000000000, -1.000000000000000000 ) ) ;
#257 = AXIS2_PLACEMENT_3D ( 'NONE', #84, #199, #115 ) ;
#258 = APPROVAL_PERSON_ORGANIZATION ( #255, #112, #267 ) ;
#259 = DATE_AND_TIME ( #59, #182 ) ;
#260 = DIRECTION ( 'NONE',  ( 1.000000000000000000, 0.000000000000000000, 0.000000000000000000 ) ) ;
#261 = ADVANCED_FACE ( 'NONE', ( #44 ), #164, .T. ) ;
#262 = FACE_OUTER_BOUND ( 'NONE', #231, .T. ) ;
#263 = EDGE_LOOP ( 'NONE', ( #108, #375, #169, #18 ) ) ;
#264 = AXIS2_PLACEMENT_3D ( 'NONE', #24, #229, #323 ) ;
#265 = ORIENTED_EDGE ( 'NONE', *, *, #354, .T. ) ;
#266 = LOCAL_TIME ( 11, 14, 33.00000000000000000, #376 ) ;
#267 = APPROVAL_ROLE ( '' ) ;
#268 = CARTESIAN_POINT ( 'NONE',  ( 0.000000000000000000, 0.000000000000000000, 105.0000000000000142 ) ) ;
#269 = EDGE_CURVE ( 'NONE', #45, #67, #290, .T. ) ;
#270 = CARTESIAN_POINT ( 'NONE',  ( 0.000000000000000000, 0.000000000000000000, 5.500000000000005329 ) ) ;
#271 = DIRECTION ( 'NONE',  ( 0.000000000000000000, 0.000000000000000000, -1.000000000000000000 ) ) ;
#272 = CIRCLE ( 'NONE', #264, 2.000000000000000000 ) ;
#273 = DIRECTION ( 'NONE',  ( 0.000000000000000000, 0.000000000000000000, -1.000000000000000000 ) ) ;
#274 = DIRECTION ( 'NONE',  ( -0.000000000000000000, -0.000000000000000000, -1.000000000000000000 ) ) ;
#275 = CIRCLE ( 'NONE', #2, 0.5000000000000004441 ) ;
#276 = VERTEX_POINT ( 'NONE', #21 ) ;
#277 = DIRECTION ( 'NONE',  ( 0.000000000000000000, 0.000000000000000000, 1.000000000000000000 ) ) ;
#278 = VERTEX_POINT ( 'NONE', #217 ) ;
#279 = PERSON ( 'NEURÈENÝ', 'NEURÈENÝ', 'NEURÈENÝ', ('NEURÈENÝ'), ('NEURÈENÝ'), ('NEURÈENÝ') ) ;
#280 = AXIS2_PLACEMENT_3D ( 'NONE', #167, #197, #19 ) ;
#281 = CIRCLE ( 'NONE', #47, 3.000000000000000444 ) ;
#282 = FACE_OUTER_BOUND ( 'NONE', #52, .T. ) ;
#283 = CC_DESIGN_SECURITY_CLASSIFICATION ( #97, ( #228 ) ) ;
#284 = EDGE_CURVE ( 'NONE', #106, #22, #143, .T. ) ;
#285 = DATE_AND_TIME ( #176, #226 ) ;
#286 = ORIENTED_EDGE ( 'NONE', *, *, #194, .F. ) ;
#287 = DIRECTION ( 'NONE',  ( -1.000000000000000000, 1.224646799147354440E-16, 0.000000000000000000 ) ) ;
#288 = ORIENTED_EDGE ( 'NONE', *, *, #214, .F. ) ;
#289 = PERSON_AND_ORGANIZATION_ROLE ( 'creator' ) ;
#290 = CIRCLE ( 'NONE', #13, 3.000000000000000444 ) ;
#291 = CARTESIAN_POINT ( 'NONE',  ( 2.000000000000000000, 2.449293598294706414E-16, 0.000000000000000000 ) ) ;
#292 = CLOSED_SHELL ( 'NONE', ( #179, #107, #165, #308, #339, #11, #77, #261, #300, #379, #234 ) ) ;
#293 = DIRECTION ( 'NONE',  ( 0.000000000000000000, 0.000000000000000000, 1.000000000000000000 ) ) ;
#294 = DIRECTION ( 'NONE',  ( 0.000000000000000000, 0.000000000000000000, 1.000000000000000000 ) ) ;
#295 = AXIS2_PLACEMENT_3D ( 'NONE', #39, #189, #68 ) ;
#296 = PRODUCT_DEFINITION ( 'NEZNÁMÝ', '', #228, #175 ) ;
#297 = EDGE_LOOP ( 'NONE', ( #200, #218, #166, #82 ) ) ;
#298 = CARTESIAN_POINT ( 'NONE',  ( 6.000000000000000888, 7.347880794884120722E-16, 0.000000000000000000 ) ) ;
#299 = CARTESIAN_POINT ( 'NONE',  ( -3.500000000000000444, 4.286263797015737088E-16, 5.000000000000002665 ) ) ;
#300 = ADVANCED_FACE ( 'NONE', ( #69, #96 ), #309, .T. ) ;
#301 = AXIS2_PLACEMENT_3D ( 'NONE', #350, #144, #55 ) ;
#302 = CALENDAR_DATE ( 2022, 10, 7 ) ;
#303 = DIRECTION ( 'NONE',  ( 0.000000000000000000, 0.000000000000000000, 1.000000000000000000 ) ) ;
#304 = LINE ( 'NONE', #244, #41 ) ;
#305 = CARTESIAN_POINT ( 'NONE',  ( 0.000000000000000000, 0.000000000000000000, 105.0000000000000142 ) ) ;
#306 = MANIFOLD_SOLID_BREP ( 'Odebrat vysunutím3', #292 ) ;
#307 = AXIS2_PLACEMENT_3D ( 'NONE', #191, #99, #215 ) ;
#308 = ADVANCED_FACE ( 'NONE', ( #337 ), #162, .T. ) ;
#309 = PLANE ( 'NONE',  #168 ) ;
#310 = ORIENTED_EDGE ( 'NONE', *, *, #219, .F. ) ;
#311 = CARTESIAN_POINT ( 'NONE',  ( 0.000000000000000000, 0.000000000000000000, 105.0000000000000142 ) ) ;
#312 = ORIENTED_EDGE ( 'NONE', *, *, #351, .T. ) ;
#313 = DIRECTION ( 'NONE',  ( -0.000000000000000000, -0.000000000000000000, -1.000000000000000000 ) ) ;
#314 = CC_DESIGN_PERSON_AND_ORGANIZATION_ASSIGNMENT ( #120, #91, ( #228 ) ) ;
#315 = ORIENTED_EDGE ( 'NONE', *, *, #93, .F. ) ;
#316 = VERTEX_POINT ( 'NONE', #134 ) ;
#317 = DATE_TIME_ROLE ( 'creation_date' ) ;
#318 = ORIENTED_EDGE ( 'NONE', *, *, #61, .T. ) ;
#319 = AXIS2_PLACEMENT_3D ( 'NONE', #236, #60, #260 ) ;
#320 = ADVANCED_BREP_SHAPE_REPRESENTATION ( 'd354', ( #306, #301 ), #156 ) ;
#321 = CARTESIAN_POINT ( 'NONE',  ( -3.500000000000000444, 4.286263797015737088E-16, 5.500000000000005329 ) ) ;
#322 = AXIS2_PLACEMENT_3D ( 'NONE', #172, #293, #86 ) ;
#323 = DIRECTION ( 'NONE',  ( 1.000000000000000000, 0.000000000000000000, 0.000000000000000000 ) ) ;
#324 = PERSON_AND_ORGANIZATION ( #279, #348 ) ;
#325 = PLANE ( 'NONE',  #239 ) ;
#326 = EDGE_CURVE ( 'NONE', #138, #75, #304, .T. ) ;
#327 = CARTESIAN_POINT ( 'NONE',  ( -3.000000000000000444, 0.000000000000000000, 105.0000000000000142 ) ) ;
#328 = VECTOR ( 'NONE', #131, 1000.000000000000000 ) ;
#329 = CARTESIAN_POINT ( 'NONE',  ( 0.000000000000000000, 0.000000000000000000, 105.0000000000000142 ) ) ;
#330 = CC_DESIGN_DATE_AND_TIME_ASSIGNMENT ( #259, #7, ( #97 ) ) ;
#331 = PERSON_AND_ORGANIZATION ( #279, #348 ) ;
#332 = TOROIDAL_SURFACE ( 'NONE', #211, 3.500000000000000444, 0.5000000000000000000 ) ;
#333 = CARTESIAN_POINT ( 'NONE',  ( 0.000000000000000000, 0.000000000000000000, 0.000000000000000000 ) ) ;
#334 = DATE_AND_TIME ( #302, #187 ) ;
#335 = CARTESIAN_POINT ( 'NONE',  ( 3.500000000000000444, 0.000000000000000000, 5.500000000000005329 ) ) ;
#336 = AXIS2_PLACEMENT_3D ( 'NONE', #66, #274, #15 ) ;
#337 = FACE_OUTER_BOUND ( 'NONE', #122, .T. ) ;
#338 = LINE ( 'NONE', #195, #328 ) ;
#339 = ADVANCED_FACE ( 'NONE', ( #103 ), #56, .T. ) ;
#340 = CARTESIAN_POINT ( 'NONE',  ( 0.000000000000000000, 0.000000000000000000, 5.000000000000000000 ) ) ;
#341 = AXIS2_PLACEMENT_3D ( 'NONE', #329, #62, #186 ) ;
#342 = DIRECTION ( 'NONE',  ( 1.000000000000000000, 0.000000000000000000, 0.000000000000000000 ) ) ;
#343 = ORIENTED_EDGE ( 'NONE', *, *, #38, .F. ) ;
#344 = EDGE_CURVE ( 'NONE', #316, #377, #272, .T. ) ;
#345 = CYLINDRICAL_SURFACE ( 'NONE', #34, 2.000000000000000000 ) ;
#346 = PERSON_AND_ORGANIZATION_ROLE ( 'design_owner' ) ;
#347 = ORIENTED_EDGE ( 'NONE', *, *, #284, .T. ) ;
#348 = ORGANIZATION ( 'NEURÈENÝ', 'NEURÈENÝ', '' ) ;
#349 = MECHANICAL_CONTEXT ( 'NONE', #58, 'mechanical' ) ;
#350 = CARTESIAN_POINT ( 'NONE',  ( 0.000000000000000000, 0.000000000000000000, 0.000000000000000000 ) ) ;
#351 = EDGE_CURVE ( 'NONE', #249, #377, #83, .T. ) ;
#352 = CARTESIAN_POINT ( 'NONE',  ( -6.000000000000000888, 0.000000000000000000, 5.000000000000000000 ) ) ;
#353 = AXIS2_PLACEMENT_3D ( 'NONE', #105, #271, #14 ) ;
#354 = EDGE_CURVE ( 'NONE', #67, #106, #381, .T. ) ;
#355 = ORIENTED_EDGE ( 'NONE', *, *, #93, .T. ) ;
#356 = SECURITY_CLASSIFICATION_LEVEL ( 'unclassified' ) ;
#357 = DIRECTION ( 'NONE',  ( 1.000000000000000000, 0.000000000000000000, 0.000000000000000000 ) ) ;
#358 = DIRECTION ( 'NONE',  ( 0.000000000000000000, 0.000000000000000000, -1.000000000000000000 ) ) ;
#359 = TOROIDAL_SURFACE ( 'NONE', #322, 3.500000000000000444, 0.5000000000000000000 ) ;
#360 = COORDINATED_UNIVERSAL_TIME_OFFSET ( 1, 0, .AHEAD. ) ;
#361 = FACE_OUTER_BOUND ( 'NONE', #119, .T. ) ;
#362 = DIRECTION ( 'NONE',  ( 1.000000000000000000, 0.000000000000000000, 0.000000000000000000 ) ) ;
#363 = CARTESIAN_POINT ( 'NONE',  ( 3.000000000000000444, 3.673940397442060361E-16, 5.500000000000005329 ) ) ;
#364 = VECTOR ( 'NONE', #177, 1000.000000000000000 ) ;
#365 = DIRECTION ( 'NONE',  ( 0.000000000000000000, 0.000000000000000000, 1.000000000000000000 ) ) ;
#366 = EDGE_CURVE ( 'NONE', #278, #142, #380, .T. ) ;
#367 = PRODUCT_DEFINITION_SHAPE ( 'NONE', 'NONE',  #296 ) ;
#368 = DIRECTION ( 'NONE',  ( 0.000000000000000000, 0.000000000000000000, 1.000000000000000000 ) ) ;
#369 = CIRCLE ( 'NONE', #319, 3.500000000000000444 ) ;
#370 = ORIENTED_EDGE ( 'NONE', *, *, #17, .F. ) ;
#371 = DIRECTION ( 'NONE',  ( -0.000000000000000000, -0.000000000000000000, -1.000000000000000000 ) ) ;
#372 = ORIENTED_EDGE ( 'NONE', *, *, #185, .F. ) ;
#373 = CARTESIAN_POINT ( 'NONE',  ( 0.000000000000000000, 0.000000000000000000, 105.0000000000000142 ) ) ;
#374 = ORIENTED_EDGE ( 'NONE', *, *, #219, .T. ) ;
#375 = ORIENTED_EDGE ( 'NONE', *, *, #269, .F. ) ;
#376 = COORDINATED_UNIVERSAL_TIME_OFFSET ( 1, 0, .AHEAD. ) ;
#377 = VERTEX_POINT ( 'NONE', #291 ) ;
#378 = APPLICATION_PROTOCOL_DEFINITION ( 'international standard', 'config_control_design', 1994, #81 ) ;
#379 = ADVANCED_FACE ( 'NONE', ( #178 ), #359, .F. ) ;
#380 = LINE ( 'NONE', #352, #364 ) ;
#381 = CIRCLE ( 'NONE', #246, 0.4999999999999995559 ) ;
ENDSEC;
END-ISO-10303-21;
