ISO-10303-21;
HEADER;
FILE_DESCRIPTION (( 'STEP AP203' ),
    '1' );
FILE_NAME ('a8e5.STEP',
    '2022-07-10T09:09:09',
    ( '' ),
    ( '' ),
    'SwSTEP 2.0',
    'SolidWorks 2019',
    '' );
FILE_SCHEMA (( 'CONFIG_CONTROL_DESIGN' ));
ENDSEC;

DATA;
#1 = LINE ( 'NONE', #52, #15 ) ;
#2 = DIRECTION ( 'NONE',  ( -0.000000000000000000, -0.000000000000000000, -1.000000000000000000 ) ) ;
#3 = CYLINDRICAL_SURFACE ( 'NONE', #158, 2.500000000000000000 ) ;
#4 = DATE_AND_TIME ( #9, #379 ) ;
#5 = DIRECTION ( 'NONE',  ( 0.000000000000000000, 0.000000000000000000, -1.000000000000000000 ) ) ;
#6 = ORIENTED_EDGE ( 'NONE', *, *, #305, .T. ) ;
#7 = PERSON_AND_ORGANIZATION ( #283, #148 ) ;
#8 = ORIENTED_EDGE ( 'NONE', *, *, #276, .F. ) ;
#9 = CALENDAR_DATE ( 2022, 10, 7 ) ;
#10 = CARTESIAN_POINT ( 'NONE',  ( 2.500000000000000000, 3.061616997868383141E-16, 205.0000000000000284 ) ) ;
#11 = APPROVAL_STATUS ( 'not_yet_approved' ) ;
#12 = ORIENTED_EDGE ( 'NONE', *, *, #108, .T. ) ;
#13 = EDGE_CURVE ( 'NONE', #314, #176, #23, .T. ) ;
#14 = DIRECTION ( 'NONE',  ( 0.000000000000000000, 0.000000000000000000, 1.000000000000000000 ) ) ;
#15 = VECTOR ( 'NONE', #27, 1000.000000000000000 ) ;
#16 = ADVANCED_FACE ( 'NONE', ( #341, #312 ), #47, .T. ) ;
#17 = CYLINDRICAL_SURFACE ( 'NONE', #115, 4.000000000000000000 ) ;
#18 = ORIENTED_EDGE ( 'NONE', *, *, #96, .F. ) ;
#19 = DIRECTION ( 'NONE',  ( -1.000000000000000000, 0.000000000000000000, 0.000000000000000000 ) ) ;
#20 = CIRCLE ( 'NONE', #204, 2.500000000000000000 ) ;
#21 = CC_DESIGN_PERSON_AND_ORGANIZATION_ASSIGNMENT ( #260, #38, ( #71 ) ) ;
#22 = CARTESIAN_POINT ( 'NONE',  ( 0.000000000000000000, 0.000000000000000000, 5.000000000000000000 ) ) ;
#23 = CIRCLE ( 'NONE', #244, 4.500000000000000888 ) ;
#24 = AXIS2_PLACEMENT_3D ( 'NONE', #74, #275, #100 ) ;
#25 = CARTESIAN_POINT ( 'NONE',  ( 0.000000000000000000, 0.000000000000000000, 5.500000000000005329 ) ) ;
#26 = CARTESIAN_POINT ( 'NONE',  ( 0.000000000000000000, 0.000000000000000000, 205.0000000000000284 ) ) ;
#27 = DIRECTION ( 'NONE',  ( -0.000000000000000000, -0.000000000000000000, -1.000000000000000000 ) ) ;
#28 = CYLINDRICAL_SURFACE ( 'NONE', #106, 2.500000000000000000 ) ;
#29 = ORIENTED_EDGE ( 'NONE', *, *, #81, .F. ) ;
#30 = EDGE_CURVE ( 'NONE', #279, #176, #172, .T. ) ;
#31 = CIRCLE ( 'NONE', #241, 4.000000000000000000 ) ;
#32 = CARTESIAN_POINT ( 'NONE',  ( -4.000000000000000000, 0.000000000000000000, 205.0000000000000284 ) ) ;
#33 = DIRECTION ( 'NONE',  ( -0.000000000000000000, -0.000000000000000000, -1.000000000000000000 ) ) ;
#34 = EDGE_LOOP ( 'NONE', ( #377, #362, #61, #196 ) ) ;
#35 = APPLICATION_PROTOCOL_DEFINITION ( 'international standard', 'config_control_design', 1994, #297 ) ;
#36 = CARTESIAN_POINT ( 'NONE',  ( 0.000000000000000000, 0.000000000000000000, 0.000000000000000000 ) ) ;
#37 = ORIENTED_EDGE ( 'NONE', *, *, #81, .T. ) ;
#38 = PERSON_AND_ORGANIZATION_ROLE ( 'creator' ) ;
#39 = LOCAL_TIME ( 11, 9, 9.000000000000000000, #363 ) ;
#40 = DIRECTION ( 'NONE',  ( 1.000000000000000000, 0.000000000000000000, 0.000000000000000000 ) ) ;
#41 = ORIENTED_EDGE ( 'NONE', *, *, #125, .F. ) ;
#42 = EDGE_CURVE ( 'NONE', #180, #104, #318, .T. ) ;
#43 = DIRECTION ( 'NONE',  ( 0.000000000000000000, 0.000000000000000000, 1.000000000000000000 ) ) ;
#44 = DIRECTION ( 'NONE',  ( 1.000000000000000000, 0.000000000000000000, 0.000000000000000000 ) ) ;
#45 = CIRCLE ( 'NONE', #249, 7.000000000000000000 ) ;
#46 = CARTESIAN_POINT ( 'NONE',  ( 0.000000000000000000, 0.000000000000000000, 205.0000000000000284 ) ) ;
#47 = PLANE ( 'NONE',  #84 ) ;
#48 = ORIENTED_EDGE ( 'NONE', *, *, #13, .T. ) ;
#49 = CIRCLE ( 'NONE', #281, 7.000000000000000000 ) ;
#50 = DIRECTION ( 'NONE',  ( 0.000000000000000000, 0.000000000000000000, 1.000000000000000000 ) ) ;
#51 = DIRECTION ( 'NONE',  ( 1.000000000000000000, 0.000000000000000000, 0.000000000000000000 ) ) ;
#52 = CARTESIAN_POINT ( 'NONE',  ( 7.000000000000000000, 8.572527594031473190E-16, 5.000000000000000000 ) ) ;
#53 = EDGE_CURVE ( 'NONE', #191, #268, #76, .T. ) ;
#54 = DIRECTION ( 'NONE',  ( 0.000000000000000000, 0.000000000000000000, 1.000000000000000000 ) ) ;
#55 = CARTESIAN_POINT ( 'NONE',  ( -2.500000000000000000, 0.000000000000000000, 205.0000000000000284 ) ) ;
#56 = VERTEX_POINT ( 'NONE', #319 ) ;
#57 =( NAMED_UNIT ( * ) PLANE_ANGLE_UNIT ( ) SI_UNIT ( $, .RADIAN. ) );
#58 = COORDINATED_UNIVERSAL_TIME_OFFSET ( 1, 0, .AHEAD. ) ;
#59 = DATE_AND_TIME ( #174, #165 ) ;
#60 = CARTESIAN_POINT ( 'NONE',  ( 0.000000000000000000, 0.000000000000000000, 0.000000000000000000 ) ) ;
#61 = ORIENTED_EDGE ( 'NONE', *, *, #371, .T. ) ;
#62 = CALENDAR_DATE ( 2022, 10, 7 ) ;
#63 = ORIENTED_EDGE ( 'NONE', *, *, #108, .F. ) ;
#64 = AXIS2_PLACEMENT_3D ( 'NONE', #364, #127, #366 ) ;
#65 = PERSON_AND_ORGANIZATION ( #283, #148 ) ;
#66 = FACE_OUTER_BOUND ( 'NONE', #326, .T. ) ;
#67 = EDGE_LOOP ( 'NONE', ( #8, #329, #338, #307 ) ) ;
#68 = AXIS2_PLACEMENT_3D ( 'NONE', #226, #381, #51 ) ;
#69 = CC_DESIGN_APPROVAL ( #202, ( #71 ) ) ;
#70 = EDGE_LOOP ( 'NONE', ( #346, #299, #373, #367 ) ) ;
#71 = PRODUCT_DEFINITION ( 'NEZNÁMÝ', '', #265, #195 ) ;
#72 = FACE_OUTER_BOUND ( 'NONE', #156, .T. ) ;
#73 = ORIENTED_EDGE ( 'NONE', *, *, #135, .F. ) ;
#74 = CARTESIAN_POINT ( 'NONE',  ( 0.000000000000000000, 0.000000000000000000, 5.500000000000005329 ) ) ;
#75 = ADVANCED_FACE ( 'NONE', ( #142 ), #28, .F. ) ;
#76 = CIRCLE ( 'NONE', #280, 7.000000000000000000 ) ;
#77 = CIRCLE ( 'NONE', #107, 4.000000000000000000 ) ;
#78 = DIRECTION ( 'NONE',  ( -0.000000000000000000, -0.000000000000000000, -1.000000000000000000 ) ) ;
#79 = ADVANCED_FACE ( 'NONE', ( #257 ), #3, .F. ) ;
#80 = CARTESIAN_POINT ( 'NONE',  ( -7.000000000000000000, 0.000000000000000000, 0.000000000000000000 ) ) ;
#81 = EDGE_CURVE ( 'NONE', #213, #279, #295, .T. ) ;
#82 = CARTESIAN_POINT ( 'NONE',  ( 0.000000000000000000, 0.000000000000000000, 5.500000000000005329 ) ) ;
#83 = CARTESIAN_POINT ( 'NONE',  ( -7.000000000000000000, 0.000000000000000000, 5.000000000000000000 ) ) ;
#84 = AXIS2_PLACEMENT_3D ( 'NONE', #277, #132, #170 ) ;
#85 = EDGE_CURVE ( 'NONE', #183, #268, #231, .T. ) ;
#86 = CARTESIAN_POINT ( 'NONE',  ( 4.000000000000000000, 4.898587196589412829E-16, 205.0000000000000284 ) ) ;
#87 = CARTESIAN_POINT ( 'NONE',  ( -4.000000000000000000, 0.000000000000000000, 5.500000000000005329 ) ) ;
#88 = EDGE_CURVE ( 'NONE', #176, #314, #354, .T. ) ;
#89 = DIRECTION ( 'NONE',  ( 0.000000000000000000, 0.000000000000000000, 1.000000000000000000 ) ) ;
#90 = CC_DESIGN_PERSON_AND_ORGANIZATION_ASSIGNMENT ( #65, #258, ( #343 ) ) ;
#91 = CIRCLE ( 'NONE', #68, 4.000000000000000000 ) ;
#92 = AXIS2_PLACEMENT_3D ( 'NONE', #153, #89, #40 ) ;
#93 = DIRECTION ( 'NONE',  ( 1.000000000000000000, 0.000000000000000000, 0.000000000000000000 ) ) ;
#94 = MECHANICAL_CONTEXT ( 'NONE', #297, 'mechanical' ) ;
#95 = ORIENTED_EDGE ( 'NONE', *, *, #53, .T. ) ;
#96 = EDGE_CURVE ( 'NONE', #279, #104, #91, .T. ) ;
#97 = APPROVAL_STATUS ( 'not_yet_approved' ) ;
#98 = CC_DESIGN_PERSON_AND_ORGANIZATION_ASSIGNMENT ( #144, #117, ( #265 ) ) ;
#99 = ORIENTED_EDGE ( 'NONE', *, *, #85, .F. ) ;
#100 = DIRECTION ( 'NONE',  ( 1.000000000000000000, 0.000000000000000000, 0.000000000000000000 ) ) ;
#101 = ORIENTED_EDGE ( 'NONE', *, *, #190, .T. ) ;
#102 = MANIFOLD_SOLID_BREP ( 'Odebrat vysunutím3', #369 ) ;
#103 = CARTESIAN_POINT ( 'NONE',  ( 0.000000000000000000, 0.000000000000000000, 205.0000000000000284 ) ) ;
#104 = VERTEX_POINT ( 'NONE', #167 ) ;
#105 = EDGE_CURVE ( 'NONE', #180, #213, #178, .T. ) ;
#106 = AXIS2_PLACEMENT_3D ( 'NONE', #118, #289, #259 ) ;
#107 = AXIS2_PLACEMENT_3D ( 'NONE', #353, #198, #201 ) ;
#108 = EDGE_CURVE ( 'NONE', #56, #315, #20, .T. ) ;
#109 = LINE ( 'NONE', #55, #273 ) ;
#110 = DIRECTION ( 'NONE',  ( 0.000000000000000000, 0.000000000000000000, 1.000000000000000000 ) ) ;
#111 = CARTESIAN_POINT ( 'NONE',  ( -2.500000000000000000, 0.000000000000000000, 205.0000000000000284 ) ) ;
#112 = DIRECTION ( 'NONE',  ( 1.000000000000000000, 0.000000000000000000, 0.000000000000000000 ) ) ;
#113 = AXIS2_PLACEMENT_3D ( 'NONE', #22, #253, #138 ) ;
#114 = ORIENTED_EDGE ( 'NONE', *, *, #166, .F. ) ;
#115 = AXIS2_PLACEMENT_3D ( 'NONE', #46, #162, #19 ) ;
#116 = DIRECTION ( 'NONE',  ( -1.000000000000000000, 0.000000000000000000, 0.000000000000000000 ) ) ;
#117 = PERSON_AND_ORGANIZATION_ROLE ( 'design_supplier' ) ;
#118 = CARTESIAN_POINT ( 'NONE',  ( 0.000000000000000000, 0.000000000000000000, 205.0000000000000284 ) ) ;
#119 = PERSON_AND_ORGANIZATION_ROLE ( 'creator' ) ;
#120 = FACE_OUTER_BOUND ( 'NONE', #282, .T. ) ;
#121 = ORIENTED_EDGE ( 'NONE', *, *, #190, .F. ) ;
#122 = AXIS2_PLACEMENT_3D ( 'NONE', #287, #136, #229 ) ;
#123 = APPROVAL_ROLE ( '' ) ;
#124 = ORIENTED_EDGE ( 'NONE', *, *, #276, .T. ) ;
#125 = EDGE_CURVE ( 'NONE', #264, #183, #45, .T. ) ;
#126 = PERSON_AND_ORGANIZATION ( #283, #148 ) ;
#127 = DIRECTION ( 'NONE',  ( -0.000000000000000000, -0.000000000000000000, -1.000000000000000000 ) ) ;
#128 = DATE_TIME_ROLE ( 'creation_date' ) ;
#129 = FACE_BOUND ( 'NONE', #131, .T. ) ;
#130 = ORIENTED_EDGE ( 'NONE', *, *, #184, .T. ) ;
#131 = EDGE_LOOP ( 'NONE', ( #48, #240 ) ) ;
#132 = DIRECTION ( 'NONE',  ( 0.000000000000000000, 0.000000000000000000, 1.000000000000000000 ) ) ;
#133 = VECTOR ( 'NONE', #78, 1000.000000000000000 ) ;
#134 = ORIENTED_EDGE ( 'NONE', *, *, #30, .T. ) ;
#135 = EDGE_CURVE ( 'NONE', #315, #56, #360, .T. ) ;
#136 = DIRECTION ( 'NONE',  ( -0.000000000000000000, -0.000000000000000000, -1.000000000000000000 ) ) ;
#137 = AXIS2_PLACEMENT_3D ( 'NONE', #182, #43, #236 ) ;
#138 = DIRECTION ( 'NONE',  ( 1.000000000000000000, 0.000000000000000000, 0.000000000000000000 ) ) ;
#139 = LOCAL_TIME ( 11, 9, 9.000000000000000000, #327 ) ;
#140 = CC_DESIGN_PERSON_AND_ORGANIZATION_ASSIGNMENT ( #7, #179, ( #337 ) ) ;
#141 = CARTESIAN_POINT ( 'NONE',  ( 7.000000000000000000, 8.572527594031473190E-16, 5.000000000000000000 ) ) ;
#142 = FACE_OUTER_BOUND ( 'NONE', #70, .T. ) ;
#143 = CC_DESIGN_SECURITY_CLASSIFICATION ( #343, ( #265 ) ) ;
#144 = PERSON_AND_ORGANIZATION ( #283, #148 ) ;
#145 = DIRECTION ( 'NONE',  ( -0.000000000000000000, -0.000000000000000000, -1.000000000000000000 ) ) ;
#146 = DIRECTION ( 'NONE',  ( 1.000000000000000000, 0.000000000000000000, -0.000000000000000000 ) ) ;
#147 = CYLINDRICAL_SURFACE ( 'NONE', #64, 7.000000000000000000 ) ;
#148 = ORGANIZATION ( 'NEURÈENÝ', 'NEURÈENÝ', '' ) ;
#149 = DATE_AND_TIME ( #368, #39 ) ;
#150 = PLANE ( 'NONE',  #137 ) ;
#151 = ADVANCED_FACE ( 'NONE', ( #129, #66 ), #150, .T. ) ;
#152 = ORIENTED_EDGE ( 'NONE', *, *, #125, .T. ) ;
#153 = CARTESIAN_POINT ( 'NONE',  ( 0.000000000000000000, 0.000000000000000000, 0.000000000000000000 ) ) ;
#154 = EDGE_LOOP ( 'NONE', ( #271, #121 ) ) ;
#155 = PRODUCT_DEFINITION_SHAPE ( 'NONE', 'NONE',  #71 ) ;
#156 = EDGE_LOOP ( 'NONE', ( #177, #161, #37, #233 ) ) ;
#157 = ADVANCED_FACE ( 'NONE', ( #263, #298 ), #270, .F. ) ;
#158 = AXIS2_PLACEMENT_3D ( 'NONE', #292, #352, #116 ) ;
#159 = APPROVAL_PERSON_ORGANIZATION ( #208, #192, #325 ) ;
#160 = CARTESIAN_POINT ( 'NONE',  ( 4.000000000000000000, 4.898587196589412829E-16, 205.0000000000000284 ) ) ;
#161 = ORIENTED_EDGE ( 'NONE', *, *, #345, .F. ) ;
#162 = DIRECTION ( 'NONE',  ( -0.000000000000000000, -0.000000000000000000, -1.000000000000000000 ) ) ;
#163 = EDGE_LOOP ( 'NONE', ( #63, #73 ) ) ;
#164 = CIRCLE ( 'NONE', #350, 2.500000000000000000 ) ;
#165 = LOCAL_TIME ( 11, 9, 9.000000000000000000, #58 ) ;
#166 = EDGE_CURVE ( 'NONE', #344, #315, #209, .T. ) ;
#167 = CARTESIAN_POINT ( 'NONE',  ( 4.000000000000000000, 4.898587196589412829E-16, 5.500000000000005329 ) ) ;
#168 = APPROVAL_PERSON_ORGANIZATION ( #126, #186, #303 ) ;
#169 = CARTESIAN_POINT ( 'NONE',  ( 4.500000000000000888, 0.000000000000000000, 5.500000000000005329 ) ) ;
#170 = DIRECTION ( 'NONE',  ( 1.000000000000000000, 0.000000000000000000, -0.000000000000000000 ) ) ;
#171 = DIRECTION ( 'NONE',  ( 0.000000000000000000, 0.000000000000000000, 1.000000000000000000 ) ) ;
#172 = CIRCLE ( 'NONE', #321, 0.5000000000000004441 ) ;
#173 = ADVANCED_FACE ( 'NONE', ( #120 ), #147, .T. ) ;
#174 = CALENDAR_DATE ( 2022, 10, 7 ) ;
#175 = EDGE_CURVE ( 'NONE', #262, #344, #164, .T. ) ;
#176 = VERTEX_POINT ( 'NONE', #207 ) ;
#177 = ORIENTED_EDGE ( 'NONE', *, *, #42, .F. ) ;
#178 = CIRCLE ( 'NONE', #378, 4.000000000000000000 ) ;
#179 = PERSON_AND_ORGANIZATION_ROLE ( 'design_owner' ) ;
#180 = VERTEX_POINT ( 'NONE', #160 ) ;
#181 = DATE_AND_TIME ( #235, #228 ) ;
#182 = CARTESIAN_POINT ( 'NONE',  ( 0.000000000000000000, 0.000000000000000000, 5.000000000000000000 ) ) ;
#183 = VERTEX_POINT ( 'NONE', #189 ) ;
#184 = EDGE_CURVE ( 'NONE', #183, #264, #49, .T. ) ;
#185 = DIRECTION ( 'NONE',  ( -0.000000000000000000, -0.000000000000000000, -1.000000000000000000 ) ) ;
#186 = APPROVAL ( #97, 'NEURÈENÝ' ) ;
#187 = VECTOR ( 'NONE', #2, 1000.000000000000000 ) ;
#188 = TOROIDAL_SURFACE ( 'NONE', #376, 4.500000000000000888, 0.5000000000000000000 ) ;
#189 = CARTESIAN_POINT ( 'NONE',  ( -7.000000000000000000, 0.000000000000000000, 5.000000000000000000 ) ) ;
#190 = EDGE_CURVE ( 'NONE', #344, #262, #205, .T. ) ;
#191 = VERTEX_POINT ( 'NONE', #220 ) ;
#192 = APPROVAL ( #206, 'NEURÈENÝ' ) ;
#193 = CARTESIAN_POINT ( 'NONE',  ( 0.000000000000000000, 0.000000000000000000, 5.000000000000000000 ) ) ;
#194 = FACE_OUTER_BOUND ( 'NONE', #215, .T. ) ;
#195 = DESIGN_CONTEXT ( 'detailed design', #278, 'design' ) ;
#196 = ORIENTED_EDGE ( 'NONE', *, *, #88, .F. ) ;
#197 = FACE_OUTER_BOUND ( 'NONE', #34, .T. ) ;
#198 = DIRECTION ( 'NONE',  ( 0.000000000000000000, 0.000000000000000000, 1.000000000000000000 ) ) ;
#199 = APPROVAL_PERSON_ORGANIZATION ( #300, #202, #123 ) ;
#200 = CARTESIAN_POINT ( 'NONE',  ( 0.000000000000000000, 0.000000000000000000, 0.000000000000000000 ) ) ;
#201 = DIRECTION ( 'NONE',  ( 1.000000000000000000, 0.000000000000000000, 0.000000000000000000 ) ) ;
#202 = APPROVAL ( #11, 'NEURÈENÝ' ) ;
#203 = DATE_TIME_ROLE ( 'classification_date' ) ;
#204 = AXIS2_PLACEMENT_3D ( 'NONE', #267, #323, #304 ) ;
#205 = CIRCLE ( 'NONE', #256, 2.500000000000000000 ) ;
#206 = APPROVAL_STATUS ( 'not_yet_approved' ) ;
#207 = CARTESIAN_POINT ( 'NONE',  ( -4.500000000000000888, 5.510910596163088569E-16, 5.000000000000002665 ) ) ;
#208 = PERSON_AND_ORGANIZATION ( #283, #148 ) ;
#209 = LINE ( 'NONE', #10, #333 ) ;
#210 = ADVANCED_BREP_SHAPE_REPRESENTATION ( 'a8e5', ( #102, #92 ), #317 ) ;
#211 = COORDINATED_UNIVERSAL_TIME_OFFSET ( 1, 0, .AHEAD. ) ;
#212 = CARTESIAN_POINT ( 'NONE',  ( 0.000000000000000000, 0.000000000000000000, 5.000000000000000000 ) ) ;
#213 = VERTEX_POINT ( 'NONE', #374 ) ;
#214 = FACE_OUTER_BOUND ( 'NONE', #358, .T. ) ;
#215 = EDGE_LOOP ( 'NONE', ( #293, #306, #349, #29 ) ) ;
#216 = EDGE_LOOP ( 'NONE', ( #114, #101, #6, #12 ) ) ;
#217 = ADVANCED_FACE ( 'NONE', ( #339 ), #284, .T. ) ;
#218 = CIRCLE ( 'NONE', #334, 7.000000000000000000 ) ;
#219 = DIRECTION ( 'NONE',  ( -0.000000000000000000, -0.000000000000000000, -1.000000000000000000 ) ) ;
#220 = CARTESIAN_POINT ( 'NONE',  ( 7.000000000000000000, 8.572527594031473190E-16, 0.000000000000000000 ) ) ;
#221 = DIRECTION ( 'NONE',  ( 1.000000000000000000, 0.000000000000000000, 0.000000000000000000 ) ) ;
#222 = AXIS2_PLACEMENT_3D ( 'NONE', #169, #290, #224 ) ;
#223 = CARTESIAN_POINT ( 'NONE',  ( 0.000000000000000000, 0.000000000000000000, 5.000000000000000000 ) ) ;
#224 = DIRECTION ( 'NONE',  ( 0.000000000000000000, 0.000000000000000000, -1.000000000000000000 ) ) ;
#225 = CARTESIAN_POINT ( 'NONE',  ( 4.500000000000000888, 0.000000000000000000, 5.000000000000002665 ) ) ;
#226 = CARTESIAN_POINT ( 'NONE',  ( 0.000000000000000000, 0.000000000000000000, 5.500000000000005329 ) ) ;
#227 = ADVANCED_FACE ( 'NONE', ( #214 ), #310, .F. ) ;
#228 = LOCAL_TIME ( 11, 9, 9.000000000000000000, #211 ) ;
#229 = DIRECTION ( 'NONE',  ( -1.000000000000000000, 0.000000000000000000, 0.000000000000000000 ) ) ;
#230 = SECURITY_CLASSIFICATION_LEVEL ( 'unclassified' ) ;
#231 = LINE ( 'NONE', #83, #133 ) ;
#232 = CARTESIAN_POINT ( 'NONE',  ( 0.000000000000000000, 0.000000000000000000, 205.0000000000000284 ) ) ;
#233 = ORIENTED_EDGE ( 'NONE', *, *, #96, .T. ) ;
#234 = CC_DESIGN_APPROVAL ( #192, ( #265 ) ) ;
#235 = CALENDAR_DATE ( 2022, 10, 7 ) ;
#236 = DIRECTION ( 'NONE',  ( 1.000000000000000000, 0.000000000000000000, -0.000000000000000000 ) ) ;
#237 = APPROVAL_DATE_TIME ( #149, #202 ) ;
#238 = DIRECTION ( 'NONE',  ( 1.000000000000000000, 0.000000000000000000, 0.000000000000000000 ) ) ;
#239 = APPROVAL_DATE_TIME ( #266, #192 ) ;
#240 = ORIENTED_EDGE ( 'NONE', *, *, #88, .T. ) ;
#241 = AXIS2_PLACEMENT_3D ( 'NONE', #82, #171, #351 ) ;
#242 = ADVANCED_FACE ( 'NONE', ( #194 ), #17, .T. ) ;
#243 = EDGE_LOOP ( 'NONE', ( #340, #370 ) ) ;
#244 = AXIS2_PLACEMENT_3D ( 'NONE', #223, #185, #308 ) ;
#245 = DIRECTION ( 'NONE',  ( 1.000000000000000000, 0.000000000000000000, 0.000000000000000000 ) ) ;
#246 = ORIENTED_EDGE ( 'NONE', *, *, #13, .F. ) ;
#247 = ADVANCED_FACE ( 'NONE', ( #72 ), #313, .T. ) ;
#248 =( NAMED_UNIT ( * ) SI_UNIT ( $, .STERADIAN. ) SOLID_ANGLE_UNIT ( ) );
#249 = AXIS2_PLACEMENT_3D ( 'NONE', #212, #328, #301 ) ;
#250 = PRODUCT_RELATED_PRODUCT_CATEGORY ( 'detail', '', ( #337 ) ) ;
#251 = DIRECTION ( 'NONE',  ( 0.000000000000000000, 0.000000000000000000, -1.000000000000000000 ) ) ;
#252 = DIRECTION ( 'NONE',  ( 0.000000000000000000, 0.000000000000000000, 1.000000000000000000 ) ) ;
#253 = DIRECTION ( 'NONE',  ( -0.000000000000000000, -0.000000000000000000, -1.000000000000000000 ) ) ;
#254 = CARTESIAN_POINT ( 'NONE',  ( 2.500000000000000000, 3.061616997868383141E-16, 0.000000000000000000 ) ) ;
#255 = UNCERTAINTY_MEASURE_WITH_UNIT (LENGTH_MEASURE( 1.000000000000000082E-05 ), #294, 'distance_accuracy_value', 'NONE');
#256 = AXIS2_PLACEMENT_3D ( 'NONE', #103, #311, #44 ) ;
#257 = FACE_OUTER_BOUND ( 'NONE', #216, .T. ) ;
#258 = PERSON_AND_ORGANIZATION_ROLE ( 'classification_officer' ) ;
#259 = DIRECTION ( 'NONE',  ( -1.000000000000000000, 0.000000000000000000, 0.000000000000000000 ) ) ;
#260 = PERSON_AND_ORGANIZATION ( #283, #148 ) ;
#261 = DIRECTION ( 'NONE',  ( 1.000000000000000000, 0.000000000000000000, 0.000000000000000000 ) ) ;
#262 = VERTEX_POINT ( 'NONE', #111 ) ;
#263 = FACE_BOUND ( 'NONE', #163, .T. ) ;
#264 = VERTEX_POINT ( 'NONE', #141 ) ;
#265 = PRODUCT_DEFINITION_FORMATION_WITH_SPECIFIED_SOURCE ( 'LIBOVOLNÝ', '', #337, .NOT_KNOWN. ) ;
#266 = DATE_AND_TIME ( #62, #139 ) ;
#267 = CARTESIAN_POINT ( 'NONE',  ( 0.000000000000000000, 0.000000000000000000, 0.000000000000000000 ) ) ;
#268 = VERTEX_POINT ( 'NONE', #80 ) ;
#269 = ORIENTED_EDGE ( 'NONE', *, *, #356, .F. ) ;
#270 = PLANE ( 'NONE',  #342 ) ;
#271 = ORIENTED_EDGE ( 'NONE', *, *, #175, .F. ) ;
#272 = VECTOR ( 'NONE', #145, 1000.000000000000000 ) ;
#273 = VECTOR ( 'NONE', #251, 1000.000000000000000 ) ;
#274 = ADVANCED_FACE ( 'NONE', ( #197 ), #188, .F. ) ;
#275 = DIRECTION ( 'NONE',  ( 0.000000000000000000, 0.000000000000000000, 1.000000000000000000 ) ) ;
#276 = EDGE_CURVE ( 'NONE', #264, #191, #1, .T. ) ;
#277 = CARTESIAN_POINT ( 'NONE',  ( 0.000000000000000000, 0.000000000000000000, 205.0000000000000284 ) ) ;
#278 = APPLICATION_CONTEXT ( 'configuration controlled 3d designs of mechanical parts and assemblies' ) ;
#279 = VERTEX_POINT ( 'NONE', #87 ) ;
#280 = AXIS2_PLACEMENT_3D ( 'NONE', #200, #54, #112 ) ;
#281 = AXIS2_PLACEMENT_3D ( 'NONE', #193, #375, #245 ) ;
#282 = EDGE_LOOP ( 'NONE', ( #41, #124, #95, #99 ) ) ;
#283 = PERSON ( 'NEURÈENÝ', 'NEURÈENÝ', 'NEURÈENÝ', ('NEURÈENÝ'), ('NEURÈENÝ'), ('NEURÈENÝ') ) ;
#284 = CYLINDRICAL_SURFACE ( 'NONE', #288, 7.000000000000000000 ) ;
#285 = EDGE_LOOP ( 'NONE', ( #269, #335 ) ) ;
#286 = DIRECTION ( 'NONE',  ( 1.224646799147353207E-16, 1.000000000000000000, -0.000000000000000000 ) ) ;
#287 = CARTESIAN_POINT ( 'NONE',  ( 0.000000000000000000, 0.000000000000000000, 205.0000000000000284 ) ) ;
#288 = AXIS2_PLACEMENT_3D ( 'NONE', #372, #219, #348 ) ;
#289 = DIRECTION ( 'NONE',  ( 0.000000000000000000, 0.000000000000000000, -1.000000000000000000 ) ) ;
#290 = DIRECTION ( 'NONE',  ( 0.000000000000000000, -1.000000000000000000, 0.000000000000000000 ) ) ;
#291 = EDGE_CURVE ( 'NONE', #104, #279, #31, .T. ) ;
#292 = CARTESIAN_POINT ( 'NONE',  ( 0.000000000000000000, 0.000000000000000000, 205.0000000000000284 ) ) ;
#293 = ORIENTED_EDGE ( 'NONE', *, *, #105, .F. ) ;
#294 =( LENGTH_UNIT ( ) NAMED_UNIT ( * ) SI_UNIT ( .MILLI., .METRE. ) );
#295 = LINE ( 'NONE', #32, #272 ) ;
#296 = APPROVAL_DATE_TIME ( #59, #186 ) ;
#297 = APPLICATION_CONTEXT ( 'configuration controlled 3d designs of mechanical parts and assemblies' ) ;
#298 = FACE_OUTER_BOUND ( 'NONE', #285, .T. ) ;
#299 = ORIENTED_EDGE ( 'NONE', *, *, #166, .T. ) ;
#300 = PERSON_AND_ORGANIZATION ( #283, #148 ) ;
#301 = DIRECTION ( 'NONE',  ( 1.000000000000000000, 0.000000000000000000, 0.000000000000000000 ) ) ;
#302 = ORIENTED_EDGE ( 'NONE', *, *, #371, .F. ) ;
#303 = APPROVAL_ROLE ( '' ) ;
#304 = DIRECTION ( 'NONE',  ( 1.000000000000000000, 0.000000000000000000, 0.000000000000000000 ) ) ;
#305 = EDGE_CURVE ( 'NONE', #262, #56, #109, .T. ) ;
#306 = ORIENTED_EDGE ( 'NONE', *, *, #42, .T. ) ;
#307 = ORIENTED_EDGE ( 'NONE', *, *, #356, .T. ) ;
#308 = DIRECTION ( 'NONE',  ( 1.000000000000000000, 0.000000000000000000, 0.000000000000000000 ) ) ;
#309 = AXIS2_PLACEMENT_3D ( 'NONE', #60, #33, #261 ) ;
#310 = TOROIDAL_SURFACE ( 'NONE', #24, 4.500000000000000888, 0.5000000000000000000 ) ;
#311 = DIRECTION ( 'NONE',  ( 0.000000000000000000, 0.000000000000000000, 1.000000000000000000 ) ) ;
#312 = FACE_OUTER_BOUND ( 'NONE', #243, .T. ) ;
#313 = CYLINDRICAL_SURFACE ( 'NONE', #122, 4.000000000000000000 ) ;
#314 = VERTEX_POINT ( 'NONE', #225 ) ;
#315 = VERTEX_POINT ( 'NONE', #254 ) ;
#316 = DIRECTION ( 'NONE',  ( 1.000000000000000000, 0.000000000000000000, 0.000000000000000000 ) ) ;
#317 =( GEOMETRIC_REPRESENTATION_CONTEXT ( 3 ) GLOBAL_UNCERTAINTY_ASSIGNED_CONTEXT ( ( #255 ) ) GLOBAL_UNIT_ASSIGNED_CONTEXT ( ( #294, #57, #248 ) ) REPRESENTATION_CONTEXT ( 'NONE', 'WORKASPACE' ) );
#318 = LINE ( 'NONE', #86, #187 ) ;
#319 = CARTESIAN_POINT ( 'NONE',  ( -2.500000000000000000, 0.000000000000000000, 0.000000000000000000 ) ) ;
#320 = CARTESIAN_POINT ( 'NONE',  ( 0.000000000000000000, 0.000000000000000000, 0.000000000000000000 ) ) ;
#321 = AXIS2_PLACEMENT_3D ( 'NONE', #357, #286, #355 ) ;
#322 = CIRCLE ( 'NONE', #222, 0.5000000000000004441 ) ;
#323 = DIRECTION ( 'NONE',  ( -0.000000000000000000, -0.000000000000000000, -1.000000000000000000 ) ) ;
#324 = CC_DESIGN_DATE_AND_TIME_ASSIGNMENT ( #4, #203, ( #343 ) ) ;
#325 = APPROVAL_ROLE ( '' ) ;
#326 = EDGE_LOOP ( 'NONE', ( #130, #152 ) ) ;
#327 = COORDINATED_UNIVERSAL_TIME_OFFSET ( 1, 0, .AHEAD. ) ;
#328 = DIRECTION ( 'NONE',  ( 0.000000000000000000, 0.000000000000000000, 1.000000000000000000 ) ) ;
#329 = ORIENTED_EDGE ( 'NONE', *, *, #184, .F. ) ;
#330 = SHAPE_DEFINITION_REPRESENTATION ( #155, #210 ) ;
#331 = CC_DESIGN_DATE_AND_TIME_ASSIGNMENT ( #181, #128, ( #71 ) ) ;
#332 = DIRECTION ( 'NONE',  ( 0.000000000000000000, 0.000000000000000000, 1.000000000000000000 ) ) ;
#333 = VECTOR ( 'NONE', #5, 1000.000000000000000 ) ;
#334 = AXIS2_PLACEMENT_3D ( 'NONE', #320, #50, #221 ) ;
#335 = ORIENTED_EDGE ( 'NONE', *, *, #53, .F. ) ;
#336 = PERSON_AND_ORGANIZATION ( #283, #148 ) ;
#337 = PRODUCT ( 'a8e5', 'a8e5', '', ( #94 ) ) ;
#338 = ORIENTED_EDGE ( 'NONE', *, *, #85, .T. ) ;
#339 = FACE_OUTER_BOUND ( 'NONE', #67, .T. ) ;
#340 = ORIENTED_EDGE ( 'NONE', *, *, #345, .T. ) ;
#341 = FACE_BOUND ( 'NONE', #154, .T. ) ;
#342 = AXIS2_PLACEMENT_3D ( 'NONE', #36, #14, #146 ) ;
#343 = SECURITY_CLASSIFICATION ( '', '', #230 ) ;
#344 = VERTEX_POINT ( 'NONE', #380 ) ;
#345 = EDGE_CURVE ( 'NONE', #213, #180, #77, .T. ) ;
#346 = ORIENTED_EDGE ( 'NONE', *, *, #175, .T. ) ;
#347 = CC_DESIGN_PERSON_AND_ORGANIZATION_ASSIGNMENT ( #336, #119, ( #265 ) ) ;
#348 = DIRECTION ( 'NONE',  ( -1.000000000000000000, 0.000000000000000000, 0.000000000000000000 ) ) ;
#349 = ORIENTED_EDGE ( 'NONE', *, *, #291, .T. ) ;
#350 = AXIS2_PLACEMENT_3D ( 'NONE', #232, #332, #93 ) ;
#351 = DIRECTION ( 'NONE',  ( 1.000000000000000000, 0.000000000000000000, 0.000000000000000000 ) ) ;
#352 = DIRECTION ( 'NONE',  ( 0.000000000000000000, 0.000000000000000000, -1.000000000000000000 ) ) ;
#353 = CARTESIAN_POINT ( 'NONE',  ( 0.000000000000000000, 0.000000000000000000, 205.0000000000000284 ) ) ;
#354 = CIRCLE ( 'NONE', #113, 4.500000000000000888 ) ;
#355 = DIRECTION ( 'NONE',  ( -1.000000000000000000, 1.224646799147351482E-16, 0.000000000000000000 ) ) ;
#356 = EDGE_CURVE ( 'NONE', #268, #191, #218, .T. ) ;
#357 = CARTESIAN_POINT ( 'NONE',  ( -4.500000000000000888, 5.510910596163089556E-16, 5.500000000000005329 ) ) ;
#358 = EDGE_LOOP ( 'NONE', ( #18, #134, #246, #302 ) ) ;
#359 = COORDINATED_UNIVERSAL_TIME_OFFSET ( 1, 0, .AHEAD. ) ;
#360 = CIRCLE ( 'NONE', #309, 2.500000000000000000 ) ;
#361 = CC_DESIGN_APPROVAL ( #186, ( #343 ) ) ;
#362 = ORIENTED_EDGE ( 'NONE', *, *, #291, .F. ) ;
#363 = COORDINATED_UNIVERSAL_TIME_OFFSET ( 1, 0, .AHEAD. ) ;
#364 = CARTESIAN_POINT ( 'NONE',  ( 0.000000000000000000, 0.000000000000000000, 5.000000000000000000 ) ) ;
#365 = APPLICATION_PROTOCOL_DEFINITION ( 'international standard', 'config_control_design', 1994, #278 ) ;
#366 = DIRECTION ( 'NONE',  ( -1.000000000000000000, 0.000000000000000000, 0.000000000000000000 ) ) ;
#367 = ORIENTED_EDGE ( 'NONE', *, *, #305, .F. ) ;
#368 = CALENDAR_DATE ( 2022, 10, 7 ) ;
#369 = CLOSED_SHELL ( 'NONE', ( #75, #227, #242, #173, #217, #151, #157, #247, #16, #274, #79 ) ) ;
#370 = ORIENTED_EDGE ( 'NONE', *, *, #105, .T. ) ;
#371 = EDGE_CURVE ( 'NONE', #104, #314, #322, .T. ) ;
#372 = CARTESIAN_POINT ( 'NONE',  ( 0.000000000000000000, 0.000000000000000000, 5.000000000000000000 ) ) ;
#373 = ORIENTED_EDGE ( 'NONE', *, *, #135, .T. ) ;
#374 = CARTESIAN_POINT ( 'NONE',  ( -4.000000000000000000, 0.000000000000000000, 205.0000000000000284 ) ) ;
#375 = DIRECTION ( 'NONE',  ( 0.000000000000000000, 0.000000000000000000, 1.000000000000000000 ) ) ;
#376 = AXIS2_PLACEMENT_3D ( 'NONE', #25, #252, #316 ) ;
#377 = ORIENTED_EDGE ( 'NONE', *, *, #30, .F. ) ;
#378 = AXIS2_PLACEMENT_3D ( 'NONE', #26, #110, #238 ) ;
#379 = LOCAL_TIME ( 11, 9, 9.000000000000000000, #359 ) ;
#380 = CARTESIAN_POINT ( 'NONE',  ( 2.500000000000000000, 3.061616997868383141E-16, 205.0000000000000284 ) ) ;
#381 = DIRECTION ( 'NONE',  ( 0.000000000000000000, 0.000000000000000000, 1.000000000000000000 ) ) ;
ENDSEC;
END-ISO-10303-21;
