ISO-10303-21;
HEADER;
FILE_DESCRIPTION (( 'STEP AP203' ),
    '1' );
FILE_NAME ('0f8d.STEP',
    '2022-07-10T09:05:04',
    ( '' ),
    ( '' ),
    'SwSTEP 2.0',
    'SolidWorks 2019',
    '' );
FILE_SCHEMA (( 'CONFIG_CONTROL_DESIGN' ));
ENDSEC;

DATA;
#1 = DIRECTION ( 'NONE',  ( 0.000000000000000000, 0.000000000000000000, -1.000000000000000000 ) ) ;
#2 = AXIS2_PLACEMENT_3D ( 'NONE', #213, #381, #241 ) ;
#3 = CARTESIAN_POINT ( 'NONE',  ( 0.000000000000000000, 0.000000000000000000, 5.000000000000000000 ) ) ;
#4 = APPROVAL_PERSON_ORGANIZATION ( #157, #55, #300 ) ;
#5 = APPROVAL_ROLE ( '' ) ;
#6 = APPROVAL_PERSON_ORGANIZATION ( #124, #328, #5 ) ;
#7 = DIRECTION ( 'NONE',  ( -0.000000000000000000, -0.000000000000000000, -1.000000000000000000 ) ) ;
#8 = FACE_OUTER_BOUND ( 'NONE', #377, .T. ) ;
#9 = EDGE_CURVE ( 'NONE', #367, #364, #177, .T. ) ;
#10 = CARTESIAN_POINT ( 'NONE',  ( 0.000000000000000000, 0.000000000000000000, 180.0000000000000000 ) ) ;
#11 = VECTOR ( 'NONE', #369, 1000.000000000000000 ) ;
#12 = DIRECTION ( 'NONE',  ( -0.000000000000000000, -0.000000000000000000, -1.000000000000000000 ) ) ;
#13 = DIRECTION ( 'NONE',  ( -1.000000000000000000, 0.000000000000000000, 0.000000000000000000 ) ) ;
#14 = CARTESIAN_POINT ( 'NONE',  ( 0.000000000000000000, 0.000000000000000000, 0.000000000000000000 ) ) ;
#15 = VERTEX_POINT ( 'NONE', #350 ) ;
#16 = EDGE_CURVE ( 'NONE', #364, #367, #370, .T. ) ;
#17 = CARTESIAN_POINT ( 'NONE',  ( -5.500000000000000000, 6.735557395310442023E-16, 5.000000000000002665 ) ) ;
#18 = DIRECTION ( 'NONE',  ( 0.000000000000000000, 0.000000000000000000, 1.000000000000000000 ) ) ;
#19 = VERTEX_POINT ( 'NONE', #216 ) ;
#20 = TOROIDAL_SURFACE ( 'NONE', #187, 5.500000000000000000, 0.5000000000000000000 ) ;
#21 = EDGE_CURVE ( 'NONE', #19, #184, #45, .T. ) ;
#22 =( LENGTH_UNIT ( ) NAMED_UNIT ( * ) SI_UNIT ( .MILLI., .METRE. ) );
#23 = ORIENTED_EDGE ( 'NONE', *, *, #196, .T. ) ;
#24 = ORIENTED_EDGE ( 'NONE', *, *, #90, .F. ) ;
#25 = AXIS2_PLACEMENT_3D ( 'NONE', #70, #193, #71 ) ;
#26 =( NAMED_UNIT ( * ) PLANE_ANGLE_UNIT ( ) SI_UNIT ( $, .RADIAN. ) );
#27 = ORIENTED_EDGE ( 'NONE', *, *, #52, .T. ) ;
#28 = ADVANCED_FACE ( 'NONE', ( #8 ), #158, .T. ) ;
#29 = PRODUCT_DEFINITION_FORMATION_WITH_SPECIFIED_SOURCE ( 'LIBOVOLNÝ', '', #34, .NOT_KNOWN. ) ;
#30 = DIRECTION ( 'NONE',  ( 0.000000000000000000, 0.000000000000000000, 1.000000000000000000 ) ) ;
#31 = DIRECTION ( 'NONE',  ( 0.000000000000000000, 0.000000000000000000, 1.000000000000000000 ) ) ;
#32 = DATE_TIME_ROLE ( 'classification_date' ) ;
#33 = LINE ( 'NONE', #95, #351 ) ;
#34 = PRODUCT ( '0f8d', '0f8d', '', ( #238 ) ) ;
#35 = ADVANCED_FACE ( 'NONE', ( #189 ), #344, .F. ) ;
#36 = CARTESIAN_POINT ( 'NONE',  ( 0.000000000000000000, 0.000000000000000000, 5.000000000000000000 ) ) ;
#37 = DATE_AND_TIME ( #94, #255 ) ;
#38 = DIRECTION ( 'NONE',  ( -0.000000000000000000, -0.000000000000000000, -1.000000000000000000 ) ) ;
#39 = LINE ( 'NONE', #281, #260 ) ;
#40 = EDGE_CURVE ( 'NONE', #120, #288, #102, .T. ) ;
#41 = VECTOR ( 'NONE', #107, 1000.000000000000000 ) ;
#42 = DIRECTION ( 'NONE',  ( 1.000000000000000000, 0.000000000000000000, 0.000000000000000000 ) ) ;
#43 = CARTESIAN_POINT ( 'NONE',  ( 0.000000000000000000, 0.000000000000000000, 5.000000000000000000 ) ) ;
#44 = ORIENTED_EDGE ( 'NONE', *, *, #16, .F. ) ;
#45 = CIRCLE ( 'NONE', #214, 3.100000000000000089 ) ;
#46 = DIRECTION ( 'NONE',  ( -0.000000000000000000, -0.000000000000000000, -1.000000000000000000 ) ) ;
#47 = DIRECTION ( 'NONE',  ( 1.000000000000000000, 0.000000000000000000, 0.000000000000000000 ) ) ;
#48 = EDGE_CURVE ( 'NONE', #288, #120, #312, .T. ) ;
#49 = PERSON_AND_ORGANIZATION ( #308, #292 ) ;
#50 = APPLICATION_CONTEXT ( 'configuration controlled 3d designs of mechanical parts and assemblies' ) ;
#51 = ORIENTED_EDGE ( 'NONE', *, *, #105, .T. ) ;
#52 = EDGE_CURVE ( 'NONE', #364, #19, #194, .T. ) ;
#53 = APPLICATION_PROTOCOL_DEFINITION ( 'international standard', 'config_control_design', 1994, #50 ) ;
#54 = ORIENTED_EDGE ( 'NONE', *, *, #9, .T. ) ;
#55 = APPROVAL ( #215, 'NEURÈENÝ' ) ;
#56 = COORDINATED_UNIVERSAL_TIME_OFFSET ( 1, 0, .AHEAD. ) ;
#57 = EDGE_LOOP ( 'NONE', ( #121, #211 ) ) ;
#58 = CARTESIAN_POINT ( 'NONE',  ( -3.100000000000000089, 0.000000000000000000, 180.0000000000000000 ) ) ;
#59 = ADVANCED_FACE ( 'NONE', ( #67, #273 ), #359, .T. ) ;
#60 = ORIENTED_EDGE ( 'NONE', *, *, #269, .T. ) ;
#61 = APPROVAL_DATE_TIME ( #356, #55 ) ;
#62 = ORIENTED_EDGE ( 'NONE', *, *, #220, .T. ) ;
#63 = CIRCLE ( 'NONE', #204, 5.000000000000000000 ) ;
#64 = PERSON_AND_ORGANIZATION ( #308, #292 ) ;
#65 = CARTESIAN_POINT ( 'NONE',  ( 0.000000000000000000, 0.000000000000000000, 5.000000000000000000 ) ) ;
#66 = SECURITY_CLASSIFICATION_LEVEL ( 'unclassified' ) ;
#67 = FACE_BOUND ( 'NONE', #179, .T. ) ;
#68 = CARTESIAN_POINT ( 'NONE',  ( 3.100000000000000089, 3.796405077356793932E-16, 180.0000000000000000 ) ) ;
#69 = SECURITY_CLASSIFICATION ( '', '', #66 ) ;
#70 = CARTESIAN_POINT ( 'NONE',  ( 0.000000000000000000, 0.000000000000000000, 180.0000000000000000 ) ) ;
#71 = DIRECTION ( 'NONE',  ( 1.000000000000000000, 0.000000000000000000, -0.000000000000000000 ) ) ;
#72 = ADVANCED_FACE ( 'NONE', ( #303 ), #304, .F. ) ;
#73 = CLOSED_SHELL ( 'NONE', ( #261, #35, #131, #28, #192, #144, #352, #175, #59, #99, #72 ) ) ;
#74 = CARTESIAN_POINT ( 'NONE',  ( 5.000000000000000000, 6.123233995736766282E-16, 180.0000000000000000 ) ) ;
#75 = AXIS2_PLACEMENT_3D ( 'NONE', #339, #368, #47 ) ;
#76 = DIRECTION ( 'NONE',  ( 0.000000000000000000, 0.000000000000000000, 1.000000000000000000 ) ) ;
#77 = ORIENTED_EDGE ( 'NONE', *, *, #297, .F. ) ;
#78 = CARTESIAN_POINT ( 'NONE',  ( 5.000000000000000000, 6.123233995736766282E-16, 5.500000000000005329 ) ) ;
#79 = ORIENTED_EDGE ( 'NONE', *, *, #52, .F. ) ;
#80 = LINE ( 'NONE', #334, #11 ) ;
#81 = ORIENTED_EDGE ( 'NONE', *, *, #40, .T. ) ;
#82 = CARTESIAN_POINT ( 'NONE',  ( 0.000000000000000000, 0.000000000000000000, 180.0000000000000000 ) ) ;
#83 = VECTOR ( 'NONE', #203, 1000.000000000000000 ) ;
#84 = DIRECTION ( 'NONE',  ( 1.000000000000000000, 0.000000000000000000, -0.000000000000000000 ) ) ;
#85 = EDGE_LOOP ( 'NONE', ( #252, #113 ) ) ;
#86 = ORIENTED_EDGE ( 'NONE', *, *, #16, .T. ) ;
#87 = APPROVAL_ROLE ( '' ) ;
#88 = VERTEX_POINT ( 'NONE', #127 ) ;
#89 = AXIS2_PLACEMENT_3D ( 'NONE', #36, #162, #277 ) ;
#90 = EDGE_CURVE ( 'NONE', #288, #154, #33, .T. ) ;
#91 = DIRECTION ( 'NONE',  ( 1.000000000000000000, 0.000000000000000000, 0.000000000000000000 ) ) ;
#92 = VERTEX_POINT ( 'NONE', #156 ) ;
#93 = CARTESIAN_POINT ( 'NONE',  ( 0.000000000000000000, 0.000000000000000000, 180.0000000000000000 ) ) ;
#94 = CALENDAR_DATE ( 2022, 10, 7 ) ;
#95 = CARTESIAN_POINT ( 'NONE',  ( -5.000000000000000000, 0.000000000000000000, 180.0000000000000000 ) ) ;
#96 =( GEOMETRIC_REPRESENTATION_CONTEXT ( 3 ) GLOBAL_UNCERTAINTY_ASSIGNED_CONTEXT ( ( #314 ) ) GLOBAL_UNIT_ASSIGNED_CONTEXT ( ( #22, #26, #264 ) ) REPRESENTATION_CONTEXT ( 'NONE', 'WORKASPACE' ) );
#97 = PERSON_AND_ORGANIZATION_ROLE ( 'creator' ) ;
#98 = CARTESIAN_POINT ( 'NONE',  ( 0.000000000000000000, 0.000000000000000000, 5.000000000000000000 ) ) ;
#99 = ADVANCED_FACE ( 'NONE', ( #128 ), #20, .F. ) ;
#100 = SHAPE_DEFINITION_REPRESENTATION ( #165, #258 ) ;
#101 = DIRECTION ( 'NONE',  ( -0.000000000000000000, -0.000000000000000000, -1.000000000000000000 ) ) ;
#102 = CIRCLE ( 'NONE', #224, 5.000000000000000000 ) ;
#103 = DIRECTION ( 'NONE',  ( 1.000000000000000000, 0.000000000000000000, 0.000000000000000000 ) ) ;
#104 = CIRCLE ( 'NONE', #366, 5.000000000000000000 ) ;
#105 = EDGE_CURVE ( 'NONE', #318, #182, #173, .T. ) ;
#106 = DIRECTION ( 'NONE',  ( 1.000000000000000000, 0.000000000000000000, 0.000000000000000000 ) ) ;
#107 = DIRECTION ( 'NONE',  ( 0.000000000000000000, 0.000000000000000000, -1.000000000000000000 ) ) ;
#108 = AXIS2_PLACEMENT_3D ( 'NONE', #246, #1, #221 ) ;
#109 = CARTESIAN_POINT ( 'NONE',  ( 0.000000000000000000, 0.000000000000000000, 5.000000000000000000 ) ) ;
#110 = ORIENTED_EDGE ( 'NONE', *, *, #269, .F. ) ;
#111 = DIRECTION ( 'NONE',  ( -0.000000000000000000, -0.000000000000000000, -1.000000000000000000 ) ) ;
#112 = ORIENTED_EDGE ( 'NONE', *, *, #336, .T. ) ;
#113 = ORIENTED_EDGE ( 'NONE', *, *, #196, .F. ) ;
#114 = CARTESIAN_POINT ( 'NONE',  ( -3.100000000000000089, 0.000000000000000000, 180.0000000000000000 ) ) ;
#115 = AXIS2_PLACEMENT_3D ( 'NONE', #285, #171, #225 ) ;
#116 = ORIENTED_EDGE ( 'NONE', *, *, #327, .F. ) ;
#117 = CC_DESIGN_PERSON_AND_ORGANIZATION_ASSIGNMENT ( #376, #290, ( #209 ) ) ;
#118 = ORIENTED_EDGE ( 'NONE', *, *, #126, .T. ) ;
#119 = DESIGN_CONTEXT ( 'detailed design', #50, 'design' ) ;
#120 = VERTEX_POINT ( 'NONE', #242 ) ;
#121 = ORIENTED_EDGE ( 'NONE', *, *, #320, .F. ) ;
#122 = CC_DESIGN_APPROVAL ( #55, ( #69 ) ) ;
#123 = ORIENTED_EDGE ( 'NONE', *, *, #346, .T. ) ;
#124 = PERSON_AND_ORGANIZATION ( #308, #292 ) ;
#125 = DIRECTION ( 'NONE',  ( 1.000000000000000000, 0.000000000000000000, 0.000000000000000000 ) ) ;
#126 = EDGE_CURVE ( 'NONE', #182, #318, #244, .T. ) ;
#127 = CARTESIAN_POINT ( 'NONE',  ( -8.000000000000000000, 0.000000000000000000, 5.000000000000000000 ) ) ;
#128 = FACE_OUTER_BOUND ( 'NONE', #137, .T. ) ;
#129 = COORDINATED_UNIVERSAL_TIME_OFFSET ( 1, 0, .AHEAD. ) ;
#130 = DIRECTION ( 'NONE',  ( 0.000000000000000000, 0.000000000000000000, 1.000000000000000000 ) ) ;
#131 = ADVANCED_FACE ( 'NONE', ( #355 ), #219, .T. ) ;
#132 = DIRECTION ( 'NONE',  ( 1.000000000000000000, 0.000000000000000000, 0.000000000000000000 ) ) ;
#133 = CIRCLE ( 'NONE', #161, 3.100000000000000089 ) ;
#134 = DIRECTION ( 'NONE',  ( -1.000000000000000000, 0.000000000000000000, 0.000000000000000000 ) ) ;
#135 = APPLICATION_CONTEXT ( 'configuration controlled 3d designs of mechanical parts and assemblies' ) ;
#136 = FACE_OUTER_BOUND ( 'NONE', #236, .T. ) ;
#137 = EDGE_LOOP ( 'NONE', ( #345, #149, #263, #343 ) ) ;
#138 = DIRECTION ( 'NONE',  ( 1.000000000000000000, 0.000000000000000000, 0.000000000000000000 ) ) ;
#139 = LOCAL_TIME ( 11, 5, 4.000000000000000000, #129 ) ;
#140 = EDGE_LOOP ( 'NONE', ( #118, #51 ) ) ;
#141 = DIRECTION ( 'NONE',  ( 0.000000000000000000, 0.000000000000000000, -1.000000000000000000 ) ) ;
#142 = MANIFOLD_SOLID_BREP ( 'Odebrat vysunutím3', #73 ) ;
#143 = ORIENTED_EDGE ( 'NONE', *, *, #9, .F. ) ;
#144 = ADVANCED_FACE ( 'NONE', ( #190, #302 ), #163, .T. ) ;
#145 = DATE_TIME_ROLE ( 'creation_date' ) ;
#146 = APPROVAL_DATE_TIME ( #206, #188 ) ;
#147 = AXIS2_PLACEMENT_3D ( 'NONE', #43, #164, #282 ) ;
#148 = FACE_OUTER_BOUND ( 'NONE', #85, .T. ) ;
#149 = ORIENTED_EDGE ( 'NONE', *, *, #346, .F. ) ;
#150 = AXIS2_PLACEMENT_3D ( 'NONE', #10, #274, #132 ) ;
#151 = ORIENTED_EDGE ( 'NONE', *, *, #275, .F. ) ;
#152 = EDGE_CURVE ( 'NONE', #240, #92, #301, .T. ) ;
#153 = CARTESIAN_POINT ( 'NONE',  ( 3.100000000000000089, 3.796405077356793932E-16, 180.0000000000000000 ) ) ;
#154 = VERTEX_POINT ( 'NONE', #256 ) ;
#155 = CIRCLE ( 'NONE', #354, 8.000000000000000000 ) ;
#156 = CARTESIAN_POINT ( 'NONE',  ( 8.000000000000000000, 9.797174393178825657E-16, 0.000000000000000000 ) ) ;
#157 = PERSON_AND_ORGANIZATION ( #308, #292 ) ;
#158 = CYLINDRICAL_SURFACE ( 'NONE', #296, 8.000000000000000000 ) ;
#159 = PERSON_AND_ORGANIZATION ( #308, #292 ) ;
#160 = DIRECTION ( 'NONE',  ( 0.000000000000000000, 0.000000000000000000, 1.000000000000000000 ) ) ;
#161 = AXIS2_PLACEMENT_3D ( 'NONE', #14, #167, #138 ) ;
#162 = DIRECTION ( 'NONE',  ( 0.000000000000000000, 0.000000000000000000, 1.000000000000000000 ) ) ;
#163 = PLANE ( 'NONE',  #89 ) ;
#164 = DIRECTION ( 'NONE',  ( 0.000000000000000000, 0.000000000000000000, 1.000000000000000000 ) ) ;
#165 = PRODUCT_DEFINITION_SHAPE ( 'NONE', 'NONE',  #209 ) ;
#166 = CC_DESIGN_APPROVAL ( #188, ( #209 ) ) ;
#167 = DIRECTION ( 'NONE',  ( -0.000000000000000000, -0.000000000000000000, -1.000000000000000000 ) ) ;
#168 = EDGE_LOOP ( 'NONE', ( #199, #151, #112, #235 ) ) ;
#169 = CARTESIAN_POINT ( 'NONE',  ( -8.000000000000000000, 0.000000000000000000, 0.000000000000000000 ) ) ;
#170 = PRODUCT_RELATED_PRODUCT_CATEGORY ( 'detail', '', ( #34 ) ) ;
#171 = DIRECTION ( 'NONE',  ( 1.224646799147353207E-16, 1.000000000000000000, -0.000000000000000000 ) ) ;
#172 = EDGE_LOOP ( 'NONE', ( #289, #254, #333, #116 ) ) ;
#173 = CIRCLE ( 'NONE', #197, 5.500000000000000000 ) ;
#174 = CARTESIAN_POINT ( 'NONE',  ( 0.000000000000000000, 0.000000000000000000, 180.0000000000000000 ) ) ;
#175 = ADVANCED_FACE ( 'NONE', ( #136 ), #363, .T. ) ;
#176 = CARTESIAN_POINT ( 'NONE',  ( 0.000000000000000000, 0.000000000000000000, 0.000000000000000000 ) ) ;
#177 = CIRCLE ( 'NONE', #2, 3.100000000000000089 ) ;
#178 = CARTESIAN_POINT ( 'NONE',  ( 0.000000000000000000, 0.000000000000000000, 0.000000000000000000 ) ) ;
#179 = EDGE_LOOP ( 'NONE', ( #143, #44 ) ) ;
#180 = AXIS2_PLACEMENT_3D ( 'NONE', #357, #101, #329 ) ;
#181 = ORIENTED_EDGE ( 'NONE', *, *, #336, .F. ) ;
#182 = VERTEX_POINT ( 'NONE', #307 ) ;
#183 = APPROVAL_STATUS ( 'not_yet_approved' ) ;
#184 = VERTEX_POINT ( 'NONE', #251 ) ;
#185 = DATE_AND_TIME ( #217, #372 ) ;
#186 = ORIENTED_EDGE ( 'NONE', *, *, #279, .T. ) ;
#187 = AXIS2_PLACEMENT_3D ( 'NONE', #243, #160, #125 ) ;
#188 = APPROVAL ( #183, 'NEURÈENÝ' ) ;
#189 = FACE_OUTER_BOUND ( 'NONE', #172, .T. ) ;
#190 = FACE_BOUND ( 'NONE', #140, .T. ) ;
#191 = CC_DESIGN_SECURITY_CLASSIFICATION ( #69, ( #29 ) ) ;
#192 = ADVANCED_FACE ( 'NONE', ( #250 ), #283, .T. ) ;
#193 = DIRECTION ( 'NONE',  ( 0.000000000000000000, 0.000000000000000000, 1.000000000000000000 ) ) ;
#194 = LINE ( 'NONE', #68, #358 ) ;
#195 = LINE ( 'NONE', #114, #41 ) ;
#196 = EDGE_CURVE ( 'NONE', #92, #240, #379, .T. ) ;
#197 = AXIS2_PLACEMENT_3D ( 'NONE', #65, #38, #276 ) ;
#198 = CYLINDRICAL_SURFACE ( 'NONE', #249, 3.100000000000000089 ) ;
#199 = ORIENTED_EDGE ( 'NONE', *, *, #220, .F. ) ;
#200 = CC_DESIGN_PERSON_AND_ORGANIZATION_ASSIGNMENT ( #159, #353, ( #29 ) ) ;
#201 = CARTESIAN_POINT ( 'NONE',  ( 0.000000000000000000, 0.000000000000000000, 5.500000000000005329 ) ) ;
#202 = EDGE_CURVE ( 'NONE', #154, #318, #284, .T. ) ;
#203 = DIRECTION ( 'NONE',  ( -0.000000000000000000, -0.000000000000000000, -1.000000000000000000 ) ) ;
#204 = AXIS2_PLACEMENT_3D ( 'NONE', #201, #232, #313 ) ;
#205 = CARTESIAN_POINT ( 'NONE',  ( -5.000000000000000000, 0.000000000000000000, 180.0000000000000000 ) ) ;
#206 = DATE_AND_TIME ( #234, #228 ) ;
#207 = DIRECTION ( 'NONE',  ( 1.000000000000000000, 0.000000000000000000, 0.000000000000000000 ) ) ;
#208 = ORIENTED_EDGE ( 'NONE', *, *, #90, .T. ) ;
#209 = PRODUCT_DEFINITION ( 'NEZNÁMÝ', '', #29, #119 ) ;
#210 = AXIS2_PLACEMENT_3D ( 'NONE', #109, #12, #134 ) ;
#211 = ORIENTED_EDGE ( 'NONE', *, *, #21, .F. ) ;
#212 = PERSON_AND_ORGANIZATION ( #308, #292 ) ;
#213 = CARTESIAN_POINT ( 'NONE',  ( 0.000000000000000000, 0.000000000000000000, 180.0000000000000000 ) ) ;
#214 = AXIS2_PLACEMENT_3D ( 'NONE', #293, #342, #207 ) ;
#215 = APPROVAL_STATUS ( 'not_yet_approved' ) ;
#216 = CARTESIAN_POINT ( 'NONE',  ( 3.100000000000000089, 3.796405077356793932E-16, 0.000000000000000000 ) ) ;
#217 = CALENDAR_DATE ( 2022, 10, 7 ) ;
#218 = DIRECTION ( 'NONE',  ( 0.000000000000000000, 0.000000000000000000, 1.000000000000000000 ) ) ;
#219 = CYLINDRICAL_SURFACE ( 'NONE', #180, 5.000000000000000000 ) ;
#220 = EDGE_CURVE ( 'NONE', #15, #92, #80, .T. ) ;
#221 = DIRECTION ( 'NONE',  ( -1.000000000000000000, 0.000000000000000000, 0.000000000000000000 ) ) ;
#222 = DIRECTION ( 'NONE',  ( 0.000000000000000000, 0.000000000000000000, -1.000000000000000000 ) ) ;
#223 = DIRECTION ( 'NONE',  ( 1.000000000000000000, 0.000000000000000000, 0.000000000000000000 ) ) ;
#224 = AXIS2_PLACEMENT_3D ( 'NONE', #331, #31, #103 ) ;
#225 = DIRECTION ( 'NONE',  ( -1.000000000000000000, 1.224646799147351482E-16, 0.000000000000000000 ) ) ;
#226 = CC_DESIGN_DATE_AND_TIME_ASSIGNMENT ( #380, #145, ( #209 ) ) ;
#227 = ORIENTED_EDGE ( 'NONE', *, *, #320, .T. ) ;
#228 = LOCAL_TIME ( 11, 5, 4.000000000000000000, #56 ) ;
#229 = CC_DESIGN_APPROVAL ( #328, ( #29 ) ) ;
#230 = CARTESIAN_POINT ( 'NONE',  ( 0.000000000000000000, 0.000000000000000000, 5.500000000000005329 ) ) ;
#231 = FACE_OUTER_BOUND ( 'NONE', #340, .T. ) ;
#232 = DIRECTION ( 'NONE',  ( 0.000000000000000000, 0.000000000000000000, 1.000000000000000000 ) ) ;
#233 = AXIS2_PLACEMENT_3D ( 'NONE', #253, #365, #141 ) ;
#234 = CALENDAR_DATE ( 2022, 10, 7 ) ;
#235 = ORIENTED_EDGE ( 'NONE', *, *, #152, .T. ) ;
#236 = EDGE_LOOP ( 'NONE', ( #257, #322, #208, #316 ) ) ;
#237 = EDGE_LOOP ( 'NONE', ( #79, #86, #60, #227 ) ) ;
#238 = MECHANICAL_CONTEXT ( 'NONE', #135, 'mechanical' ) ;
#239 = CIRCLE ( 'NONE', #147, 8.000000000000000000 ) ;
#240 = VERTEX_POINT ( 'NONE', #169 ) ;
#241 = DIRECTION ( 'NONE',  ( 1.000000000000000000, 0.000000000000000000, 0.000000000000000000 ) ) ;
#242 = CARTESIAN_POINT ( 'NONE',  ( 5.000000000000000000, 6.123233995736766282E-16, 180.0000000000000000 ) ) ;
#243 = CARTESIAN_POINT ( 'NONE',  ( 0.000000000000000000, 0.000000000000000000, 5.500000000000005329 ) ) ;
#244 = CIRCLE ( 'NONE', #306, 5.500000000000000000 ) ;
#245 = APPROVAL_STATUS ( 'not_yet_approved' ) ;
#246 = CARTESIAN_POINT ( 'NONE',  ( 0.000000000000000000, 0.000000000000000000, 180.0000000000000000 ) ) ;
#247 = CALENDAR_DATE ( 2022, 10, 7 ) ;
#248 = DIRECTION ( 'NONE',  ( -1.000000000000000000, 0.000000000000000000, 0.000000000000000000 ) ) ;
#249 = AXIS2_PLACEMENT_3D ( 'NONE', #82, #337, #362 ) ;
#250 = FACE_OUTER_BOUND ( 'NONE', #168, .T. ) ;
#251 = CARTESIAN_POINT ( 'NONE',  ( -3.100000000000000089, 0.000000000000000000, 0.000000000000000000 ) ) ;
#252 = ORIENTED_EDGE ( 'NONE', *, *, #152, .F. ) ;
#253 = CARTESIAN_POINT ( 'NONE',  ( 5.500000000000000000, 0.000000000000000000, 5.500000000000005329 ) ) ;
#254 = ORIENTED_EDGE ( 'NONE', *, *, #202, .T. ) ;
#255 = LOCAL_TIME ( 11, 5, 4.000000000000000000, #298 ) ;
#256 = CARTESIAN_POINT ( 'NONE',  ( -5.000000000000000000, 0.000000000000000000, 5.500000000000005329 ) ) ;
#257 = ORIENTED_EDGE ( 'NONE', *, *, #279, .F. ) ;
#258 = ADVANCED_BREP_SHAPE_REPRESENTATION ( '0f8d', ( #142, #325 ), #96 ) ;
#259 = DIRECTION ( 'NONE',  ( 1.000000000000000000, 0.000000000000000000, 0.000000000000000000 ) ) ;
#260 = VECTOR ( 'NONE', #111, 1000.000000000000000 ) ;
#261 = ADVANCED_FACE ( 'NONE', ( #231 ), #198, .F. ) ;
#262 = DIRECTION ( 'NONE',  ( 0.000000000000000000, 0.000000000000000000, 1.000000000000000000 ) ) ;
#263 = ORIENTED_EDGE ( 'NONE', *, *, #327, .T. ) ;
#264 =( NAMED_UNIT ( * ) SI_UNIT ( $, .STERADIAN. ) SOLID_ANGLE_UNIT ( ) );
#265 = CC_DESIGN_PERSON_AND_ORGANIZATION_ASSIGNMENT ( #294, #97, ( #29 ) ) ;
#266 = ORIENTED_EDGE ( 'NONE', *, *, #275, .T. ) ;
#267 = AXIS2_PLACEMENT_3D ( 'NONE', #299, #218, #326 ) ;
#268 = ORIENTED_EDGE ( 'NONE', *, *, #40, .F. ) ;
#269 = EDGE_CURVE ( 'NONE', #367, #184, #195, .T. ) ;
#270 = COORDINATED_UNIVERSAL_TIME_OFFSET ( 1, 0, .AHEAD. ) ;
#271 = VERTEX_POINT ( 'NONE', #78 ) ;
#272 = COORDINATED_UNIVERSAL_TIME_OFFSET ( 1, 0, .AHEAD. ) ;
#273 = FACE_OUTER_BOUND ( 'NONE', #373, .T. ) ;
#274 = DIRECTION ( 'NONE',  ( 0.000000000000000000, 0.000000000000000000, 1.000000000000000000 ) ) ;
#275 = EDGE_CURVE ( 'NONE', #88, #15, #239, .T. ) ;
#276 = DIRECTION ( 'NONE',  ( 1.000000000000000000, 0.000000000000000000, 0.000000000000000000 ) ) ;
#277 = DIRECTION ( 'NONE',  ( 1.000000000000000000, 0.000000000000000000, -0.000000000000000000 ) ) ;
#278 = CARTESIAN_POINT ( 'NONE',  ( 0.000000000000000000, 0.000000000000000000, 0.000000000000000000 ) ) ;
#279 = EDGE_CURVE ( 'NONE', #120, #271, #332, .T. ) ;
#280 = AXIS2_PLACEMENT_3D ( 'NONE', #174, #46, #13 ) ;
#281 = CARTESIAN_POINT ( 'NONE',  ( -8.000000000000000000, 0.000000000000000000, 5.000000000000000000 ) ) ;
#282 = DIRECTION ( 'NONE',  ( 1.000000000000000000, 0.000000000000000000, 0.000000000000000000 ) ) ;
#283 = CYLINDRICAL_SURFACE ( 'NONE', #210, 8.000000000000000000 ) ;
#284 = CIRCLE ( 'NONE', #115, 0.5000000000000004441 ) ;
#285 = CARTESIAN_POINT ( 'NONE',  ( -5.500000000000000000, 6.735557395310442023E-16, 5.500000000000005329 ) ) ;
#286 = CC_DESIGN_PERSON_AND_ORGANIZATION_ASSIGNMENT ( #64, #323, ( #69 ) ) ;
#287 = CALENDAR_DATE ( 2022, 10, 7 ) ;
#288 = VERTEX_POINT ( 'NONE', #205 ) ;
#289 = ORIENTED_EDGE ( 'NONE', *, *, #310, .F. ) ;
#290 = PERSON_AND_ORGANIZATION_ROLE ( 'creator' ) ;
#291 = ORIENTED_EDGE ( 'NONE', *, *, #21, .T. ) ;
#292 = ORGANIZATION ( 'NEURÈENÝ', 'NEURÈENÝ', '' ) ;
#293 = CARTESIAN_POINT ( 'NONE',  ( 0.000000000000000000, 0.000000000000000000, 0.000000000000000000 ) ) ;
#294 = PERSON_AND_ORGANIZATION ( #308, #292 ) ;
#295 = DIRECTION ( 'NONE',  ( -0.000000000000000000, -0.000000000000000000, -1.000000000000000000 ) ) ;
#296 = AXIS2_PLACEMENT_3D ( 'NONE', #98, #295, #248 ) ;
#297 = EDGE_CURVE ( 'NONE', #15, #88, #155, .T. ) ;
#298 = COORDINATED_UNIVERSAL_TIME_OFFSET ( 1, 0, .AHEAD. ) ;
#299 = CARTESIAN_POINT ( 'NONE',  ( 0.000000000000000000, 0.000000000000000000, 5.500000000000005329 ) ) ;
#300 = APPROVAL_ROLE ( '' ) ;
#301 = CIRCLE ( 'NONE', #360, 8.000000000000000000 ) ;
#302 = FACE_OUTER_BOUND ( 'NONE', #319, .T. ) ;
#303 = FACE_OUTER_BOUND ( 'NONE', #237, .T. ) ;
#304 = CYLINDRICAL_SURFACE ( 'NONE', #108, 3.100000000000000089 ) ;
#305 = CARTESIAN_POINT ( 'NONE',  ( 0.000000000000000000, 0.000000000000000000, 5.000000000000000000 ) ) ;
#306 = AXIS2_PLACEMENT_3D ( 'NONE', #3, #361, #106 ) ;
#307 = CARTESIAN_POINT ( 'NONE',  ( 5.500000000000000000, 0.000000000000000000, 5.000000000000002665 ) ) ;
#308 = PERSON ( 'NEURÈENÝ', 'NEURÈENÝ', 'NEURÈENÝ', ('NEURÈENÝ'), ('NEURÈENÝ'), ('NEURÈENÝ') ) ;
#309 = ORIENTED_EDGE ( 'NONE', *, *, #297, .T. ) ;
#310 = EDGE_CURVE ( 'NONE', #154, #271, #63, .T. ) ;
#311 = DIRECTION ( 'NONE',  ( 0.000000000000000000, 0.000000000000000000, 1.000000000000000000 ) ) ;
#312 = CIRCLE ( 'NONE', #150, 5.000000000000000000 ) ;
#313 = DIRECTION ( 'NONE',  ( 1.000000000000000000, 0.000000000000000000, 0.000000000000000000 ) ) ;
#314 = UNCERTAINTY_MEASURE_WITH_UNIT (LENGTH_MEASURE( 1.000000000000000082E-05 ), #22, 'distance_accuracy_value', 'NONE');
#315 = PLANE ( 'NONE',  #341 ) ;
#316 = ORIENTED_EDGE ( 'NONE', *, *, #310, .T. ) ;
#317 = APPLICATION_PROTOCOL_DEFINITION ( 'international standard', 'config_control_design', 1994, #135 ) ;
#318 = VERTEX_POINT ( 'NONE', #17 ) ;
#319 = EDGE_LOOP ( 'NONE', ( #266, #309 ) ) ;
#320 = EDGE_CURVE ( 'NONE', #184, #19, #133, .T. ) ;
#321 = FACE_BOUND ( 'NONE', #57, .T. ) ;
#322 = ORIENTED_EDGE ( 'NONE', *, *, #48, .F. ) ;
#323 = PERSON_AND_ORGANIZATION_ROLE ( 'classification_officer' ) ;
#324 = APPROVAL_DATE_TIME ( #185, #328 ) ;
#325 = AXIS2_PLACEMENT_3D ( 'NONE', #176, #18, #91 ) ;
#326 = DIRECTION ( 'NONE',  ( 1.000000000000000000, 0.000000000000000000, 0.000000000000000000 ) ) ;
#327 = EDGE_CURVE ( 'NONE', #271, #182, #347, .T. ) ;
#328 = APPROVAL ( #245, 'NEURÈENÝ' ) ;
#329 = DIRECTION ( 'NONE',  ( -1.000000000000000000, 0.000000000000000000, 0.000000000000000000 ) ) ;
#330 = LOCAL_TIME ( 11, 5, 4.000000000000000000, #270 ) ;
#331 = CARTESIAN_POINT ( 'NONE',  ( 0.000000000000000000, 0.000000000000000000, 180.0000000000000000 ) ) ;
#332 = LINE ( 'NONE', #74, #83 ) ;
#333 = ORIENTED_EDGE ( 'NONE', *, *, #126, .F. ) ;
#334 = CARTESIAN_POINT ( 'NONE',  ( 8.000000000000000000, 9.797174393178825657E-16, 5.000000000000000000 ) ) ;
#335 = APPROVAL_PERSON_ORGANIZATION ( #212, #188, #87 ) ;
#336 = EDGE_CURVE ( 'NONE', #88, #240, #39, .T. ) ;
#337 = DIRECTION ( 'NONE',  ( 0.000000000000000000, 0.000000000000000000, -1.000000000000000000 ) ) ;
#338 = CC_DESIGN_PERSON_AND_ORGANIZATION_ASSIGNMENT ( #49, #348, ( #34 ) ) ;
#339 = CARTESIAN_POINT ( 'NONE',  ( 0.000000000000000000, 0.000000000000000000, 0.000000000000000000 ) ) ;
#340 = EDGE_LOOP ( 'NONE', ( #54, #27, #291, #110 ) ) ;
#341 = AXIS2_PLACEMENT_3D ( 'NONE', #178, #262, #84 ) ;
#342 = DIRECTION ( 'NONE',  ( -0.000000000000000000, -0.000000000000000000, -1.000000000000000000 ) ) ;
#343 = ORIENTED_EDGE ( 'NONE', *, *, #105, .F. ) ;
#344 = TOROIDAL_SURFACE ( 'NONE', #267, 5.500000000000000000, 0.5000000000000000000 ) ;
#345 = ORIENTED_EDGE ( 'NONE', *, *, #202, .F. ) ;
#346 = EDGE_CURVE ( 'NONE', #271, #154, #104, .T. ) ;
#347 = CIRCLE ( 'NONE', #233, 0.5000000000000004441 ) ;
#348 = PERSON_AND_ORGANIZATION_ROLE ( 'design_owner' ) ;
#349 = ORIENTED_EDGE ( 'NONE', *, *, #48, .T. ) ;
#350 = CARTESIAN_POINT ( 'NONE',  ( 8.000000000000000000, 9.797174393178825657E-16, 5.000000000000000000 ) ) ;
#351 = VECTOR ( 'NONE', #7, 1000.000000000000000 ) ;
#352 = ADVANCED_FACE ( 'NONE', ( #321, #148 ), #315, .F. ) ;
#353 = PERSON_AND_ORGANIZATION_ROLE ( 'design_supplier' ) ;
#354 = AXIS2_PLACEMENT_3D ( 'NONE', #305, #76, #42 ) ;
#355 = FACE_OUTER_BOUND ( 'NONE', #374, .T. ) ;
#356 = DATE_AND_TIME ( #247, #139 ) ;
#357 = CARTESIAN_POINT ( 'NONE',  ( 0.000000000000000000, 0.000000000000000000, 180.0000000000000000 ) ) ;
#358 = VECTOR ( 'NONE', #222, 1000.000000000000000 ) ;
#359 = PLANE ( 'NONE',  #25 ) ;
#360 = AXIS2_PLACEMENT_3D ( 'NONE', #278, #130, #223 ) ;
#361 = DIRECTION ( 'NONE',  ( -0.000000000000000000, -0.000000000000000000, -1.000000000000000000 ) ) ;
#362 = DIRECTION ( 'NONE',  ( -1.000000000000000000, 0.000000000000000000, 0.000000000000000000 ) ) ;
#363 = CYLINDRICAL_SURFACE ( 'NONE', #280, 5.000000000000000000 ) ;
#364 = VERTEX_POINT ( 'NONE', #153 ) ;
#365 = DIRECTION ( 'NONE',  ( 0.000000000000000000, -1.000000000000000000, 0.000000000000000000 ) ) ;
#366 = AXIS2_PLACEMENT_3D ( 'NONE', #230, #311, #371 ) ;
#367 = VERTEX_POINT ( 'NONE', #58 ) ;
#368 = DIRECTION ( 'NONE',  ( 0.000000000000000000, 0.000000000000000000, 1.000000000000000000 ) ) ;
#369 = DIRECTION ( 'NONE',  ( -0.000000000000000000, -0.000000000000000000, -1.000000000000000000 ) ) ;
#370 = CIRCLE ( 'NONE', #375, 3.100000000000000089 ) ;
#371 = DIRECTION ( 'NONE',  ( 1.000000000000000000, 0.000000000000000000, 0.000000000000000000 ) ) ;
#372 = LOCAL_TIME ( 11, 5, 4.000000000000000000, #272 ) ;
#373 = EDGE_LOOP ( 'NONE', ( #349, #81 ) ) ;
#374 = EDGE_LOOP ( 'NONE', ( #268, #186, #123, #24 ) ) ;
#375 = AXIS2_PLACEMENT_3D ( 'NONE', #93, #30, #259 ) ;
#376 = PERSON_AND_ORGANIZATION ( #308, #292 ) ;
#377 = EDGE_LOOP ( 'NONE', ( #77, #62, #23, #181 ) ) ;
#378 = CC_DESIGN_DATE_AND_TIME_ASSIGNMENT ( #37, #32, ( #69 ) ) ;
#379 = CIRCLE ( 'NONE', #75, 8.000000000000000000 ) ;
#380 = DATE_AND_TIME ( #287, #330 ) ;
#381 = DIRECTION ( 'NONE',  ( 0.000000000000000000, 0.000000000000000000, 1.000000000000000000 ) ) ;
ENDSEC;
END-ISO-10303-21;
