ISO-10303-21;
HEADER;
FILE_DESCRIPTION (( 'STEP AP203' ),
    '1' );
FILE_NAME ('cdbc.STEP',
    '2022-07-10T09:15:17',
    ( '' ),
    ( '' ),
    'SwSTEP 2.0',
    'SolidWorks 2019',
    '' );
FILE_SCHEMA (( 'CONFIG_CONTROL_DESIGN' ));
ENDSEC;

DATA;
#1 = VERTEX_POINT ( 'NONE', #334 ) ;
#2 = LOCAL_TIME ( 11, 15, 17.00000000000000000, #39 ) ;
#3 = APPROVAL_STATUS ( 'not_yet_approved' ) ;
#4 = CARTESIAN_POINT ( 'NONE',  ( 3.000000000000000444, 3.673940397442060361E-16, 155.0000000000000000 ) ) ;
#5 = SECURITY_CLASSIFICATION_LEVEL ( 'unclassified' ) ;
#6 = CLOSED_SHELL ( 'NONE', ( #166, #96, #351, #57, #308, #134, #218, #163, #348, #29, #120 ) ) ;
#7 = DIRECTION ( 'NONE',  ( 0.000000000000000000, 0.000000000000000000, -1.000000000000000000 ) ) ;
#8 = APPLICATION_PROTOCOL_DEFINITION ( 'international standard', 'config_control_design', 1994, #277 ) ;
#9 = AXIS2_PLACEMENT_3D ( 'NONE', #117, #256, #260 ) ;
#10 = APPROVAL_PERSON_ORGANIZATION ( #210, #196, #109 ) ;
#11 = ORIENTED_EDGE ( 'NONE', *, *, #272, .T. ) ;
#12 = PERSON_AND_ORGANIZATION_ROLE ( 'creator' ) ;
#13 = APPROVAL ( #129, 'NEURÈENÝ' ) ;
#14 = DIRECTION ( 'NONE',  ( 1.000000000000000000, 0.000000000000000000, 0.000000000000000000 ) ) ;
#15 = APPLICATION_PROTOCOL_DEFINITION ( 'international standard', 'config_control_design', 1994, #83 ) ;
#16 = AXIS2_PLACEMENT_3D ( 'NONE', #340, #132, #14 ) ;
#17 = CARTESIAN_POINT ( 'NONE',  ( 0.000000000000000000, 0.000000000000000000, 155.0000000000000000 ) ) ;
#18 = AXIS2_PLACEMENT_3D ( 'NONE', #127, #207, #237 ) ;
#19 = EDGE_CURVE ( 'NONE', #212, #152, #164, .T. ) ;
#20 = LINE ( 'NONE', #248, #293 ) ;
#21 = AXIS2_PLACEMENT_3D ( 'NONE', #266, #326, #102 ) ;
#22 = DIRECTION ( 'NONE',  ( 1.000000000000000000, 0.000000000000000000, 0.000000000000000000 ) ) ;
#23 = CC_DESIGN_PERSON_AND_ORGANIZATION_ASSIGNMENT ( #366, #36, ( #339 ) ) ;
#24 = DIRECTION ( 'NONE',  ( -0.000000000000000000, -0.000000000000000000, -1.000000000000000000 ) ) ;
#25 = CARTESIAN_POINT ( 'NONE',  ( 1.750000000000000000, 2.143131898507868297E-16, 155.0000000000000000 ) ) ;
#26 = ORIENTED_EDGE ( 'NONE', *, *, #53, .F. ) ;
#27 = CIRCLE ( 'NONE', #18, 6.000000000000000888 ) ;
#28 = CC_DESIGN_APPROVAL ( #13, ( #179 ) ) ;
#29 = ADVANCED_FACE ( 'NONE', ( #128 ), #313, .F. ) ;
#30 = CARTESIAN_POINT ( 'NONE',  ( 0.000000000000000000, 0.000000000000000000, 155.0000000000000000 ) ) ;
#31 = EDGE_LOOP ( 'NONE', ( #110, #209, #329, #131 ) ) ;
#32 = DIRECTION ( 'NONE',  ( -0.000000000000000000, -0.000000000000000000, -1.000000000000000000 ) ) ;
#33 = AXIS2_PLACEMENT_3D ( 'NONE', #41, #168, #158 ) ;
#34 = VERTEX_POINT ( 'NONE', #185 ) ;
#35 = EDGE_CURVE ( 'NONE', #290, #240, #233, .T. ) ;
#36 = PERSON_AND_ORGANIZATION_ROLE ( 'design_owner' ) ;
#37 = CYLINDRICAL_SURFACE ( 'NONE', #21, 6.000000000000000888 ) ;
#38 = EDGE_LOOP ( 'NONE', ( #26, #149 ) ) ;
#39 = COORDINATED_UNIVERSAL_TIME_OFFSET ( 1, 0, .AHEAD. ) ;
#40 = FACE_OUTER_BOUND ( 'NONE', #216, .T. ) ;
#41 = CARTESIAN_POINT ( 'NONE',  ( 0.000000000000000000, 0.000000000000000000, 5.000000000000000000 ) ) ;
#42 = EDGE_CURVE ( 'NONE', #125, #238, #332, .T. ) ;
#43 = AXIS2_PLACEMENT_3D ( 'NONE', #228, #24, #176 ) ;
#44 = FACE_OUTER_BOUND ( 'NONE', #306, .T. ) ;
#45 = DIRECTION ( 'NONE',  ( 1.000000000000000000, 0.000000000000000000, 0.000000000000000000 ) ) ;
#46 = DESIGN_CONTEXT ( 'detailed design', #277, 'design' ) ;
#47 = ORIENTED_EDGE ( 'NONE', *, *, #64, .F. ) ;
#48 = AXIS2_PLACEMENT_3D ( 'NONE', #69, #115, #201 ) ;
#49 = LOCAL_TIME ( 11, 15, 17.00000000000000000, #106 ) ;
#50 =( LENGTH_UNIT ( ) NAMED_UNIT ( * ) SI_UNIT ( .MILLI., .METRE. ) );
#51 = CYLINDRICAL_SURFACE ( 'NONE', #33, 6.000000000000000888 ) ;
#52 = FACE_OUTER_BOUND ( 'NONE', #180, .T. ) ;
#53 = EDGE_CURVE ( 'NONE', #212, #295, #380, .T. ) ;
#54 = DIRECTION ( 'NONE',  ( 0.000000000000000000, 0.000000000000000000, 1.000000000000000000 ) ) ;
#55 = DIRECTION ( 'NONE',  ( -1.000000000000000000, 0.000000000000000000, 0.000000000000000000 ) ) ;
#56 = ORIENTED_EDGE ( 'NONE', *, *, #171, .T. ) ;
#57 = ADVANCED_FACE ( 'NONE', ( #44 ), #51, .T. ) ;
#58 = DIRECTION ( 'NONE',  ( -1.000000000000000000, 0.000000000000000000, 0.000000000000000000 ) ) ;
#59 = ORIENTED_EDGE ( 'NONE', *, *, #378, .F. ) ;
#60 = VECTOR ( 'NONE', #93, 1000.000000000000000 ) ;
#61 = DIRECTION ( 'NONE',  ( 0.000000000000000000, 0.000000000000000000, 1.000000000000000000 ) ) ;
#62 = EDGE_LOOP ( 'NONE', ( #78, #11 ) ) ;
#63 = APPROVAL_DATE_TIME ( #156, #13 ) ;
#64 = EDGE_CURVE ( 'NONE', #91, #119, #82, .T. ) ;
#65 = ORIENTED_EDGE ( 'NONE', *, *, #111, .F. ) ;
#66 = APPROVAL_DATE_TIME ( #70, #338 ) ;
#67 = CARTESIAN_POINT ( 'NONE',  ( 1.750000000000000000, 2.143131898507868297E-16, 155.0000000000000000 ) ) ;
#68 = AXIS2_PLACEMENT_3D ( 'NONE', #204, #182, #148 ) ;
#69 = CARTESIAN_POINT ( 'NONE',  ( 0.000000000000000000, 0.000000000000000000, 5.299999999999998934 ) ) ;
#70 = DATE_AND_TIME ( #217, #2 ) ;
#71 = DIRECTION ( 'NONE',  ( 0.000000000000000000, 0.000000000000000000, 1.000000000000000000 ) ) ;
#72 = ORIENTED_EDGE ( 'NONE', *, *, #42, .F. ) ;
#73 = FACE_OUTER_BOUND ( 'NONE', #327, .T. ) ;
#74 = CARTESIAN_POINT ( 'NONE',  ( 0.000000000000000000, 0.000000000000000000, 5.299999999999998934 ) ) ;
#75 = PERSON_AND_ORGANIZATION_ROLE ( 'design_supplier' ) ;
#76 = AXIS2_PLACEMENT_3D ( 'NONE', #177, #239, #130 ) ;
#77 = UNCERTAINTY_MEASURE_WITH_UNIT (LENGTH_MEASURE( 1.000000000000000082E-05 ), #50, 'distance_accuracy_value', 'NONE');
#78 = ORIENTED_EDGE ( 'NONE', *, *, #42, .T. ) ;
#79 = FACE_OUTER_BOUND ( 'NONE', #245, .T. ) ;
#80 = EDGE_CURVE ( 'NONE', #119, #200, #20, .T. ) ;
#81 = DIRECTION ( 'NONE',  ( 0.000000000000000000, 0.000000000000000000, -1.000000000000000000 ) ) ;
#82 = CIRCLE ( 'NONE', #367, 6.000000000000000888 ) ;
#83 = APPLICATION_CONTEXT ( 'configuration controlled 3d designs of mechanical parts and assemblies' ) ;
#84 = FACE_OUTER_BOUND ( 'NONE', #379, .T. ) ;
#85 = VECTOR ( 'NONE', #310, 1000.000000000000000 ) ;
#86 = LINE ( 'NONE', #4, #60 ) ;
#87 = EDGE_CURVE ( 'NONE', #152, #34, #343, .T. ) ;
#88 = CARTESIAN_POINT ( 'NONE',  ( -3.000000000000000444, 0.000000000000000000, 155.0000000000000000 ) ) ;
#89 = AXIS2_PLACEMENT_3D ( 'NONE', #74, #301, #136 ) ;
#90 = DIRECTION ( 'NONE',  ( 0.000000000000000000, 0.000000000000000000, 1.000000000000000000 ) ) ;
#91 = VERTEX_POINT ( 'NONE', #219 ) ;
#92 = SECURITY_CLASSIFICATION ( '', '', #5 ) ;
#93 = DIRECTION ( 'NONE',  ( -0.000000000000000000, -0.000000000000000000, -1.000000000000000000 ) ) ;
#94 = ORIENTED_EDGE ( 'NONE', *, *, #284, .F. ) ;
#95 = COORDINATED_UNIVERSAL_TIME_OFFSET ( 1, 0, .AHEAD. ) ;
#96 = ADVANCED_FACE ( 'NONE', ( #79 ), #113, .F. ) ;
#97 = ORIENTED_EDGE ( 'NONE', *, *, #294, .F. ) ;
#98 = AXIS2_PLACEMENT_3D ( 'NONE', #172, #61, #199 ) ;
#99 = ORIENTED_EDGE ( 'NONE', *, *, #284, .T. ) ;
#100 = DATE_TIME_ROLE ( 'classification_date' ) ;
#101 = VECTOR ( 'NONE', #347, 1000.000000000000000 ) ;
#102 = DIRECTION ( 'NONE',  ( -1.000000000000000000, 0.000000000000000000, 0.000000000000000000 ) ) ;
#103 = EDGE_LOOP ( 'NONE', ( #302, #267 ) ) ;
#104 = APPROVAL_ROLE ( '' ) ;
#105 = DIRECTION ( 'NONE',  ( 0.000000000000000000, 0.000000000000000000, 1.000000000000000000 ) ) ;
#106 = COORDINATED_UNIVERSAL_TIME_OFFSET ( 1, 0, .AHEAD. ) ;
#107 = CC_DESIGN_APPROVAL ( #338, ( #278 ) ) ;
#108 = EDGE_CURVE ( 'NONE', #286, #290, #333, .T. ) ;
#109 = APPROVAL_ROLE ( '' ) ;
#110 = ORIENTED_EDGE ( 'NONE', *, *, #53, .T. ) ;
#111 = EDGE_CURVE ( 'NONE', #286, #1, #257, .T. ) ;
#112 = CARTESIAN_POINT ( 'NONE',  ( -1.750000000000000000, 0.000000000000000000, 0.000000000000000000 ) ) ;
#113 = TOROIDAL_SURFACE ( 'NONE', #98, 3.300000000000000266, 0.2999999999999999889 ) ;
#114 = LINE ( 'NONE', #25, #101 ) ;
#115 = DIRECTION ( 'NONE',  ( 0.000000000000000000, 0.000000000000000000, 1.000000000000000000 ) ) ;
#116 = ORIENTED_EDGE ( 'NONE', *, *, #320, .T. ) ;
#117 = CARTESIAN_POINT ( 'NONE',  ( 0.000000000000000000, 0.000000000000000000, 0.000000000000000000 ) ) ;
#118 = DIRECTION ( 'NONE',  ( 0.000000000000000000, 0.000000000000000000, 1.000000000000000000 ) ) ;
#119 = VERTEX_POINT ( 'NONE', #226 ) ;
#120 = ADVANCED_FACE ( 'NONE', ( #52 ), #291, .F. ) ;
#121 = AXIS2_PLACEMENT_3D ( 'NONE', #274, #118, #221 ) ;
#122 = DIRECTION ( 'NONE',  ( 1.000000000000000000, 0.000000000000000000, 0.000000000000000000 ) ) ;
#123 = ORIENTED_EDGE ( 'NONE', *, *, #175, .T. ) ;
#124 = FACE_OUTER_BOUND ( 'NONE', #62, .T. ) ;
#125 = VERTEX_POINT ( 'NONE', #312 ) ;
#126 = PERSON_AND_ORGANIZATION_ROLE ( 'creator' ) ;
#127 = CARTESIAN_POINT ( 'NONE',  ( 0.000000000000000000, 0.000000000000000000, 0.000000000000000000 ) ) ;
#128 = FACE_OUTER_BOUND ( 'NONE', #155, .T. ) ;
#129 = APPROVAL_STATUS ( 'not_yet_approved' ) ;
#130 = DIRECTION ( 'NONE',  ( 1.000000000000000000, 0.000000000000000000, -0.000000000000000000 ) ) ;
#131 = ORIENTED_EDGE ( 'NONE', *, *, #19, .F. ) ;
#132 = DIRECTION ( 'NONE',  ( -0.000000000000000000, -0.000000000000000000, -1.000000000000000000 ) ) ;
#133 = COORDINATED_UNIVERSAL_TIME_OFFSET ( 1, 0, .AHEAD. ) ;
#134 = ADVANCED_FACE ( 'NONE', ( #282, #317 ), #229, .T. ) ;
#135 = DIRECTION ( 'NONE',  ( 1.000000000000000000, 0.000000000000000000, 0.000000000000000000 ) ) ;
#136 = DIRECTION ( 'NONE',  ( 1.000000000000000000, 0.000000000000000000, 0.000000000000000000 ) ) ;
#137 = AXIS2_PLACEMENT_3D ( 'NONE', #287, #342, #81 ) ;
#138 = FACE_BOUND ( 'NONE', #141, .T. ) ;
#139 = FACE_OUTER_BOUND ( 'NONE', #31, .T. ) ;
#140 = CARTESIAN_POINT ( 'NONE',  ( 0.000000000000000000, 0.000000000000000000, 155.0000000000000000 ) ) ;
#141 = EDGE_LOOP ( 'NONE', ( #178, #261 ) ) ;
#142 = APPROVAL_PERSON_ORGANIZATION ( #213, #338, #159 ) ;
#143 = CARTESIAN_POINT ( 'NONE',  ( 0.000000000000000000, 0.000000000000000000, 5.000000000000000000 ) ) ;
#144 = CYLINDRICAL_SURFACE ( 'NONE', #191, 1.750000000000000000 ) ;
#145 = EDGE_CURVE ( 'NONE', #1, #240, #359, .T. ) ;
#146 = AXIS2_PLACEMENT_3D ( 'NONE', #304, #105, #372 ) ;
#147 = ORIENTED_EDGE ( 'NONE', *, *, #188, .F. ) ;
#148 = DIRECTION ( 'NONE',  ( 1.000000000000000000, 0.000000000000000000, 0.000000000000000000 ) ) ;
#149 = ORIENTED_EDGE ( 'NONE', *, *, #227, .F. ) ;
#150 = PERSON_AND_ORGANIZATION ( #315, #289 ) ;
#151 = CARTESIAN_POINT ( 'NONE',  ( 0.000000000000000000, 0.000000000000000000, 155.0000000000000000 ) ) ;
#152 = VERTEX_POINT ( 'NONE', #112 ) ;
#153 = PERSON_AND_ORGANIZATION ( #315, #289 ) ;
#154 = FACE_BOUND ( 'NONE', #38, .T. ) ;
#155 = EDGE_LOOP ( 'NONE', ( #365, #259, #324, #97 ) ) ;
#156 = DATE_AND_TIME ( #357, #197 ) ;
#157 = CARTESIAN_POINT ( 'NONE',  ( 0.000000000000000000, 0.000000000000000000, 5.299999999999998934 ) ) ;
#158 = DIRECTION ( 'NONE',  ( -1.000000000000000000, 0.000000000000000000, 0.000000000000000000 ) ) ;
#159 = APPROVAL_ROLE ( '' ) ;
#160 = CIRCLE ( 'NONE', #192, 3.000000000000000444 ) ;
#161 = DIRECTION ( 'NONE',  ( -0.000000000000000000, -0.000000000000000000, -1.000000000000000000 ) ) ;
#162 = DIRECTION ( 'NONE',  ( 0.000000000000000000, 0.000000000000000000, 1.000000000000000000 ) ) ;
#163 = ADVANCED_FACE ( 'NONE', ( #84 ), #231, .T. ) ;
#164 = LINE ( 'NONE', #270, #355 ) ;
#165 = SHAPE_DEFINITION_REPRESENTATION ( #370, #296 ) ;
#166 = ADVANCED_FACE ( 'NONE', ( #139 ), #144, .F. ) ;
#167 = AXIS2_PLACEMENT_3D ( 'NONE', #17, #183, #135 ) ;
#168 = DIRECTION ( 'NONE',  ( -0.000000000000000000, -0.000000000000000000, -1.000000000000000000 ) ) ;
#169 = DIRECTION ( 'NONE',  ( 0.000000000000000000, 0.000000000000000000, -1.000000000000000000 ) ) ;
#170 = DIRECTION ( 'NONE',  ( 1.000000000000000000, 0.000000000000000000, 0.000000000000000000 ) ) ;
#171 = EDGE_CURVE ( 'NONE', #119, #91, #297, .T. ) ;
#172 = CARTESIAN_POINT ( 'NONE',  ( 0.000000000000000000, 0.000000000000000000, 5.299999999999998934 ) ) ;
#173 = ORIENTED_EDGE ( 'NONE', *, *, #19, .T. ) ;
#174 = DIRECTION ( 'NONE',  ( 0.000000000000000000, 0.000000000000000000, 1.000000000000000000 ) ) ;
#175 = EDGE_CURVE ( 'NONE', #125, #290, #381, .T. ) ;
#176 = DIRECTION ( 'NONE',  ( 1.000000000000000000, 0.000000000000000000, 0.000000000000000000 ) ) ;
#177 = CARTESIAN_POINT ( 'NONE',  ( 0.000000000000000000, 0.000000000000000000, 155.0000000000000000 ) ) ;
#178 = ORIENTED_EDGE ( 'NONE', *, *, #87, .F. ) ;
#179 = PRODUCT_DEFINITION_FORMATION_WITH_SPECIFIED_SOURCE ( 'LIBOVOLNÝ', '', #339, .NOT_KNOWN. ) ;
#180 = EDGE_LOOP ( 'NONE', ( #321, #193, #173, #280 ) ) ;
#181 = DATE_TIME_ROLE ( 'creation_date' ) ;
#182 = DIRECTION ( 'NONE',  ( -0.000000000000000000, -0.000000000000000000, -1.000000000000000000 ) ) ;
#183 = DIRECTION ( 'NONE',  ( 0.000000000000000000, 0.000000000000000000, 1.000000000000000000 ) ) ;
#184 = PERSON_AND_ORGANIZATION ( #315, #289 ) ;
#185 = CARTESIAN_POINT ( 'NONE',  ( 1.750000000000000000, 2.143131898507868297E-16, 0.000000000000000000 ) ) ;
#186 = CALENDAR_DATE ( 2022, 10, 7 ) ;
#187 = AXIS2_PLACEMENT_3D ( 'NONE', #140, #54, #170 ) ;
#188 = EDGE_CURVE ( 'NONE', #91, #263, #314, .T. ) ;
#189 = CARTESIAN_POINT ( 'NONE',  ( 0.000000000000000000, 0.000000000000000000, 5.000000000000000000 ) ) ;
#190 = EDGE_CURVE ( 'NONE', #34, #152, #202, .T. ) ;
#191 = AXIS2_PLACEMENT_3D ( 'NONE', #198, #349, #58 ) ;
#192 = AXIS2_PLACEMENT_3D ( 'NONE', #151, #71, #364 ) ;
#193 = ORIENTED_EDGE ( 'NONE', *, *, #227, .T. ) ;
#194 = CARTESIAN_POINT ( 'NONE',  ( 0.000000000000000000, 0.000000000000000000, 5.000000000000000000 ) ) ;
#195 = DIRECTION ( 'NONE',  ( -1.000000000000000000, 0.000000000000000000, 0.000000000000000000 ) ) ;
#196 = APPROVAL ( #328, 'NEURÈENÝ' ) ;
#197 = LOCAL_TIME ( 11, 15, 17.00000000000000000, #95 ) ;
#198 = CARTESIAN_POINT ( 'NONE',  ( 0.000000000000000000, 0.000000000000000000, 155.0000000000000000 ) ) ;
#199 = DIRECTION ( 'NONE',  ( 1.000000000000000000, 0.000000000000000000, 0.000000000000000000 ) ) ;
#200 = VERTEX_POINT ( 'NONE', #376 ) ;
#201 = DIRECTION ( 'NONE',  ( 1.000000000000000000, 0.000000000000000000, 0.000000000000000000 ) ) ;
#202 = CIRCLE ( 'NONE', #9, 1.750000000000000000 ) ;
#203 = ORIENTED_EDGE ( 'NONE', *, *, #175, .F. ) ;
#204 = CARTESIAN_POINT ( 'NONE',  ( 0.000000000000000000, 0.000000000000000000, 5.000000000000000000 ) ) ;
#205 = ORIENTED_EDGE ( 'NONE', *, *, #145, .F. ) ;
#206 = CARTESIAN_POINT ( 'NONE',  ( 0.000000000000000000, 0.000000000000000000, 0.000000000000000000 ) ) ;
#207 = DIRECTION ( 'NONE',  ( 0.000000000000000000, 0.000000000000000000, 1.000000000000000000 ) ) ;
#208 = CC_DESIGN_PERSON_AND_ORGANIZATION_ASSIGNMENT ( #335, #75, ( #179 ) ) ;
#209 = ORIENTED_EDGE ( 'NONE', *, *, #244, .T. ) ;
#210 = PERSON_AND_ORGANIZATION ( #315, #289 ) ;
#211 = AXIS2_PLACEMENT_3D ( 'NONE', #206, #325, #45 ) ;
#212 = VERTEX_POINT ( 'NONE', #234 ) ;
#213 = PERSON_AND_ORGANIZATION ( #315, #289 ) ;
#214 = CARTESIAN_POINT ( 'NONE',  ( 6.000000000000000888, 7.347880794884120722E-16, 0.000000000000000000 ) ) ;
#215 = AXIS2_PLACEMENT_3D ( 'NONE', #276, #368, #224 ) ;
#216 = EDGE_LOOP ( 'NONE', ( #147, #336, #292, #361 ) ) ;
#217 = CALENDAR_DATE ( 2022, 10, 7 ) ;
#218 = ADVANCED_FACE ( 'NONE', ( #138, #285 ), #350, .F. ) ;
#219 = CARTESIAN_POINT ( 'NONE',  ( 6.000000000000000888, 7.347880794884120722E-16, 5.000000000000000000 ) ) ;
#220 = AXIS2_PLACEMENT_3D ( 'NONE', #253, #373, #311 ) ;
#221 = DIRECTION ( 'NONE',  ( 1.000000000000000000, 0.000000000000000000, 0.000000000000000000 ) ) ;
#222 = AXIS2_PLACEMENT_3D ( 'NONE', #30, #32, #55 ) ;
#223 = LOCAL_TIME ( 11, 15, 17.00000000000000000, #268 ) ;
#224 = DIRECTION ( 'NONE',  ( -1.000000000000000000, 1.224646799147353207E-16, 0.000000000000000000 ) ) ;
#225 = DATE_AND_TIME ( #337, #49 ) ;
#226 = CARTESIAN_POINT ( 'NONE',  ( -6.000000000000000888, 0.000000000000000000, 5.000000000000000000 ) ) ;
#227 = EDGE_CURVE ( 'NONE', #295, #212, #360, .T. ) ;
#228 = CARTESIAN_POINT ( 'NONE',  ( 0.000000000000000000, 0.000000000000000000, 5.000000000000000000 ) ) ;
#229 = PLANE ( 'NONE',  #288 ) ;
#230 = CIRCLE ( 'NONE', #68, 3.300000000000000266 ) ;
#231 = CYLINDRICAL_SURFACE ( 'NONE', #222, 3.000000000000000444 ) ;
#232 = ORIENTED_EDGE ( 'NONE', *, *, #320, .F. ) ;
#233 = CIRCLE ( 'NONE', #215, 0.2999999999999999334 ) ;
#234 = CARTESIAN_POINT ( 'NONE',  ( -1.750000000000000000, 0.000000000000000000, 155.0000000000000000 ) ) ;
#235 = CIRCLE ( 'NONE', #242, 3.000000000000000444 ) ;
#236 = ORIENTED_EDGE ( 'NONE', *, *, #188, .T. ) ;
#237 = DIRECTION ( 'NONE',  ( 1.000000000000000000, 0.000000000000000000, 0.000000000000000000 ) ) ;
#238 = VERTEX_POINT ( 'NONE', #254 ) ;
#239 = DIRECTION ( 'NONE',  ( 0.000000000000000000, 0.000000000000000000, 1.000000000000000000 ) ) ;
#240 = VERTEX_POINT ( 'NONE', #375 ) ;
#241 = ORIENTED_EDGE ( 'NONE', *, *, #64, .T. ) ;
#242 = AXIS2_PLACEMENT_3D ( 'NONE', #157, #271, #122 ) ;
#243 = CALENDAR_DATE ( 2022, 10, 7 ) ;
#244 = EDGE_CURVE ( 'NONE', #295, #34, #114, .T. ) ;
#245 = EDGE_LOOP ( 'NONE', ( #232, #353, #205, #65 ) ) ;
#246 = ORIENTED_EDGE ( 'NONE', *, *, #108, .T. ) ;
#247 = VECTOR ( 'NONE', #258, 1000.000000000000000 ) ;
#248 = CARTESIAN_POINT ( 'NONE',  ( -6.000000000000000888, 0.000000000000000000, 5.000000000000000000 ) ) ;
#249 = CIRCLE ( 'NONE', #121, 6.000000000000000888 ) ;
#250 = ORIENTED_EDGE ( 'NONE', *, *, #255, .T. ) ;
#251 = MANIFOLD_SOLID_BREP ( 'Odebrat vysunutím3', #6 ) ;
#252 = CC_DESIGN_DATE_AND_TIME_ASSIGNMENT ( #299, #181, ( #278 ) ) ;
#253 = CARTESIAN_POINT ( 'NONE',  ( 0.000000000000000000, 0.000000000000000000, 0.000000000000000000 ) ) ;
#254 = CARTESIAN_POINT ( 'NONE',  ( 3.000000000000000444, 3.673940397442060361E-16, 155.0000000000000000 ) ) ;
#255 = EDGE_CURVE ( 'NONE', #238, #286, #86, .T. ) ;
#256 = DIRECTION ( 'NONE',  ( -0.000000000000000000, -0.000000000000000000, -1.000000000000000000 ) ) ;
#257 = CIRCLE ( 'NONE', #137, 0.2999999999999999334 ) ;
#258 = DIRECTION ( 'NONE',  ( -0.000000000000000000, -0.000000000000000000, -1.000000000000000000 ) ) ;
#259 = ORIENTED_EDGE ( 'NONE', *, *, #108, .F. ) ;
#260 = DIRECTION ( 'NONE',  ( 1.000000000000000000, 0.000000000000000000, 0.000000000000000000 ) ) ;
#261 = ORIENTED_EDGE ( 'NONE', *, *, #190, .F. ) ;
#262 =( GEOMETRIC_REPRESENTATION_CONTEXT ( 3 ) GLOBAL_UNCERTAINTY_ASSIGNED_CONTEXT ( ( #77 ) ) GLOBAL_UNIT_ASSIGNED_CONTEXT ( ( #50, #354, #352 ) ) REPRESENTATION_CONTEXT ( 'NONE', 'WORKASPACE' ) );
#263 = VERTEX_POINT ( 'NONE', #214 ) ;
#264 = APPROVAL_PERSON_ORGANIZATION ( #150, #13, #104 ) ;
#265 = CC_DESIGN_DATE_AND_TIME_ASSIGNMENT ( #305, #100, ( #92 ) ) ;
#266 = CARTESIAN_POINT ( 'NONE',  ( 0.000000000000000000, 0.000000000000000000, 5.000000000000000000 ) ) ;
#267 = ORIENTED_EDGE ( 'NONE', *, *, #294, .T. ) ;
#268 = COORDINATED_UNIVERSAL_TIME_OFFSET ( 1, 0, .AHEAD. ) ;
#269 = CARTESIAN_POINT ( 'NONE',  ( 0.000000000000000000, 0.000000000000000000, 155.0000000000000000 ) ) ;
#270 = CARTESIAN_POINT ( 'NONE',  ( -1.750000000000000000, 0.000000000000000000, 155.0000000000000000 ) ) ;
#271 = DIRECTION ( 'NONE',  ( 0.000000000000000000, 0.000000000000000000, 1.000000000000000000 ) ) ;
#272 = EDGE_CURVE ( 'NONE', #238, #125, #160, .T. ) ;
#273 = ORIENTED_EDGE ( 'NONE', *, *, #272, .F. ) ;
#274 = CARTESIAN_POINT ( 'NONE',  ( 0.000000000000000000, 0.000000000000000000, 0.000000000000000000 ) ) ;
#275 = DIRECTION ( 'NONE',  ( 1.000000000000000000, 0.000000000000000000, 0.000000000000000000 ) ) ;
#276 = CARTESIAN_POINT ( 'NONE',  ( -3.300000000000000266, 4.041334437186266003E-16, 5.299999999999998934 ) ) ;
#277 = APPLICATION_CONTEXT ( 'configuration controlled 3d designs of mechanical parts and assemblies' ) ;
#278 = PRODUCT_DEFINITION ( 'NEZNÁMÝ', '', #179, #46 ) ;
#279 = AXIS2_PLACEMENT_3D ( 'NONE', #283, #169, #195 ) ;
#280 = ORIENTED_EDGE ( 'NONE', *, *, #87, .T. ) ;
#281 = CC_DESIGN_PERSON_AND_ORGANIZATION_ASSIGNMENT ( #184, #12, ( #179 ) ) ;
#282 = FACE_BOUND ( 'NONE', #103, .T. ) ;
#283 = CARTESIAN_POINT ( 'NONE',  ( 0.000000000000000000, 0.000000000000000000, 155.0000000000000000 ) ) ;
#284 = EDGE_CURVE ( 'NONE', #263, #200, #27, .T. ) ;
#285 = FACE_OUTER_BOUND ( 'NONE', #298, .T. ) ;
#286 = VERTEX_POINT ( 'NONE', #300 ) ;
#287 = CARTESIAN_POINT ( 'NONE',  ( 3.300000000000000266, 0.000000000000000000, 5.299999999999998934 ) ) ;
#288 = AXIS2_PLACEMENT_3D ( 'NONE', #143, #90, #344 ) ;
#289 = ORGANIZATION ( 'NEURÈENÝ', 'NEURÈENÝ', '' ) ;
#290 = VERTEX_POINT ( 'NONE', #331 ) ;
#291 = CYLINDRICAL_SURFACE ( 'NONE', #279, 1.750000000000000000 ) ;
#292 = ORIENTED_EDGE ( 'NONE', *, *, #80, .T. ) ;
#293 = VECTOR ( 'NONE', #371, 1000.000000000000000 ) ;
#294 = EDGE_CURVE ( 'NONE', #240, #1, #230, .T. ) ;
#295 = VERTEX_POINT ( 'NONE', #67 ) ;
#296 = ADVANCED_BREP_SHAPE_REPRESENTATION ( 'cdbc', ( #251, #211 ), #262 ) ;
#297 = CIRCLE ( 'NONE', #345, 6.000000000000000888 ) ;
#298 = EDGE_LOOP ( 'NONE', ( #59, #94 ) ) ;
#299 = DATE_AND_TIME ( #243, #346 ) ;
#300 = CARTESIAN_POINT ( 'NONE',  ( 3.000000000000000444, 3.673940397442060361E-16, 5.299999999999998934 ) ) ;
#301 = DIRECTION ( 'NONE',  ( 0.000000000000000000, 0.000000000000000000, 1.000000000000000000 ) ) ;
#302 = ORIENTED_EDGE ( 'NONE', *, *, #145, .T. ) ;
#303 = CYLINDRICAL_SURFACE ( 'NONE', #318, 3.000000000000000444 ) ;
#304 = CARTESIAN_POINT ( 'NONE',  ( 0.000000000000000000, 0.000000000000000000, 155.0000000000000000 ) ) ;
#305 = DATE_AND_TIME ( #186, #223 ) ;
#306 = EDGE_LOOP ( 'NONE', ( #47, #236, #99, #309 ) ) ;
#307 = PRODUCT_RELATED_PRODUCT_CATEGORY ( 'detail', '', ( #339 ) ) ;
#308 = ADVANCED_FACE ( 'NONE', ( #40 ), #37, .T. ) ;
#309 = ORIENTED_EDGE ( 'NONE', *, *, #80, .F. ) ;
#310 = DIRECTION ( 'NONE',  ( -0.000000000000000000, -0.000000000000000000, -1.000000000000000000 ) ) ;
#311 = DIRECTION ( 'NONE',  ( 1.000000000000000000, 0.000000000000000000, -0.000000000000000000 ) ) ;
#312 = CARTESIAN_POINT ( 'NONE',  ( -3.000000000000000444, 0.000000000000000000, 155.0000000000000000 ) ) ;
#313 = TOROIDAL_SURFACE ( 'NONE', #89, 3.300000000000000266, 0.2999999999999999889 ) ;
#314 = LINE ( 'NONE', #377, #85 ) ;
#315 = PERSON ( 'NEURÈENÝ', 'NEURÈENÝ', 'NEURÈENÝ', ('NEURÈENÝ'), ('NEURÈENÝ'), ('NEURÈENÝ') ) ;
#316 = EDGE_LOOP ( 'NONE', ( #56, #241 ) ) ;
#317 = FACE_OUTER_BOUND ( 'NONE', #316, .T. ) ;
#318 = AXIS2_PLACEMENT_3D ( 'NONE', #269, #161, #358 ) ;
#319 = CC_DESIGN_APPROVAL ( #196, ( #92 ) ) ;
#320 = EDGE_CURVE ( 'NONE', #290, #286, #235, .T. ) ;
#321 = ORIENTED_EDGE ( 'NONE', *, *, #244, .F. ) ;
#322 = PERSON_AND_ORGANIZATION ( #315, #289 ) ;
#323 = PLANE ( 'NONE',  #76 ) ;
#324 = ORIENTED_EDGE ( 'NONE', *, *, #111, .T. ) ;
#325 = DIRECTION ( 'NONE',  ( 0.000000000000000000, 0.000000000000000000, 1.000000000000000000 ) ) ;
#326 = DIRECTION ( 'NONE',  ( -0.000000000000000000, -0.000000000000000000, -1.000000000000000000 ) ) ;
#327 = EDGE_LOOP ( 'NONE', ( #273, #250, #246, #203 ) ) ;
#328 = APPROVAL_STATUS ( 'not_yet_approved' ) ;
#329 = ORIENTED_EDGE ( 'NONE', *, *, #190, .T. ) ;
#330 = PERSON_AND_ORGANIZATION_ROLE ( 'classification_officer' ) ;
#331 = CARTESIAN_POINT ( 'NONE',  ( -3.000000000000000444, 0.000000000000000000, 5.299999999999998934 ) ) ;
#332 = CIRCLE ( 'NONE', #167, 3.000000000000000444 ) ;
#333 = CIRCLE ( 'NONE', #48, 3.000000000000000444 ) ;
#334 = CARTESIAN_POINT ( 'NONE',  ( 3.300000000000000266, 0.000000000000000000, 4.999999999999999112 ) ) ;
#335 = PERSON_AND_ORGANIZATION ( #315, #289 ) ;
#336 = ORIENTED_EDGE ( 'NONE', *, *, #171, .F. ) ;
#337 = CALENDAR_DATE ( 2022, 10, 7 ) ;
#338 = APPROVAL ( #3, 'NEURÈENÝ' ) ;
#339 = PRODUCT ( 'cdbc', 'cdbc', '', ( #363 ) ) ;
#340 = CARTESIAN_POINT ( 'NONE',  ( 0.000000000000000000, 0.000000000000000000, 0.000000000000000000 ) ) ;
#341 = APPROVAL_DATE_TIME ( #225, #196 ) ;
#342 = DIRECTION ( 'NONE',  ( 0.000000000000000000, -1.000000000000000000, 0.000000000000000000 ) ) ;
#343 = CIRCLE ( 'NONE', #16, 1.750000000000000000 ) ;
#344 = DIRECTION ( 'NONE',  ( 1.000000000000000000, 0.000000000000000000, -0.000000000000000000 ) ) ;
#345 = AXIS2_PLACEMENT_3D ( 'NONE', #194, #174, #22 ) ;
#346 = LOCAL_TIME ( 11, 15, 17.00000000000000000, #133 ) ;
#347 = DIRECTION ( 'NONE',  ( 0.000000000000000000, 0.000000000000000000, -1.000000000000000000 ) ) ;
#348 = ADVANCED_FACE ( 'NONE', ( #154, #124 ), #323, .T. ) ;
#349 = DIRECTION ( 'NONE',  ( 0.000000000000000000, 0.000000000000000000, -1.000000000000000000 ) ) ;
#350 = PLANE ( 'NONE',  #220 ) ;
#351 = ADVANCED_FACE ( 'NONE', ( #73 ), #303, .T. ) ;
#352 =( NAMED_UNIT ( * ) SI_UNIT ( $, .STERADIAN. ) SOLID_ANGLE_UNIT ( ) );
#353 = ORIENTED_EDGE ( 'NONE', *, *, #35, .T. ) ;
#354 =( NAMED_UNIT ( * ) PLANE_ANGLE_UNIT ( ) SI_UNIT ( $, .RADIAN. ) );
#355 = VECTOR ( 'NONE', #7, 1000.000000000000000 ) ;
#356 = ORIENTED_EDGE ( 'NONE', *, *, #255, .F. ) ;
#357 = CALENDAR_DATE ( 2022, 10, 7 ) ;
#358 = DIRECTION ( 'NONE',  ( -1.000000000000000000, 0.000000000000000000, 0.000000000000000000 ) ) ;
#359 = CIRCLE ( 'NONE', #43, 3.300000000000000266 ) ;
#360 = CIRCLE ( 'NONE', #187, 1.750000000000000000 ) ;
#361 = ORIENTED_EDGE ( 'NONE', *, *, #378, .T. ) ;
#362 = CC_DESIGN_SECURITY_CLASSIFICATION ( #92, ( #179 ) ) ;
#363 = MECHANICAL_CONTEXT ( 'NONE', #83, 'mechanical' ) ;
#364 = DIRECTION ( 'NONE',  ( 1.000000000000000000, 0.000000000000000000, 0.000000000000000000 ) ) ;
#365 = ORIENTED_EDGE ( 'NONE', *, *, #35, .F. ) ;
#366 = PERSON_AND_ORGANIZATION ( #315, #289 ) ;
#367 = AXIS2_PLACEMENT_3D ( 'NONE', #189, #162, #275 ) ;
#368 = DIRECTION ( 'NONE',  ( 1.224646799147353207E-16, 1.000000000000000000, -0.000000000000000000 ) ) ;
#369 = CC_DESIGN_PERSON_AND_ORGANIZATION_ASSIGNMENT ( #153, #330, ( #92 ) ) ;
#370 = PRODUCT_DEFINITION_SHAPE ( 'NONE', 'NONE',  #278 ) ;
#371 = DIRECTION ( 'NONE',  ( -0.000000000000000000, -0.000000000000000000, -1.000000000000000000 ) ) ;
#372 = DIRECTION ( 'NONE',  ( 1.000000000000000000, 0.000000000000000000, 0.000000000000000000 ) ) ;
#373 = DIRECTION ( 'NONE',  ( 0.000000000000000000, 0.000000000000000000, 1.000000000000000000 ) ) ;
#374 = CC_DESIGN_PERSON_AND_ORGANIZATION_ASSIGNMENT ( #322, #126, ( #278 ) ) ;
#375 = CARTESIAN_POINT ( 'NONE',  ( -3.300000000000000266, 4.041334437186266003E-16, 4.999999999999999112 ) ) ;
#376 = CARTESIAN_POINT ( 'NONE',  ( -6.000000000000000888, 0.000000000000000000, 0.000000000000000000 ) ) ;
#377 = CARTESIAN_POINT ( 'NONE',  ( 6.000000000000000888, 7.347880794884120722E-16, 5.000000000000000000 ) ) ;
#378 = EDGE_CURVE ( 'NONE', #200, #263, #249, .T. ) ;
#379 = EDGE_LOOP ( 'NONE', ( #356, #72, #123, #116 ) ) ;
#380 = CIRCLE ( 'NONE', #146, 1.750000000000000000 ) ;
#381 = LINE ( 'NONE', #88, #247 ) ;
ENDSEC;
END-ISO-10303-21;
