ISO-10303-21;
HEADER;
FILE_DESCRIPTION (( 'STEP AP203' ),
    '1' );
FILE_NAME ('b367.STEP',
    '2022-07-10T09:16:19',
    ( '' ),
    ( '' ),
    'SwSTEP 2.0',
    'SolidWorks 2019',
    '' );
FILE_SCHEMA (( 'CONFIG_CONTROL_DESIGN' ));
ENDSEC;

DATA;
#1 = VERTEX_POINT ( 'NONE', #119 ) ;
#2 = CARTESIAN_POINT ( 'NONE',  ( 0.000000000000000000, 0.000000000000000000, 153.0000000000000000 ) ) ;
#3 = ORIENTED_EDGE ( 'NONE', *, *, #256, .F. ) ;
#4 = VECTOR ( 'NONE', #239, 1000.000000000000000 ) ;
#5 = CIRCLE ( 'NONE', #224, 2.500000000000000000 ) ;
#6 = EDGE_CURVE ( 'NONE', #379, #167, #68, .T. ) ;
#7 = CARTESIAN_POINT ( 'NONE',  ( 0.000000000000000000, 0.000000000000000000, 3.299999999999997158 ) ) ;
#8 = ORIENTED_EDGE ( 'NONE', *, *, #111, .T. ) ;
#9 = PERSON_AND_ORGANIZATION_ROLE ( 'creator' ) ;
#10 = CARTESIAN_POINT ( 'NONE',  ( 0.000000000000000000, 0.000000000000000000, 0.000000000000000000 ) ) ;
#11 = CIRCLE ( 'NONE', #103, 5.000000000000000000 ) ;
#12 = ORGANIZATION ( 'NEURÈENÝ', 'NEURÈENÝ', '' ) ;
#13 = CARTESIAN_POINT ( 'NONE',  ( 0.000000000000000000, 0.000000000000000000, 153.0000000000000000 ) ) ;
#14 = PERSON ( 'NEURÈENÝ', 'NEURÈENÝ', 'NEURÈENÝ', ('NEURÈENÝ'), ('NEURÈENÝ'), ('NEURÈENÝ') ) ;
#15 = DIRECTION ( 'NONE',  ( 0.000000000000000000, 0.000000000000000000, 1.000000000000000000 ) ) ;
#16 = DIRECTION ( 'NONE',  ( 0.000000000000000000, 0.000000000000000000, 1.000000000000000000 ) ) ;
#17 = DIRECTION ( 'NONE',  ( 1.000000000000000000, 0.000000000000000000, 0.000000000000000000 ) ) ;
#18 = DIRECTION ( 'NONE',  ( -0.000000000000000000, -0.000000000000000000, -1.000000000000000000 ) ) ;
#19 = APPROVAL_ROLE ( '' ) ;
#20 = EDGE_LOOP ( 'NONE', ( #330, #260, #171, #149 ) ) ;
#21 = PERSON_AND_ORGANIZATION ( #14, #12 ) ;
#22 = ORIENTED_EDGE ( 'NONE', *, *, #241, .F. ) ;
#23 = AXIS2_PLACEMENT_3D ( 'NONE', #336, #39, #308 ) ;
#24 = CALENDAR_DATE ( 2022, 10, 7 ) ;
#25 = ORIENTED_EDGE ( 'NONE', *, *, #369, .F. ) ;
#26 = DIRECTION ( 'NONE',  ( 1.000000000000000000, 0.000000000000000000, 0.000000000000000000 ) ) ;
#27 = ORIENTED_EDGE ( 'NONE', *, *, #186, .T. ) ;
#28 =( NAMED_UNIT ( * ) PLANE_ANGLE_UNIT ( ) SI_UNIT ( $, .RADIAN. ) );
#29 = ORIENTED_EDGE ( 'NONE', *, *, #369, .T. ) ;
#30 = TOROIDAL_SURFACE ( 'NONE', #276, 2.799999999999999822, 0.2999999999999999889 ) ;
#31 = CARTESIAN_POINT ( 'NONE',  ( 0.000000000000000000, 0.000000000000000000, 153.0000000000000000 ) ) ;
#32 = COORDINATED_UNIVERSAL_TIME_OFFSET ( 1, 0, .AHEAD. ) ;
#33 = DIRECTION ( 'NONE',  ( 1.000000000000000000, 0.000000000000000000, 0.000000000000000000 ) ) ;
#34 = ADVANCED_FACE ( 'NONE', ( #89, #60 ), #181, .T. ) ;
#35 = PERSON_AND_ORGANIZATION ( #14, #12 ) ;
#36 = DIRECTION ( 'NONE',  ( -0.000000000000000000, -0.000000000000000000, -1.000000000000000000 ) ) ;
#37 = DIRECTION ( 'NONE',  ( 0.000000000000000000, 0.000000000000000000, 1.000000000000000000 ) ) ;
#38 = DIRECTION ( 'NONE',  ( 1.000000000000000000, 0.000000000000000000, -0.000000000000000000 ) ) ;
#39 = DIRECTION ( 'NONE',  ( -0.000000000000000000, -0.000000000000000000, -1.000000000000000000 ) ) ;
#40 = AXIS2_PLACEMENT_3D ( 'NONE', #2, #62, #178 ) ;
#41 = DIRECTION ( 'NONE',  ( 1.000000000000000000, 0.000000000000000000, -0.000000000000000000 ) ) ;
#42 = CC_DESIGN_PERSON_AND_ORGANIZATION_ASSIGNMENT ( #21, #227, ( #180 ) ) ;
#43 = LINE ( 'NONE', #222, #363 ) ;
#44 = ADVANCED_FACE ( 'NONE', ( #209 ), #335, .F. ) ;
#45 = FACE_OUTER_BOUND ( 'NONE', #141, .T. ) ;
#46 = CYLINDRICAL_SURFACE ( 'NONE', #282, 1.600000000000000089 ) ;
#47 = AXIS2_PLACEMENT_3D ( 'NONE', #99, #160, #17 ) ;
#48 = PERSON_AND_ORGANIZATION ( #14, #12 ) ;
#49 = DATE_AND_TIME ( #79, #146 ) ;
#50 = ORIENTED_EDGE ( 'NONE', *, *, #83, .T. ) ;
#51 = AXIS2_PLACEMENT_3D ( 'NONE', #10, #302, #33 ) ;
#52 = CALENDAR_DATE ( 2022, 10, 7 ) ;
#53 = ORIENTED_EDGE ( 'NONE', *, *, #165, .T. ) ;
#54 = EDGE_CURVE ( 'NONE', #322, #228, #84, .T. ) ;
#55 = EDGE_LOOP ( 'NONE', ( #22, #174, #139, #286 ) ) ;
#56 = DIRECTION ( 'NONE',  ( 1.000000000000000000, 0.000000000000000000, -0.000000000000000000 ) ) ;
#57 = ORIENTED_EDGE ( 'NONE', *, *, #211, .F. ) ;
#58 = APPROVAL ( #285, 'NEURÈENÝ' ) ;
#59 = ORIENTED_EDGE ( 'NONE', *, *, #320, .T. ) ;
#60 = FACE_OUTER_BOUND ( 'NONE', #100, .T. ) ;
#61 = EDGE_CURVE ( 'NONE', #381, #228, #151, .T. ) ;
#62 = DIRECTION ( 'NONE',  ( 0.000000000000000000, 0.000000000000000000, -1.000000000000000000 ) ) ;
#63 = APPROVAL_DATE_TIME ( #138, #58 ) ;
#64 = DIRECTION ( 'NONE',  ( 0.000000000000000000, 0.000000000000000000, -1.000000000000000000 ) ) ;
#65 = AXIS2_PLACEMENT_3D ( 'NONE', #7, #332, #361 ) ;
#66 = CIRCLE ( 'NONE', #315, 2.500000000000000000 ) ;
#67 = DATE_AND_TIME ( #271, #349 ) ;
#68 = LINE ( 'NONE', #353, #4 ) ;
#69 = CARTESIAN_POINT ( 'NONE',  ( -2.500000000000000000, 0.000000000000000000, 153.0000000000000000 ) ) ;
#70 = CARTESIAN_POINT ( 'NONE',  ( 5.000000000000000000, 6.123233995736766282E-16, 0.000000000000000000 ) ) ;
#71 = PRODUCT_RELATED_PRODUCT_CATEGORY ( 'detail', '', ( #180 ) ) ;
#72 = CIRCLE ( 'NONE', #105, 5.000000000000000000 ) ;
#73 = PRODUCT_DEFINITION_FORMATION_WITH_SPECIFIED_SOURCE ( 'LIBOVOLNÝ', '', #180, .NOT_KNOWN. ) ;
#74 = DIRECTION ( 'NONE',  ( 0.000000000000000000, 0.000000000000000000, 1.000000000000000000 ) ) ;
#75 = CARTESIAN_POINT ( 'NONE',  ( -1.600000000000000089, 0.000000000000000000, 153.0000000000000000 ) ) ;
#76 = AXIS2_PLACEMENT_3D ( 'NONE', #272, #210, #152 ) ;
#77 = EDGE_CURVE ( 'NONE', #228, #296, #135, .T. ) ;
#78 = LOCAL_TIME ( 11, 16, 19.00000000000000000, #232 ) ;
#79 = CALENDAR_DATE ( 2022, 10, 7 ) ;
#80 = EDGE_LOOP ( 'NONE', ( #108, #29 ) ) ;
#81 =( NAMED_UNIT ( * ) SI_UNIT ( $, .STERADIAN. ) SOLID_ANGLE_UNIT ( ) );
#82 = VERTEX_POINT ( 'NONE', #301 ) ;
#83 = EDGE_CURVE ( 'NONE', #1, #86, #219, .T. ) ;
#84 = CIRCLE ( 'NONE', #65, 2.500000000000000000 ) ;
#85 = APPLICATION_PROTOCOL_DEFINITION ( 'international standard', 'config_control_design', 1994, #231 ) ;
#86 = VERTEX_POINT ( 'NONE', #270 ) ;
#87 = ORIENTED_EDGE ( 'NONE', *, *, #375, .F. ) ;
#88 = EDGE_LOOP ( 'NONE', ( #134, #120, #168, #3 ) ) ;
#89 = FACE_BOUND ( 'NONE', #264, .T. ) ;
#90 = TOROIDAL_SURFACE ( 'NONE', #173, 2.799999999999999822, 0.2999999999999999889 ) ;
#91 = DIRECTION ( 'NONE',  ( -1.000000000000000000, 0.000000000000000000, 0.000000000000000000 ) ) ;
#92 = CARTESIAN_POINT ( 'NONE',  ( 0.000000000000000000, 0.000000000000000000, 0.000000000000000000 ) ) ;
#93 = COORDINATED_UNIVERSAL_TIME_OFFSET ( 1, 0, .AHEAD. ) ;
#94 = FACE_OUTER_BOUND ( 'NONE', #55, .T. ) ;
#95 = DIRECTION ( 'NONE',  ( 1.000000000000000000, 0.000000000000000000, 0.000000000000000000 ) ) ;
#96 = DIRECTION ( 'NONE',  ( -0.000000000000000000, -0.000000000000000000, -1.000000000000000000 ) ) ;
#97 = FACE_OUTER_BOUND ( 'NONE', #373, .T. ) ;
#98 = ADVANCED_FACE ( 'NONE', ( #94 ), #148, .T. ) ;
#99 = CARTESIAN_POINT ( 'NONE',  ( 0.000000000000000000, 0.000000000000000000, 3.299999999999997158 ) ) ;
#100 = EDGE_LOOP ( 'NONE', ( #343, #53 ) ) ;
#101 = DIRECTION ( 'NONE',  ( 1.000000000000000000, 0.000000000000000000, 0.000000000000000000 ) ) ;
#102 = DIRECTION ( 'NONE',  ( 0.000000000000000000, -1.000000000000000000, 0.000000000000000000 ) ) ;
#103 = AXIS2_PLACEMENT_3D ( 'NONE', #156, #15, #275 ) ;
#104 = COORDINATED_UNIVERSAL_TIME_OFFSET ( 1, 0, .AHEAD. ) ;
#105 = AXIS2_PLACEMENT_3D ( 'NONE', #166, #262, #346 ) ;
#106 = ORIENTED_EDGE ( 'NONE', *, *, #179, .T. ) ;
#107 = CC_DESIGN_PERSON_AND_ORGANIZATION_ASSIGNMENT ( #35, #359, ( #73 ) ) ;
#108 = ORIENTED_EDGE ( 'NONE', *, *, #150, .T. ) ;
#109 = PERSON_AND_ORGANIZATION_ROLE ( 'creator' ) ;
#110 = ORIENTED_EDGE ( 'NONE', *, *, #313, .F. ) ;
#111 = EDGE_CURVE ( 'NONE', #86, #1, #280, .T. ) ;
#112 = CIRCLE ( 'NONE', #76, 2.799999999999999822 ) ;
#113 = ORIENTED_EDGE ( 'NONE', *, *, #147, .F. ) ;
#114 = CC_DESIGN_PERSON_AND_ORGANIZATION_ASSIGNMENT ( #245, #207, ( #288 ) ) ;
#115 = CARTESIAN_POINT ( 'NONE',  ( -5.000000000000000000, 0.000000000000000000, 3.000000000000000000 ) ) ;
#116 = EDGE_LOOP ( 'NONE', ( #351, #344 ) ) ;
#117 = APPROVAL_STATUS ( 'not_yet_approved' ) ;
#118 = ORIENTED_EDGE ( 'NONE', *, *, #179, .F. ) ;
#119 = CARTESIAN_POINT ( 'NONE',  ( -1.600000000000000089, 0.000000000000000000, 0.000000000000000000 ) ) ;
#120 = ORIENTED_EDGE ( 'NONE', *, *, #54, .F. ) ;
#121 = DIRECTION ( 'NONE',  ( -0.000000000000000000, -0.000000000000000000, -1.000000000000000000 ) ) ;
#122 = CARTESIAN_POINT ( 'NONE',  ( 0.000000000000000000, 0.000000000000000000, 153.0000000000000000 ) ) ;
#123 = VECTOR ( 'NONE', #64, 1000.000000000000000 ) ;
#124 = CC_DESIGN_DATE_AND_TIME_ASSIGNMENT ( #49, #200, ( #191 ) ) ;
#125 = AXIS2_PLACEMENT_3D ( 'NONE', #371, #102, #278 ) ;
#126 = CARTESIAN_POINT ( 'NONE',  ( -2.500000000000000000, 0.000000000000000000, 3.299999999999997158 ) ) ;
#127 = EDGE_CURVE ( 'NONE', #82, #296, #112, .T. ) ;
#128 = FACE_BOUND ( 'NONE', #116, .T. ) ;
#129 = FACE_OUTER_BOUND ( 'NONE', #268, .T. ) ;
#130 = CARTESIAN_POINT ( 'NONE',  ( 0.000000000000000000, 0.000000000000000000, 153.0000000000000000 ) ) ;
#131 = EDGE_CURVE ( 'NONE', #203, #86, #360, .T. ) ;
#132 = CYLINDRICAL_SURFACE ( 'NONE', #362, 2.500000000000000000 ) ;
#133 = DATE_AND_TIME ( #52, #277 ) ;
#134 = ORIENTED_EDGE ( 'NONE', *, *, #77, .F. ) ;
#135 = CIRCLE ( 'NONE', #303, 0.2999999999999999334 ) ;
#136 = AXIS2_PLACEMENT_3D ( 'NONE', #169, #342, #321 ) ;
#137 = ORIENTED_EDGE ( 'NONE', *, *, #256, .T. ) ;
#138 = DATE_AND_TIME ( #24, #78 ) ;
#139 = ORIENTED_EDGE ( 'NONE', *, *, #61, .T. ) ;
#140 = DIRECTION ( 'NONE',  ( 1.000000000000000000, 0.000000000000000000, 0.000000000000000000 ) ) ;
#141 = EDGE_LOOP ( 'NONE', ( #318, #327, #106, #50 ) ) ;
#142 = CYLINDRICAL_SURFACE ( 'NONE', #136, 5.000000000000000000 ) ;
#143 = APPROVAL ( #117, 'NEURÈENÝ' ) ;
#144 = ORIENTED_EDGE ( 'NONE', *, *, #186, .F. ) ;
#145 = VECTOR ( 'NONE', #96, 1000.000000000000000 ) ;
#146 = LOCAL_TIME ( 11, 16, 19.00000000000000000, #104 ) ;
#147 = EDGE_CURVE ( 'NONE', #203, #352, #340, .T. ) ;
#148 = CYLINDRICAL_SURFACE ( 'NONE', #234, 2.500000000000000000 ) ;
#149 = ORIENTED_EDGE ( 'NONE', *, *, #61, .F. ) ;
#150 = EDGE_CURVE ( 'NONE', #379, #164, #251, .T. ) ;
#151 = LINE ( 'NONE', #69, #307 ) ;
#152 = DIRECTION ( 'NONE',  ( 1.000000000000000000, 0.000000000000000000, 0.000000000000000000 ) ) ;
#153 = PERSON_AND_ORGANIZATION ( #14, #12 ) ;
#154 = ADVANCED_BREP_SHAPE_REPRESENTATION ( 'b367', ( #204, #175 ), #329 ) ;
#155 = DIRECTION ( 'NONE',  ( 0.000000000000000000, 0.000000000000000000, 1.000000000000000000 ) ) ;
#156 = CARTESIAN_POINT ( 'NONE',  ( 0.000000000000000000, 0.000000000000000000, 0.000000000000000000 ) ) ;
#157 = EDGE_CURVE ( 'NONE', #381, #334, #5, .T. ) ;
#158 = CARTESIAN_POINT ( 'NONE',  ( -2.799999999999999822, 3.429011037612589276E-16, 2.999999999999998668 ) ) ;
#159 = CC_DESIGN_PERSON_AND_ORGANIZATION_ASSIGNMENT ( #372, #109, ( #191 ) ) ;
#160 = DIRECTION ( 'NONE',  ( 0.000000000000000000, 0.000000000000000000, 1.000000000000000000 ) ) ;
#161 = DIRECTION ( 'NONE',  ( 0.000000000000000000, 0.000000000000000000, -1.000000000000000000 ) ) ;
#162 = APPROVAL_STATUS ( 'not_yet_approved' ) ;
#163 = PERSON_AND_ORGANIZATION ( #14, #12 ) ;
#164 = VERTEX_POINT ( 'NONE', #274 ) ;
#165 = EDGE_CURVE ( 'NONE', #334, #381, #66, .T. ) ;
#166 = CARTESIAN_POINT ( 'NONE',  ( 0.000000000000000000, 0.000000000000000000, 0.000000000000000000 ) ) ;
#167 = VERTEX_POINT ( 'NONE', #300 ) ;
#168 = ORIENTED_EDGE ( 'NONE', *, *, #313, .T. ) ;
#169 = CARTESIAN_POINT ( 'NONE',  ( 0.000000000000000000, 0.000000000000000000, 3.000000000000000000 ) ) ;
#170 = ADVANCED_FACE ( 'NONE', ( #223 ), #132, .T. ) ;
#171 = ORIENTED_EDGE ( 'NONE', *, *, #54, .T. ) ;
#172 = APPROVAL_ROLE ( '' ) ;
#173 = AXIS2_PLACEMENT_3D ( 'NONE', #338, #218, #281 ) ;
#174 = ORIENTED_EDGE ( 'NONE', *, *, #157, .F. ) ;
#175 = AXIS2_PLACEMENT_3D ( 'NONE', #350, #289, #140 ) ;
#176 = CARTESIAN_POINT ( 'NONE',  ( -2.799999999999999822, 3.429011037612588783E-16, 3.299999999999997158 ) ) ;
#177 = CALENDAR_DATE ( 2022, 10, 7 ) ;
#178 = DIRECTION ( 'NONE',  ( -1.000000000000000000, 0.000000000000000000, 0.000000000000000000 ) ) ;
#179 = EDGE_CURVE ( 'NONE', #352, #1, #279, .T. ) ;
#180 = PRODUCT ( 'b367', 'b367', '', ( #284 ) ) ;
#181 = PLANE ( 'NONE',  #187 ) ;
#182 = AXIS2_PLACEMENT_3D ( 'NONE', #367, #306, #253 ) ;
#183 = CC_DESIGN_APPROVAL ( #143, ( #288 ) ) ;
#184 = CARTESIAN_POINT ( 'NONE',  ( 0.000000000000000000, 0.000000000000000000, 3.000000000000000000 ) ) ;
#185 = DIRECTION ( 'NONE',  ( -0.000000000000000000, -0.000000000000000000, -1.000000000000000000 ) ) ;
#186 = EDGE_CURVE ( 'NONE', #352, #203, #348, .T. ) ;
#187 = AXIS2_PLACEMENT_3D ( 'NONE', #31, #273, #38 ) ;
#188 = CARTESIAN_POINT ( 'NONE',  ( 0.000000000000000000, 0.000000000000000000, 3.000000000000000000 ) ) ;
#189 = AXIS2_PLACEMENT_3D ( 'NONE', #304, #155, #213 ) ;
#190 = FACE_BOUND ( 'NONE', #206, .T. ) ;
#191 = PRODUCT_DEFINITION ( 'NEZNÁMÝ', '', #73, #294 ) ;
#192 = ADVANCED_FACE ( 'NONE', ( #45 ), #46, .F. ) ;
#193 = DIRECTION ( 'NONE',  ( -1.000000000000000000, 0.000000000000000000, 0.000000000000000000 ) ) ;
#194 = CARTESIAN_POINT ( 'NONE',  ( 1.600000000000000089, 1.959434878635765230E-16, 153.0000000000000000 ) ) ;
#195 = CIRCLE ( 'NONE', #125, 0.2999999999999999334 ) ;
#196 =( LENGTH_UNIT ( ) NAMED_UNIT ( * ) SI_UNIT ( .MILLI., .METRE. ) );
#197 = VERTEX_POINT ( 'NONE', #70 ) ;
#198 = COORDINATED_UNIVERSAL_TIME_OFFSET ( 1, 0, .AHEAD. ) ;
#199 = ORIENTED_EDGE ( 'NONE', *, *, #6, .F. ) ;
#200 = DATE_TIME_ROLE ( 'creation_date' ) ;
#201 = EDGE_LOOP ( 'NONE', ( #57, #236, #233, #110 ) ) ;
#202 = CARTESIAN_POINT ( 'NONE',  ( 2.500000000000000000, 3.061616997868383141E-16, 153.0000000000000000 ) ) ;
#203 = VERTEX_POINT ( 'NONE', #194 ) ;
#204 = MANIFOLD_SOLID_BREP ( 'Odebrat vysunutím3', #267 ) ;
#205 = DATE_TIME_ROLE ( 'classification_date' ) ;
#206 = EDGE_LOOP ( 'NONE', ( #347, #137 ) ) ;
#207 = PERSON_AND_ORGANIZATION_ROLE ( 'classification_officer' ) ;
#208 = AXIS2_PLACEMENT_3D ( 'NONE', #265, #292, #56 ) ;
#209 = FACE_OUTER_BOUND ( 'NONE', #291, .T. ) ;
#210 = DIRECTION ( 'NONE',  ( -0.000000000000000000, -0.000000000000000000, -1.000000000000000000 ) ) ;
#211 = EDGE_CURVE ( 'NONE', #228, #322, #214, .T. ) ;
#212 = CARTESIAN_POINT ( 'NONE',  ( 1.600000000000000089, 1.959434878635765230E-16, 153.0000000000000000 ) ) ;
#213 = DIRECTION ( 'NONE',  ( 1.000000000000000000, 0.000000000000000000, 0.000000000000000000 ) ) ;
#214 = CIRCLE ( 'NONE', #47, 2.500000000000000000 ) ;
#215 = ADVANCED_FACE ( 'NONE', ( #258 ), #90, .F. ) ;
#216 = ADVANCED_FACE ( 'NONE', ( #257 ), #30, .F. ) ;
#217 = DIRECTION ( 'NONE',  ( 1.000000000000000000, 0.000000000000000000, 0.000000000000000000 ) ) ;
#218 = DIRECTION ( 'NONE',  ( 0.000000000000000000, 0.000000000000000000, 1.000000000000000000 ) ) ;
#219 = CIRCLE ( 'NONE', #51, 1.600000000000000089 ) ;
#220 = PLANE ( 'NONE',  #208 ) ;
#221 = APPROVAL_PERSON_ORGANIZATION ( #325, #143, #172 ) ;
#222 = CARTESIAN_POINT ( 'NONE',  ( 5.000000000000000000, 6.123233995736766282E-16, 3.000000000000000000 ) ) ;
#223 = FACE_OUTER_BOUND ( 'NONE', #20, .T. ) ;
#224 = AXIS2_PLACEMENT_3D ( 'NONE', #269, #305, #95 ) ;
#225 = APPROVAL_PERSON_ORGANIZATION ( #163, #58, #376 ) ;
#226 = ADVANCED_FACE ( 'NONE', ( #129 ), #337, .T. ) ;
#227 = PERSON_AND_ORGANIZATION_ROLE ( 'design_owner' ) ;
#228 = VERTEX_POINT ( 'NONE', #126 ) ;
#229 = FACE_OUTER_BOUND ( 'NONE', #377, .T. ) ;
#230 = ORIENTED_EDGE ( 'NONE', *, *, #6, .T. ) ;
#231 = APPLICATION_CONTEXT ( 'configuration controlled 3d designs of mechanical parts and assemblies' ) ;
#232 = COORDINATED_UNIVERSAL_TIME_OFFSET ( 1, 0, .AHEAD. ) ;
#233 = ORIENTED_EDGE ( 'NONE', *, *, #127, .F. ) ;
#234 = AXIS2_PLACEMENT_3D ( 'NONE', #358, #246, #91 ) ;
#235 = AXIS2_PLACEMENT_3D ( 'NONE', #184, #37, #217 ) ;
#236 = ORIENTED_EDGE ( 'NONE', *, *, #77, .T. ) ;
#237 = UNCERTAINTY_MEASURE_WITH_UNIT (LENGTH_MEASURE( 1.000000000000000082E-05 ), #196, 'distance_accuracy_value', 'NONE');
#238 = ORIENTED_EDGE ( 'NONE', *, *, #320, .F. ) ;
#239 = DIRECTION ( 'NONE',  ( -0.000000000000000000, -0.000000000000000000, -1.000000000000000000 ) ) ;
#240 = SHAPE_DEFINITION_REPRESENTATION ( #297, #154 ) ;
#241 = EDGE_CURVE ( 'NONE', #334, #322, #283, .T. ) ;
#242 = AXIS2_PLACEMENT_3D ( 'NONE', #370, #18, #101 ) ;
#243 = DIRECTION ( 'NONE',  ( -1.000000000000000000, 1.224646799147353207E-16, 0.000000000000000000 ) ) ;
#244 = APPROVAL_PERSON_ORGANIZATION ( #48, #295, #19 ) ;
#245 = PERSON_AND_ORGANIZATION ( #14, #12 ) ;
#246 = DIRECTION ( 'NONE',  ( -0.000000000000000000, -0.000000000000000000, -1.000000000000000000 ) ) ;
#247 = DIRECTION ( 'NONE',  ( 1.000000000000000000, 0.000000000000000000, 0.000000000000000000 ) ) ;
#248 = ADVANCED_FACE ( 'NONE', ( #190, #311 ), #255, .T. ) ;
#249 = AXIS2_PLACEMENT_3D ( 'NONE', #92, #121, #247 ) ;
#250 = DIRECTION ( 'NONE',  ( 0.000000000000000000, 0.000000000000000000, 1.000000000000000000 ) ) ;
#251 = CIRCLE ( 'NONE', #235, 5.000000000000000000 ) ;
#252 = CC_DESIGN_SECURITY_CLASSIFICATION ( #288, ( #73 ) ) ;
#253 = DIRECTION ( 'NONE',  ( 1.000000000000000000, 0.000000000000000000, 0.000000000000000000 ) ) ;
#254 = CARTESIAN_POINT ( 'NONE',  ( 2.500000000000000000, 3.061616997868383141E-16, 3.299999999999997158 ) ) ;
#255 = PLANE ( 'NONE',  #298 ) ;
#256 = EDGE_CURVE ( 'NONE', #296, #82, #328, .T. ) ;
#257 = FACE_OUTER_BOUND ( 'NONE', #201, .T. ) ;
#258 = FACE_OUTER_BOUND ( 'NONE', #88, .T. ) ;
#259 = APPROVAL_DATE_TIME ( #133, #295 ) ;
#260 = ORIENTED_EDGE ( 'NONE', *, *, #241, .T. ) ;
#261 = CC_DESIGN_APPROVAL ( #58, ( #73 ) ) ;
#262 = DIRECTION ( 'NONE',  ( 0.000000000000000000, 0.000000000000000000, 1.000000000000000000 ) ) ;
#263 = ORIENTED_EDGE ( 'NONE', *, *, #375, .T. ) ;
#264 = EDGE_LOOP ( 'NONE', ( #144, #113 ) ) ;
#265 = CARTESIAN_POINT ( 'NONE',  ( 0.000000000000000000, 0.000000000000000000, 0.000000000000000000 ) ) ;
#266 = ORIENTED_EDGE ( 'NONE', *, *, #310, .T. ) ;
#267 = CLOSED_SHELL ( 'NONE', ( #44, #216, #170, #345, #226, #248, #326, #98, #34, #215, #192 ) ) ;
#268 = EDGE_LOOP ( 'NONE', ( #319, #293, #230, #263 ) ) ;
#269 = CARTESIAN_POINT ( 'NONE',  ( 0.000000000000000000, 0.000000000000000000, 153.0000000000000000 ) ) ;
#270 = CARTESIAN_POINT ( 'NONE',  ( 1.600000000000000089, 1.959434878635765230E-16, 0.000000000000000000 ) ) ;
#271 = CALENDAR_DATE ( 2022, 10, 7 ) ;
#272 = CARTESIAN_POINT ( 'NONE',  ( 0.000000000000000000, 0.000000000000000000, 3.000000000000000000 ) ) ;
#273 = DIRECTION ( 'NONE',  ( 0.000000000000000000, 0.000000000000000000, 1.000000000000000000 ) ) ;
#274 = CARTESIAN_POINT ( 'NONE',  ( 5.000000000000000000, 6.123233995736766282E-16, 3.000000000000000000 ) ) ;
#275 = DIRECTION ( 'NONE',  ( 1.000000000000000000, 0.000000000000000000, 0.000000000000000000 ) ) ;
#276 = AXIS2_PLACEMENT_3D ( 'NONE', #341, #16, #366 ) ;
#277 = LOCAL_TIME ( 11, 16, 19.00000000000000000, #198 ) ;
#278 = DIRECTION ( 'NONE',  ( 0.000000000000000000, 0.000000000000000000, -1.000000000000000000 ) ) ;
#279 = LINE ( 'NONE', #75, #368 ) ;
#280 = CIRCLE ( 'NONE', #249, 1.600000000000000089 ) ;
#281 = DIRECTION ( 'NONE',  ( 1.000000000000000000, 0.000000000000000000, 0.000000000000000000 ) ) ;
#282 = AXIS2_PLACEMENT_3D ( 'NONE', #13, #161, #365 ) ;
#283 = LINE ( 'NONE', #314, #145 ) ;
#284 = MECHANICAL_CONTEXT ( 'NONE', #290, 'mechanical' ) ;
#285 = APPROVAL_STATUS ( 'not_yet_approved' ) ;
#286 = ORIENTED_EDGE ( 'NONE', *, *, #211, .T. ) ;
#287 = CC_DESIGN_DATE_AND_TIME_ASSIGNMENT ( #67, #205, ( #288 ) ) ;
#288 = SECURITY_CLASSIFICATION ( '', '', #333 ) ;
#289 = DIRECTION ( 'NONE',  ( 0.000000000000000000, 0.000000000000000000, 1.000000000000000000 ) ) ;
#290 = APPLICATION_CONTEXT ( 'configuration controlled 3d designs of mechanical parts and assemblies' ) ;
#291 = EDGE_LOOP ( 'NONE', ( #27, #324, #8, #118 ) ) ;
#292 = DIRECTION ( 'NONE',  ( 0.000000000000000000, 0.000000000000000000, 1.000000000000000000 ) ) ;
#293 = ORIENTED_EDGE ( 'NONE', *, *, #150, .F. ) ;
#294 = DESIGN_CONTEXT ( 'detailed design', #231, 'design' ) ;
#295 = APPROVAL ( #162, 'NEURÈENÝ' ) ;
#296 = VERTEX_POINT ( 'NONE', #158 ) ;
#297 = PRODUCT_DEFINITION_SHAPE ( 'NONE', 'NONE',  #191 ) ;
#298 = AXIS2_PLACEMENT_3D ( 'NONE', #188, #74, #41 ) ;
#299 = DATE_AND_TIME ( #177, #355 ) ;
#300 = CARTESIAN_POINT ( 'NONE',  ( -5.000000000000000000, 0.000000000000000000, 0.000000000000000000 ) ) ;
#301 = CARTESIAN_POINT ( 'NONE',  ( 2.799999999999999822, 0.000000000000000000, 2.999999999999998668 ) ) ;
#302 = DIRECTION ( 'NONE',  ( -0.000000000000000000, -0.000000000000000000, -1.000000000000000000 ) ) ;
#303 = AXIS2_PLACEMENT_3D ( 'NONE', #176, #331, #243 ) ;
#304 = CARTESIAN_POINT ( 'NONE',  ( 0.000000000000000000, 0.000000000000000000, 153.0000000000000000 ) ) ;
#305 = DIRECTION ( 'NONE',  ( 0.000000000000000000, 0.000000000000000000, 1.000000000000000000 ) ) ;
#306 = DIRECTION ( 'NONE',  ( 0.000000000000000000, 0.000000000000000000, 1.000000000000000000 ) ) ;
#307 = VECTOR ( 'NONE', #36, 1000.000000000000000 ) ;
#308 = DIRECTION ( 'NONE',  ( -1.000000000000000000, 0.000000000000000000, 0.000000000000000000 ) ) ;
#309 = CIRCLE ( 'NONE', #354, 5.000000000000000000 ) ;
#310 = EDGE_CURVE ( 'NONE', #164, #197, #43, .T. ) ;
#311 = FACE_OUTER_BOUND ( 'NONE', #80, .T. ) ;
#312 = DIRECTION ( 'NONE',  ( 0.000000000000000000, 0.000000000000000000, -1.000000000000000000 ) ) ;
#313 = EDGE_CURVE ( 'NONE', #322, #82, #195, .T. ) ;
#314 = CARTESIAN_POINT ( 'NONE',  ( 2.500000000000000000, 3.061616997868383141E-16, 153.0000000000000000 ) ) ;
#315 = AXIS2_PLACEMENT_3D ( 'NONE', #122, #250, #364 ) ;
#316 = APPLICATION_PROTOCOL_DEFINITION ( 'international standard', 'config_control_design', 1994, #290 ) ;
#317 = CARTESIAN_POINT ( 'NONE',  ( -1.600000000000000089, 0.000000000000000000, 153.0000000000000000 ) ) ;
#318 = ORIENTED_EDGE ( 'NONE', *, *, #131, .F. ) ;
#319 = ORIENTED_EDGE ( 'NONE', *, *, #310, .F. ) ;
#320 = EDGE_CURVE ( 'NONE', #197, #167, #11, .T. ) ;
#321 = DIRECTION ( 'NONE',  ( -1.000000000000000000, 0.000000000000000000, 0.000000000000000000 ) ) ;
#322 = VERTEX_POINT ( 'NONE', #254 ) ;
#323 = CARTESIAN_POINT ( 'NONE',  ( -2.500000000000000000, 0.000000000000000000, 153.0000000000000000 ) ) ;
#324 = ORIENTED_EDGE ( 'NONE', *, *, #131, .T. ) ;
#325 = PERSON_AND_ORGANIZATION ( #14, #12 ) ;
#326 = ADVANCED_FACE ( 'NONE', ( #128, #97 ), #220, .F. ) ;
#327 = ORIENTED_EDGE ( 'NONE', *, *, #147, .T. ) ;
#328 = CIRCLE ( 'NONE', #242, 2.799999999999999822 ) ;
#329 =( GEOMETRIC_REPRESENTATION_CONTEXT ( 3 ) GLOBAL_UNCERTAINTY_ASSIGNED_CONTEXT ( ( #237 ) ) GLOBAL_UNIT_ASSIGNED_CONTEXT ( ( #196, #28, #81 ) ) REPRESENTATION_CONTEXT ( 'NONE', 'WORKASPACE' ) );
#330 = ORIENTED_EDGE ( 'NONE', *, *, #165, .F. ) ;
#331 = DIRECTION ( 'NONE',  ( 1.224646799147353207E-16, 1.000000000000000000, -0.000000000000000000 ) ) ;
#332 = DIRECTION ( 'NONE',  ( 0.000000000000000000, 0.000000000000000000, 1.000000000000000000 ) ) ;
#333 = SECURITY_CLASSIFICATION_LEVEL ( 'unclassified' ) ;
#334 = VERTEX_POINT ( 'NONE', #202 ) ;
#335 = CYLINDRICAL_SURFACE ( 'NONE', #40, 1.600000000000000089 ) ;
#336 = CARTESIAN_POINT ( 'NONE',  ( 0.000000000000000000, 0.000000000000000000, 3.000000000000000000 ) ) ;
#337 = CYLINDRICAL_SURFACE ( 'NONE', #23, 5.000000000000000000 ) ;
#338 = CARTESIAN_POINT ( 'NONE',  ( 0.000000000000000000, 0.000000000000000000, 3.299999999999997158 ) ) ;
#339 = DIRECTION ( 'NONE',  ( -0.000000000000000000, -0.000000000000000000, -1.000000000000000000 ) ) ;
#340 = CIRCLE ( 'NONE', #189, 1.600000000000000089 ) ;
#341 = CARTESIAN_POINT ( 'NONE',  ( 0.000000000000000000, 0.000000000000000000, 3.299999999999997158 ) ) ;
#342 = DIRECTION ( 'NONE',  ( -0.000000000000000000, -0.000000000000000000, -1.000000000000000000 ) ) ;
#343 = ORIENTED_EDGE ( 'NONE', *, *, #157, .T. ) ;
#344 = ORIENTED_EDGE ( 'NONE', *, *, #111, .F. ) ;
#345 = ADVANCED_FACE ( 'NONE', ( #229 ), #142, .T. ) ;
#346 = DIRECTION ( 'NONE',  ( 1.000000000000000000, 0.000000000000000000, 0.000000000000000000 ) ) ;
#347 = ORIENTED_EDGE ( 'NONE', *, *, #127, .T. ) ;
#348 = CIRCLE ( 'NONE', #182, 1.600000000000000089 ) ;
#349 = LOCAL_TIME ( 11, 16, 19.00000000000000000, #93 ) ;
#350 = CARTESIAN_POINT ( 'NONE',  ( 0.000000000000000000, 0.000000000000000000, 0.000000000000000000 ) ) ;
#351 = ORIENTED_EDGE ( 'NONE', *, *, #83, .F. ) ;
#352 = VERTEX_POINT ( 'NONE', #317 ) ;
#353 = CARTESIAN_POINT ( 'NONE',  ( -5.000000000000000000, 0.000000000000000000, 3.000000000000000000 ) ) ;
#354 = AXIS2_PLACEMENT_3D ( 'NONE', #378, #380, #26 ) ;
#355 = LOCAL_TIME ( 11, 16, 19.00000000000000000, #32 ) ;
#356 = APPROVAL_DATE_TIME ( #299, #143 ) ;
#357 = CC_DESIGN_PERSON_AND_ORGANIZATION_ASSIGNMENT ( #153, #9, ( #73 ) ) ;
#358 = CARTESIAN_POINT ( 'NONE',  ( 0.000000000000000000, 0.000000000000000000, 153.0000000000000000 ) ) ;
#359 = PERSON_AND_ORGANIZATION_ROLE ( 'design_supplier' ) ;
#360 = LINE ( 'NONE', #212, #123 ) ;
#361 = DIRECTION ( 'NONE',  ( 1.000000000000000000, 0.000000000000000000, 0.000000000000000000 ) ) ;
#362 = AXIS2_PLACEMENT_3D ( 'NONE', #130, #185, #193 ) ;
#363 = VECTOR ( 'NONE', #339, 1000.000000000000000 ) ;
#364 = DIRECTION ( 'NONE',  ( 1.000000000000000000, 0.000000000000000000, 0.000000000000000000 ) ) ;
#365 = DIRECTION ( 'NONE',  ( -1.000000000000000000, 0.000000000000000000, 0.000000000000000000 ) ) ;
#366 = DIRECTION ( 'NONE',  ( 1.000000000000000000, 0.000000000000000000, 0.000000000000000000 ) ) ;
#367 = CARTESIAN_POINT ( 'NONE',  ( 0.000000000000000000, 0.000000000000000000, 153.0000000000000000 ) ) ;
#368 = VECTOR ( 'NONE', #312, 1000.000000000000000 ) ;
#369 = EDGE_CURVE ( 'NONE', #164, #379, #309, .T. ) ;
#370 = CARTESIAN_POINT ( 'NONE',  ( 0.000000000000000000, 0.000000000000000000, 3.000000000000000000 ) ) ;
#371 = CARTESIAN_POINT ( 'NONE',  ( 2.799999999999999822, 0.000000000000000000, 3.299999999999997158 ) ) ;
#372 = PERSON_AND_ORGANIZATION ( #14, #12 ) ;
#373 = EDGE_LOOP ( 'NONE', ( #87, #238 ) ) ;
#374 = CC_DESIGN_APPROVAL ( #295, ( #191 ) ) ;
#375 = EDGE_CURVE ( 'NONE', #167, #197, #72, .T. ) ;
#376 = APPROVAL_ROLE ( '' ) ;
#377 = EDGE_LOOP ( 'NONE', ( #25, #266, #59, #199 ) ) ;
#378 = CARTESIAN_POINT ( 'NONE',  ( 0.000000000000000000, 0.000000000000000000, 3.000000000000000000 ) ) ;
#379 = VERTEX_POINT ( 'NONE', #115 ) ;
#380 = DIRECTION ( 'NONE',  ( 0.000000000000000000, 0.000000000000000000, 1.000000000000000000 ) ) ;
#381 = VERTEX_POINT ( 'NONE', #323 ) ;
ENDSEC;
END-ISO-10303-21;
