ISO-10303-21;
HEADER;
FILE_DESCRIPTION (( 'STEP AP203' ),
    '1' );
FILE_NAME ('69d4.STEP',
    '2022-07-10T09:01:05',
    ( '' ),
    ( '' ),
    'SwSTEP 2.0',
    'SolidWorks 2019',
    '' );
FILE_SCHEMA (( 'CONFIG_CONTROL_DESIGN' ));
ENDSEC;

DATA;
#1 = CARTESIAN_POINT ( 'NONE',  ( -5.000000000000000000, 0.000000000000000000, 0.000000000000000000 ) ) ;
#2 = PERSON_AND_ORGANIZATION ( #332, #110 ) ;
#3 = PRODUCT_DEFINITION_FORMATION_WITH_SPECIFIED_SOURCE ( 'LIBOVOLNÝ', '', #196, .NOT_KNOWN. ) ;
#4 = ORIENTED_EDGE ( 'NONE', *, *, #113, .T. ) ;
#5 = UNCERTAINTY_MEASURE_WITH_UNIT (LENGTH_MEASURE( 1.000000000000000082E-05 ), #256, 'distance_accuracy_value', 'NONE');
#6 = DATE_TIME_ROLE ( 'classification_date' ) ;
#7 = PLANE ( 'NONE',  #370 ) ;
#8 = EDGE_CURVE ( 'NONE', #337, #139, #58, .T. ) ;
#9 = APPROVAL_ROLE ( '' ) ;
#10 = CIRCLE ( 'NONE', #291, 0.7000000000000000666 ) ;
#11 = PERSON_AND_ORGANIZATION ( #332, #110 ) ;
#12 = CARTESIAN_POINT ( 'NONE',  ( 0.000000000000000000, 0.000000000000000000, 167.0000000000000000 ) ) ;
#13 = CARTESIAN_POINT ( 'NONE',  ( -11.00000000000000000, 0.000000000000000000, 7.000000000000000000 ) ) ;
#14 = CIRCLE ( 'NONE', #342, 5.000000000000000000 ) ;
#15 = DIRECTION ( 'NONE',  ( -0.000000000000000000, -0.000000000000000000, -1.000000000000000000 ) ) ;
#16 = DIRECTION ( 'NONE',  ( -1.000000000000000000, 0.000000000000000000, 0.000000000000000000 ) ) ;
#17 = AXIS2_PLACEMENT_3D ( 'NONE', #240, #179, #155 ) ;
#18 = DIRECTION ( 'NONE',  ( 1.000000000000000000, 0.000000000000000000, -0.000000000000000000 ) ) ;
#19 = ORIENTED_EDGE ( 'NONE', *, *, #52, .T. ) ;
#20 = AXIS2_PLACEMENT_3D ( 'NONE', #379, #79, #130 ) ;
#21 = EDGE_CURVE ( 'NONE', #23, #67, #255, .T. ) ;
#22 = CYLINDRICAL_SURFACE ( 'NONE', #20, 5.000000000000000000 ) ;
#23 = VERTEX_POINT ( 'NONE', #88 ) ;
#24 = ADVANCED_FACE ( 'NONE', ( #329, #294 ), #258, .T. ) ;
#25 = DIRECTION ( 'NONE',  ( 1.000000000000000000, 0.000000000000000000, 0.000000000000000000 ) ) ;
#26 = EDGE_LOOP ( 'NONE', ( #282, #312, #324, #310 ) ) ;
#27 = CIRCLE ( 'NONE', #71, 5.000000000000000000 ) ;
#28 = DATE_AND_TIME ( #303, #76 ) ;
#29 = PRODUCT_DEFINITION_SHAPE ( 'NONE', 'NONE',  #266 ) ;
#30 = DATE_TIME_ROLE ( 'creation_date' ) ;
#31 = ORIENTED_EDGE ( 'NONE', *, *, #322, .F. ) ;
#32 = PERSON_AND_ORGANIZATION ( #332, #110 ) ;
#33 = CARTESIAN_POINT ( 'NONE',  ( -5.000000000000000000, 0.000000000000000000, 167.0000000000000000 ) ) ;
#34 = CIRCLE ( 'NONE', #244, 11.00000000000000000 ) ;
#35 = EDGE_CURVE ( 'NONE', #146, #99, #93, .T. ) ;
#36 = PERSON_AND_ORGANIZATION_ROLE ( 'classification_officer' ) ;
#37 = PERSON_AND_ORGANIZATION ( #332, #110 ) ;
#38 = CALENDAR_DATE ( 2022, 10, 7 ) ;
#39 = FACE_OUTER_BOUND ( 'NONE', #55, .T. ) ;
#40 = AXIS2_PLACEMENT_3D ( 'NONE', #124, #279, #183 ) ;
#41 = FACE_OUTER_BOUND ( 'NONE', #287, .T. ) ;
#42 = EDGE_LOOP ( 'NONE', ( #85, #19 ) ) ;
#43 = CARTESIAN_POINT ( 'NONE',  ( 7.000000000000000888, 8.572527594031474176E-16, 167.0000000000000000 ) ) ;
#44 = DIRECTION ( 'NONE',  ( -0.000000000000000000, -0.000000000000000000, -1.000000000000000000 ) ) ;
#45 = VERTEX_POINT ( 'NONE', #1 ) ;
#46 = AXIS2_PLACEMENT_3D ( 'NONE', #135, #254, #351 ) ;
#47 = CARTESIAN_POINT ( 'NONE',  ( 0.000000000000000000, 0.000000000000000000, 7.000000000000000000 ) ) ;
#48 = CARTESIAN_POINT ( 'NONE',  ( 0.000000000000000000, 0.000000000000000000, 167.0000000000000000 ) ) ;
#49 = AXIS2_PLACEMENT_3D ( 'NONE', #12, #70, #246 ) ;
#50 = DIRECTION ( 'NONE',  ( -1.000000000000000000, 0.000000000000000000, 0.000000000000000000 ) ) ;
#51 = VERTEX_POINT ( 'NONE', #296 ) ;
#52 = EDGE_CURVE ( 'NONE', #137, #171, #267, .T. ) ;
#53 = CIRCLE ( 'NONE', #273, 5.000000000000000000 ) ;
#54 = ORIENTED_EDGE ( 'NONE', *, *, #297, .F. ) ;
#55 = EDGE_LOOP ( 'NONE', ( #125, #288 ) ) ;
#56 = VECTOR ( 'NONE', #339, 1000.000000000000000 ) ;
#57 = CARTESIAN_POINT ( 'NONE',  ( 0.000000000000000000, 0.000000000000000000, 167.0000000000000000 ) ) ;
#58 = LINE ( 'NONE', #165, #335 ) ;
#59 = ORIENTED_EDGE ( 'NONE', *, *, #123, .F. ) ;
#60 = DIRECTION ( 'NONE',  ( 0.000000000000000000, -1.000000000000000000, 0.000000000000000000 ) ) ;
#61 = APPROVAL_PERSON_ORGANIZATION ( #37, #314, #144 ) ;
#62 = PERSON_AND_ORGANIZATION_ROLE ( 'design_owner' ) ;
#63 = CARTESIAN_POINT ( 'NONE',  ( 0.000000000000000000, 0.000000000000000000, 0.000000000000000000 ) ) ;
#64 = ADVANCED_FACE ( 'NONE', ( #143, #39 ), #7, .F. ) ;
#65 = COORDINATED_UNIVERSAL_TIME_OFFSET ( 1, 0, .AHEAD. ) ;
#66 = AXIS2_PLACEMENT_3D ( 'NONE', #87, #60, #116 ) ;
#67 = VERTEX_POINT ( 'NONE', #119 ) ;
#68 = MECHANICAL_CONTEXT ( 'NONE', #245, 'mechanical' ) ;
#69 = DIRECTION ( 'NONE',  ( 0.000000000000000000, 0.000000000000000000, 1.000000000000000000 ) ) ;
#70 = DIRECTION ( 'NONE',  ( 0.000000000000000000, 0.000000000000000000, -1.000000000000000000 ) ) ;
#71 = AXIS2_PLACEMENT_3D ( 'NONE', #373, #225, #107 ) ;
#72 = CARTESIAN_POINT ( 'NONE',  ( 0.000000000000000000, 0.000000000000000000, 167.0000000000000000 ) ) ;
#73 = VERTEX_POINT ( 'NONE', #33 ) ;
#74 = CARTESIAN_POINT ( 'NONE',  ( 0.000000000000000000, 0.000000000000000000, 0.000000000000000000 ) ) ;
#75 = CARTESIAN_POINT ( 'NONE',  ( 0.000000000000000000, 0.000000000000000000, 0.000000000000000000 ) ) ;
#76 = LOCAL_TIME ( 11, 1, 5.000000000000000000, #149 ) ;
#77 = FACE_BOUND ( 'NONE', #156, .T. ) ;
#78 = DIRECTION ( 'NONE',  ( 0.000000000000000000, 0.000000000000000000, 1.000000000000000000 ) ) ;
#79 = DIRECTION ( 'NONE',  ( 0.000000000000000000, 0.000000000000000000, -1.000000000000000000 ) ) ;
#80 = EDGE_CURVE ( 'NONE', #337, #146, #108, .T. ) ;
#81 = LINE ( 'NONE', #162, #354 ) ;
#82 = CIRCLE ( 'NONE', #159, 5.000000000000000000 ) ;
#83 = VERTEX_POINT ( 'NONE', #264 ) ;
#84 = CARTESIAN_POINT ( 'NONE',  ( 0.000000000000000000, 0.000000000000000000, 7.000000000000000000 ) ) ;
#85 = ORIENTED_EDGE ( 'NONE', *, *, #297, .T. ) ;
#86 = AXIS2_PLACEMENT_3D ( 'NONE', #72, #44, #128 ) ;
#87 = CARTESIAN_POINT ( 'NONE',  ( 7.700000000000001066, 0.000000000000000000, 7.700000000000012612 ) ) ;
#88 = CARTESIAN_POINT ( 'NONE',  ( 5.000000000000000000, 6.123233995736765296E-16, 167.0000000000000000 ) ) ;
#89 = ORIENTED_EDGE ( 'NONE', *, *, #35, .T. ) ;
#90 = PERSON_AND_ORGANIZATION ( #332, #110 ) ;
#91 = ADVANCED_FACE ( 'NONE', ( #270 ), #341, .T. ) ;
#92 = APPROVAL ( #313, 'NEURÈENÝ' ) ;
#93 = LINE ( 'NONE', #331, #56 ) ;
#94 = AXIS2_PLACEMENT_3D ( 'NONE', #243, #242, #366 ) ;
#95 = APPROVAL_ROLE ( '' ) ;
#96 = CARTESIAN_POINT ( 'NONE',  ( 7.000000000000000888, 8.572527594031474176E-16, 167.0000000000000000 ) ) ;
#97 = APPROVAL_DATE_TIME ( #271, #92 ) ;
#98 = CARTESIAN_POINT ( 'NONE',  ( -7.000000000000000888, 0.000000000000000000, 167.0000000000000000 ) ) ;
#99 = VERTEX_POINT ( 'NONE', #340 ) ;
#100 = CC_DESIGN_APPROVAL ( #92, ( #309 ) ) ;
#101 = ADVANCED_FACE ( 'NONE', ( #160 ), #363, .F. ) ;
#102 = DIRECTION ( 'NONE',  ( 1.224646799147353207E-16, 1.000000000000000000, -0.000000000000000000 ) ) ;
#103 = EDGE_CURVE ( 'NONE', #137, #292, #311, .T. ) ;
#104 = DIRECTION ( 'NONE',  ( 1.000000000000000000, 0.000000000000000000, 0.000000000000000000 ) ) ;
#105 = CARTESIAN_POINT ( 'NONE',  ( 0.000000000000000000, 0.000000000000000000, 167.0000000000000000 ) ) ;
#106 = CARTESIAN_POINT ( 'NONE',  ( 0.000000000000000000, 0.000000000000000000, 7.000000000000000000 ) ) ;
#107 = DIRECTION ( 'NONE',  ( 1.000000000000000000, 0.000000000000000000, 0.000000000000000000 ) ) ;
#108 = CIRCLE ( 'NONE', #148, 11.00000000000000000 ) ;
#109 = CARTESIAN_POINT ( 'NONE',  ( 11.00000000000000000, 1.347111479062088405E-15, 7.000000000000000000 ) ) ;
#110 = ORGANIZATION ( 'NEURÈENÝ', 'NEURÈENÝ', '' ) ;
#111 = EDGE_LOOP ( 'NONE', ( #190, #239 ) ) ;
#112 = ORIENTED_EDGE ( 'NONE', *, *, #157, .F. ) ;
#113 = EDGE_CURVE ( 'NONE', #99, #139, #257, .T. ) ;
#114 = DIRECTION ( 'NONE',  ( 0.000000000000000000, 0.000000000000000000, 1.000000000000000000 ) ) ;
#115 = TOROIDAL_SURFACE ( 'NONE', #325, 7.700000000000001066, 0.6999999999999999556 ) ;
#116 = DIRECTION ( 'NONE',  ( 0.000000000000000000, 0.000000000000000000, -1.000000000000000000 ) ) ;
#117 = EDGE_CURVE ( 'NONE', #292, #232, #140, .T. ) ;
#118 = PERSON_AND_ORGANIZATION ( #332, #110 ) ;
#119 = CARTESIAN_POINT ( 'NONE',  ( 5.000000000000000000, 6.123233995736765296E-16, 0.000000000000000000 ) ) ;
#120 = PERSON_AND_ORGANIZATION_ROLE ( 'creator' ) ;
#121 = CC_DESIGN_APPROVAL ( #314, ( #266 ) ) ;
#122 = DIRECTION ( 'NONE',  ( 1.000000000000000000, 0.000000000000000000, 0.000000000000000000 ) ) ;
#123 = EDGE_CURVE ( 'NONE', #51, #83, #173, .T. ) ;
#124 = CARTESIAN_POINT ( 'NONE',  ( 0.000000000000000000, 0.000000000000000000, 7.000000000000000000 ) ) ;
#125 = ORIENTED_EDGE ( 'NONE', *, *, #113, .F. ) ;
#126 = CIRCLE ( 'NONE', #66, 0.7000000000000000666 ) ;
#127 = SHAPE_DEFINITION_REPRESENTATION ( #29, #176 ) ;
#128 = DIRECTION ( 'NONE',  ( -1.000000000000000000, 0.000000000000000000, 0.000000000000000000 ) ) ;
#129 = CARTESIAN_POINT ( 'NONE',  ( -7.700000000000001066, 9.429780353434621002E-16, 7.700000000000012612 ) ) ;
#130 = DIRECTION ( 'NONE',  ( -1.000000000000000000, 0.000000000000000000, 0.000000000000000000 ) ) ;
#131 = CC_DESIGN_APPROVAL ( #356, ( #3 ) ) ;
#132 = DIRECTION ( 'NONE',  ( 1.000000000000000000, 0.000000000000000000, 0.000000000000000000 ) ) ;
#133 = EDGE_LOOP ( 'NONE', ( #112, #201, #222, #59 ) ) ;
#134 = CARTESIAN_POINT ( 'NONE',  ( 0.000000000000000000, 0.000000000000000000, 7.700000000000012612 ) ) ;
#135 = CARTESIAN_POINT ( 'NONE',  ( 0.000000000000000000, 0.000000000000000000, 0.000000000000000000 ) ) ;
#136 = AXIS2_PLACEMENT_3D ( 'NONE', #134, #371, #219 ) ;
#137 = VERTEX_POINT ( 'NONE', #96 ) ;
#138 = ORIENTED_EDGE ( 'NONE', *, *, #117, .T. ) ;
#139 = VERTEX_POINT ( 'NONE', #368 ) ;
#140 = CIRCLE ( 'NONE', #17, 7.000000000000000888 ) ;
#141 = EDGE_LOOP ( 'NONE', ( #358, #319 ) ) ;
#142 = PERSON_AND_ORGANIZATION ( #332, #110 ) ;
#143 = FACE_BOUND ( 'NONE', #141, .T. ) ;
#144 = APPROVAL_ROLE ( '' ) ;
#145 = CC_DESIGN_SECURITY_CLASSIFICATION ( #309, ( #3 ) ) ;
#146 = VERTEX_POINT ( 'NONE', #13 ) ;
#147 = SECURITY_CLASSIFICATION_LEVEL ( 'unclassified' ) ;
#148 = AXIS2_PLACEMENT_3D ( 'NONE', #261, #69, #305 ) ;
#149 = COORDINATED_UNIVERSAL_TIME_OFFSET ( 1, 0, .AHEAD. ) ;
#150 = DIRECTION ( 'NONE',  ( 1.000000000000000000, 0.000000000000000000, -0.000000000000000000 ) ) ;
#151 = CIRCLE ( 'NONE', #136, 7.000000000000000888 ) ;
#152 = DIRECTION ( 'NONE',  ( 1.000000000000000000, 0.000000000000000000, 0.000000000000000000 ) ) ;
#153 = ORIENTED_EDGE ( 'NONE', *, *, #289, .T. ) ;
#154 = EDGE_CURVE ( 'NONE', #146, #337, #34, .T. ) ;
#155 = DIRECTION ( 'NONE',  ( 1.000000000000000000, 0.000000000000000000, 0.000000000000000000 ) ) ;
#156 = EDGE_LOOP ( 'NONE', ( #268, #31 ) ) ;
#157 = EDGE_CURVE ( 'NONE', #232, #51, #10, .T. ) ;
#158 = CC_DESIGN_DATE_AND_TIME_ASSIGNMENT ( #265, #6, ( #309 ) ) ;
#159 = AXIS2_PLACEMENT_3D ( 'NONE', #74, #185, #104 ) ;
#160 = FACE_OUTER_BOUND ( 'NONE', #230, .T. ) ;
#161 = DIRECTION ( 'NONE',  ( -0.000000000000000000, -0.000000000000000000, -1.000000000000000000 ) ) ;
#162 = CARTESIAN_POINT ( 'NONE',  ( -5.000000000000000000, 0.000000000000000000, 167.0000000000000000 ) ) ;
#163 = ORIENTED_EDGE ( 'NONE', *, *, #8, .T. ) ;
#164 = EDGE_LOOP ( 'NONE', ( #298, #252 ) ) ;
#165 = CARTESIAN_POINT ( 'NONE',  ( 11.00000000000000000, 1.347111479062088405E-15, 7.000000000000000000 ) ) ;
#166 =( GEOMETRIC_REPRESENTATION_CONTEXT ( 3 ) GLOBAL_UNCERTAINTY_ASSIGNED_CONTEXT ( ( #5 ) ) GLOBAL_UNIT_ASSIGNED_CONTEXT ( ( #256, #228, #306 ) ) REPRESENTATION_CONTEXT ( 'NONE', 'WORKASPACE' ) );
#167 = ORIENTED_EDGE ( 'NONE', *, *, #322, .T. ) ;
#168 = DATE_AND_TIME ( #269, #372 ) ;
#169 = CC_DESIGN_PERSON_AND_ORGANIZATION_ASSIGNMENT ( #118, #36, ( #309 ) ) ;
#170 = PRODUCT_RELATED_PRODUCT_CATEGORY ( 'detail', '', ( #196 ) ) ;
#171 = VERTEX_POINT ( 'NONE', #98 ) ;
#172 = APPROVAL_STATUS ( 'not_yet_approved' ) ;
#173 = CIRCLE ( 'NONE', #192, 7.700000000000001066 ) ;
#174 = DIRECTION ( 'NONE',  ( 1.000000000000000000, 0.000000000000000000, -0.000000000000000000 ) ) ;
#175 = CARTESIAN_POINT ( 'NONE',  ( 0.000000000000000000, 0.000000000000000000, 0.000000000000000000 ) ) ;
#176 = ADVANCED_BREP_SHAPE_REPRESENTATION ( '69d4', ( #184, #278 ), #166 ) ;
#177 = APPLICATION_PROTOCOL_DEFINITION ( 'international standard', 'config_control_design', 1994, #229 ) ;
#178 = AXIS2_PLACEMENT_3D ( 'NONE', #75, #272, #122 ) ;
#179 = DIRECTION ( 'NONE',  ( 0.000000000000000000, 0.000000000000000000, 1.000000000000000000 ) ) ;
#180 = LOCAL_TIME ( 11, 1, 5.000000000000000000, #65 ) ;
#181 = CC_DESIGN_PERSON_AND_ORGANIZATION_ASSIGNMENT ( #32, #62, ( #196 ) ) ;
#182 = CLOSED_SHELL ( 'NONE', ( #101, #262, #221, #284, #224, #24, #64, #91, #241, #300, #250 ) ) ;
#183 = DIRECTION ( 'NONE',  ( 1.000000000000000000, 0.000000000000000000, 0.000000000000000000 ) ) ;
#184 = MANIFOLD_SOLID_BREP ( 'Odebrat vysunutím3', #182 ) ;
#185 = DIRECTION ( 'NONE',  ( -0.000000000000000000, -0.000000000000000000, -1.000000000000000000 ) ) ;
#186 = FACE_OUTER_BOUND ( 'NONE', #42, .T. ) ;
#187 = EDGE_LOOP ( 'NONE', ( #375, #259, #138, #321 ) ) ;
#188 = FACE_OUTER_BOUND ( 'NONE', #26, .T. ) ;
#189 = EDGE_LOOP ( 'NONE', ( #198, #167, #202, #194 ) ) ;
#190 = ORIENTED_EDGE ( 'NONE', *, *, #191, .T. ) ;
#191 = EDGE_CURVE ( 'NONE', #83, #51, #360, .T. ) ;
#192 = AXIS2_PLACEMENT_3D ( 'NONE', #216, #15, #277 ) ;
#193 = DIRECTION ( 'NONE',  ( 0.000000000000000000, 0.000000000000000000, 1.000000000000000000 ) ) ;
#194 = ORIENTED_EDGE ( 'NONE', *, *, #378, .T. ) ;
#195 = EDGE_CURVE ( 'NONE', #67, #45, #82, .T. ) ;
#196 = PRODUCT ( '69d4', '69d4', '', ( #68 ) ) ;
#197 = DIRECTION ( 'NONE',  ( 1.000000000000000000, 0.000000000000000000, 0.000000000000000000 ) ) ;
#198 = ORIENTED_EDGE ( 'NONE', *, *, #21, .F. ) ;
#199 = ORIENTED_EDGE ( 'NONE', *, *, #80, .F. ) ;
#200 = DIRECTION ( 'NONE',  ( 1.000000000000000000, 0.000000000000000000, 0.000000000000000000 ) ) ;
#201 = ORIENTED_EDGE ( 'NONE', *, *, #117, .F. ) ;
#202 = ORIENTED_EDGE ( 'NONE', *, *, #274, .T. ) ;
#203 = LOCAL_TIME ( 11, 1, 5.000000000000000000, #361 ) ;
#204 = PERSON_AND_ORGANIZATION_ROLE ( 'design_supplier' ) ;
#205 = DIRECTION ( 'NONE',  ( 0.000000000000000000, 0.000000000000000000, 1.000000000000000000 ) ) ;
#206 = PERSON_AND_ORGANIZATION ( #332, #110 ) ;
#207 = DIRECTION ( 'NONE',  ( 1.000000000000000000, 0.000000000000000000, 0.000000000000000000 ) ) ;
#208 = AXIS2_PLACEMENT_3D ( 'NONE', #328, #193, #197 ) ;
#209 = DIRECTION ( 'NONE',  ( 1.000000000000000000, 0.000000000000000000, 0.000000000000000000 ) ) ;
#210 = AXIS2_PLACEMENT_3D ( 'NONE', #106, #220, #174 ) ;
#211 = CARTESIAN_POINT ( 'NONE',  ( 0.000000000000000000, 0.000000000000000000, 7.000000000000000000 ) ) ;
#212 = DIRECTION ( 'NONE',  ( -1.000000000000000000, 1.224646799147351975E-16, 0.000000000000000000 ) ) ;
#213 = ORIENTED_EDGE ( 'NONE', *, *, #195, .T. ) ;
#214 = VECTOR ( 'NONE', #352, 1000.000000000000000 ) ;
#215 = COORDINATED_UNIVERSAL_TIME_OFFSET ( 1, 0, .AHEAD. ) ;
#216 = CARTESIAN_POINT ( 'NONE',  ( 0.000000000000000000, 0.000000000000000000, 7.000000000000000000 ) ) ;
#217 = CARTESIAN_POINT ( 'NONE',  ( -7.000000000000000888, 0.000000000000000000, 7.700000000000012612 ) ) ;
#218 = CIRCLE ( 'NONE', #46, 11.00000000000000000 ) ;
#219 = DIRECTION ( 'NONE',  ( 1.000000000000000000, 0.000000000000000000, 0.000000000000000000 ) ) ;
#220 = DIRECTION ( 'NONE',  ( 0.000000000000000000, 0.000000000000000000, 1.000000000000000000 ) ) ;
#221 = ADVANCED_FACE ( 'NONE', ( #308 ), #345, .T. ) ;
#222 = ORIENTED_EDGE ( 'NONE', *, *, #364, .T. ) ;
#223 = CC_DESIGN_PERSON_AND_ORGANIZATION_ASSIGNMENT ( #206, #120, ( #266 ) ) ;
#224 = ADVANCED_FACE ( 'NONE', ( #41 ), #315, .T. ) ;
#225 = DIRECTION ( 'NONE',  ( 0.000000000000000000, 0.000000000000000000, 1.000000000000000000 ) ) ;
#226 = DIRECTION ( 'NONE',  ( 0.000000000000000000, 0.000000000000000000, 1.000000000000000000 ) ) ;
#227 = ORIENTED_EDGE ( 'NONE', *, *, #8, .F. ) ;
#228 =( NAMED_UNIT ( * ) PLANE_ANGLE_UNIT ( ) SI_UNIT ( $, .RADIAN. ) );
#229 = APPLICATION_CONTEXT ( 'configuration controlled 3d designs of mechanical parts and assemblies' ) ;
#230 = EDGE_LOOP ( 'NONE', ( #235, #317, #213, #359 ) ) ;
#231 = APPROVAL_PERSON_ORGANIZATION ( #11, #92, #95 ) ;
#232 = VERTEX_POINT ( 'NONE', #217 ) ;
#233 = EDGE_LOOP ( 'NONE', ( #199, #163, #251, #365 ) ) ;
#234 = CALENDAR_DATE ( 2022, 10, 7 ) ;
#235 = ORIENTED_EDGE ( 'NONE', *, *, #350, .T. ) ;
#236 = COORDINATED_UNIVERSAL_TIME_OFFSET ( 1, 0, .AHEAD. ) ;
#237 = CARTESIAN_POINT ( 'NONE',  ( 0.000000000000000000, 0.000000000000000000, 167.0000000000000000 ) ) ;
#238 = VECTOR ( 'NONE', #348, 1000.000000000000000 ) ;
#239 = ORIENTED_EDGE ( 'NONE', *, *, #123, .T. ) ;
#240 = CARTESIAN_POINT ( 'NONE',  ( 0.000000000000000000, 0.000000000000000000, 7.700000000000012612 ) ) ;
#241 = ADVANCED_FACE ( 'NONE', ( #77, #186 ), #318, .T. ) ;
#242 = DIRECTION ( 'NONE',  ( -0.000000000000000000, -0.000000000000000000, -1.000000000000000000 ) ) ;
#243 = CARTESIAN_POINT ( 'NONE',  ( 0.000000000000000000, 0.000000000000000000, 167.0000000000000000 ) ) ;
#244 = AXIS2_PLACEMENT_3D ( 'NONE', #211, #343, #152 ) ;
#245 = APPLICATION_CONTEXT ( 'configuration controlled 3d designs of mechanical parts and assemblies' ) ;
#246 = DIRECTION ( 'NONE',  ( -1.000000000000000000, 0.000000000000000000, 0.000000000000000000 ) ) ;
#247 = CYLINDRICAL_SURFACE ( 'NONE', #253, 11.00000000000000000 ) ;
#248 = CIRCLE ( 'NONE', #283, 7.000000000000000888 ) ;
#249 = CC_DESIGN_PERSON_AND_ORGANIZATION_ASSIGNMENT ( #90, #204, ( #3 ) ) ;
#250 = ADVANCED_FACE ( 'NONE', ( #286 ), #22, .F. ) ;
#251 = ORIENTED_EDGE ( 'NONE', *, *, #353, .T. ) ;
#252 = ORIENTED_EDGE ( 'NONE', *, *, #80, .T. ) ;
#253 = AXIS2_PLACEMENT_3D ( 'NONE', #84, #161, #50 ) ;
#254 = DIRECTION ( 'NONE',  ( 0.000000000000000000, 0.000000000000000000, 1.000000000000000000 ) ) ;
#255 = LINE ( 'NONE', #380, #214 ) ;
#256 =( LENGTH_UNIT ( ) NAMED_UNIT ( * ) SI_UNIT ( .MILLI., .METRE. ) );
#257 = CIRCLE ( 'NONE', #178, 11.00000000000000000 ) ;
#258 = PLANE ( 'NONE',  #210 ) ;
#259 = ORIENTED_EDGE ( 'NONE', *, *, #103, .T. ) ;
#260 = DATE_AND_TIME ( #234, #203 ) ;
#261 = CARTESIAN_POINT ( 'NONE',  ( 0.000000000000000000, 0.000000000000000000, 7.000000000000000000 ) ) ;
#262 = ADVANCED_FACE ( 'NONE', ( #188 ), #316, .F. ) ;
#263 = LOCAL_TIME ( 11, 1, 5.000000000000000000, #215 ) ;
#264 = CARTESIAN_POINT ( 'NONE',  ( 7.700000000000001066, 0.000000000000000000, 7.000000000000006217 ) ) ;
#265 = DATE_AND_TIME ( #299, #180 ) ;
#266 = PRODUCT_DEFINITION ( 'NEZNÁMÝ', '', #3, #301 ) ;
#267 = CIRCLE ( 'NONE', #327, 7.000000000000000888 ) ;
#268 = ORIENTED_EDGE ( 'NONE', *, *, #350, .F. ) ;
#269 = CALENDAR_DATE ( 2022, 10, 7 ) ;
#270 = FACE_OUTER_BOUND ( 'NONE', #333, .T. ) ;
#271 = DATE_AND_TIME ( #38, #263 ) ;
#272 = DIRECTION ( 'NONE',  ( 0.000000000000000000, 0.000000000000000000, 1.000000000000000000 ) ) ;
#273 = AXIS2_PLACEMENT_3D ( 'NONE', #63, #295, #209 ) ;
#274 = EDGE_CURVE ( 'NONE', #73, #45, #81, .T. ) ;
#275 = DIRECTION ( 'NONE',  ( -0.000000000000000000, -0.000000000000000000, -1.000000000000000000 ) ) ;
#276 = DIRECTION ( 'NONE',  ( -0.000000000000000000, -0.000000000000000000, -1.000000000000000000 ) ) ;
#277 = DIRECTION ( 'NONE',  ( 1.000000000000000000, 0.000000000000000000, 0.000000000000000000 ) ) ;
#278 = AXIS2_PLACEMENT_3D ( 'NONE', #381, #114, #330 ) ;
#279 = DIRECTION ( 'NONE',  ( -0.000000000000000000, -0.000000000000000000, -1.000000000000000000 ) ) ;
#280 = FACE_OUTER_BOUND ( 'NONE', #133, .T. ) ;
#281 = CARTESIAN_POINT ( 'NONE',  ( 7.000000000000000888, 8.572527594031474176E-16, 7.700000000000012612 ) ) ;
#282 = ORIENTED_EDGE ( 'NONE', *, *, #289, .F. ) ;
#283 = AXIS2_PLACEMENT_3D ( 'NONE', #105, #285, #132 ) ;
#284 = ADVANCED_FACE ( 'NONE', ( #323 ), #247, .T. ) ;
#285 = DIRECTION ( 'NONE',  ( 0.000000000000000000, 0.000000000000000000, 1.000000000000000000 ) ) ;
#286 = FACE_OUTER_BOUND ( 'NONE', #189, .T. ) ;
#287 = EDGE_LOOP ( 'NONE', ( #227, #367, #89, #4 ) ) ;
#288 = ORIENTED_EDGE ( 'NONE', *, *, #353, .F. ) ;
#289 = EDGE_CURVE ( 'NONE', #232, #292, #151, .T. ) ;
#290 = DIRECTION ( 'NONE',  ( -0.000000000000000000, -0.000000000000000000, -1.000000000000000000 ) ) ;
#291 = AXIS2_PLACEMENT_3D ( 'NONE', #129, #102, #212 ) ;
#292 = VERTEX_POINT ( 'NONE', #281 ) ;
#293 = APPLICATION_PROTOCOL_DEFINITION ( 'international standard', 'config_control_design', 1994, #245 ) ;
#294 = FACE_OUTER_BOUND ( 'NONE', #164, .T. ) ;
#295 = DIRECTION ( 'NONE',  ( -0.000000000000000000, -0.000000000000000000, -1.000000000000000000 ) ) ;
#296 = CARTESIAN_POINT ( 'NONE',  ( -7.700000000000001066, 9.429780353434621002E-16, 7.000000000000006217 ) ) ;
#297 = EDGE_CURVE ( 'NONE', #171, #137, #248, .T. ) ;
#298 = ORIENTED_EDGE ( 'NONE', *, *, #154, .T. ) ;
#299 = CALENDAR_DATE ( 2022, 10, 7 ) ;
#300 = ADVANCED_FACE ( 'NONE', ( #280 ), #115, .F. ) ;
#301 = DESIGN_CONTEXT ( 'detailed design', #229, 'design' ) ;
#302 = AXIS2_PLACEMENT_3D ( 'NONE', #48, #78, #18 ) ;
#303 = CALENDAR_DATE ( 2022, 10, 7 ) ;
#304 = CC_DESIGN_PERSON_AND_ORGANIZATION_ASSIGNMENT ( #2, #355, ( #3 ) ) ;
#305 = DIRECTION ( 'NONE',  ( 1.000000000000000000, 0.000000000000000000, 0.000000000000000000 ) ) ;
#306 =( NAMED_UNIT ( * ) SI_UNIT ( $, .STERADIAN. ) SOLID_ANGLE_UNIT ( ) );
#307 = VECTOR ( 'NONE', #276, 1000.000000000000000 ) ;
#308 = FACE_OUTER_BOUND ( 'NONE', #187, .T. ) ;
#309 = SECURITY_CLASSIFICATION ( '', '', #147 ) ;
#310 = ORIENTED_EDGE ( 'NONE', *, *, #364, .F. ) ;
#311 = LINE ( 'NONE', #43, #307 ) ;
#312 = ORIENTED_EDGE ( 'NONE', *, *, #157, .T. ) ;
#313 = APPROVAL_STATUS ( 'not_yet_approved' ) ;
#314 = APPROVAL ( #172, 'NEURÈENÝ' ) ;
#315 = CYLINDRICAL_SURFACE ( 'NONE', #377, 11.00000000000000000 ) ;
#316 = TOROIDAL_SURFACE ( 'NONE', #208, 7.700000000000001066, 0.6999999999999999556 ) ;
#317 = ORIENTED_EDGE ( 'NONE', *, *, #21, .T. ) ;
#318 = PLANE ( 'NONE',  #302 ) ;
#319 = ORIENTED_EDGE ( 'NONE', *, *, #195, .F. ) ;
#320 = DIRECTION ( 'NONE',  ( 0.000000000000000000, 0.000000000000000000, -1.000000000000000000 ) ) ;
#321 = ORIENTED_EDGE ( 'NONE', *, *, #344, .F. ) ;
#322 = EDGE_CURVE ( 'NONE', #23, #73, #27, .T. ) ;
#323 = FACE_OUTER_BOUND ( 'NONE', #233, .T. ) ;
#324 = ORIENTED_EDGE ( 'NONE', *, *, #191, .F. ) ;
#325 = AXIS2_PLACEMENT_3D ( 'NONE', #374, #376, #200 ) ;
#326 = CARTESIAN_POINT ( 'NONE',  ( -7.000000000000000888, 0.000000000000000000, 167.0000000000000000 ) ) ;
#327 = AXIS2_PLACEMENT_3D ( 'NONE', #237, #362, #207 ) ;
#328 = CARTESIAN_POINT ( 'NONE',  ( 0.000000000000000000, 0.000000000000000000, 7.700000000000012612 ) ) ;
#329 = FACE_BOUND ( 'NONE', #111, .T. ) ;
#330 = DIRECTION ( 'NONE',  ( 1.000000000000000000, 0.000000000000000000, 0.000000000000000000 ) ) ;
#331 = CARTESIAN_POINT ( 'NONE',  ( -11.00000000000000000, 0.000000000000000000, 7.000000000000000000 ) ) ;
#332 = PERSON ( 'NEURÈENÝ', 'NEURÈENÝ', 'NEURÈENÝ', ('NEURÈENÝ'), ('NEURÈENÝ'), ('NEURÈENÝ') ) ;
#333 = EDGE_LOOP ( 'NONE', ( #369, #54, #349, #153 ) ) ;
#334 = APPROVAL_STATUS ( 'not_yet_approved' ) ;
#335 = VECTOR ( 'NONE', #290, 1000.000000000000000 ) ;
#336 = CC_DESIGN_DATE_AND_TIME_ASSIGNMENT ( #168, #30, ( #266 ) ) ;
#337 = VERTEX_POINT ( 'NONE', #109 ) ;
#338 = APPROVAL_DATE_TIME ( #260, #356 ) ;
#339 = DIRECTION ( 'NONE',  ( -0.000000000000000000, -0.000000000000000000, -1.000000000000000000 ) ) ;
#340 = CARTESIAN_POINT ( 'NONE',  ( -11.00000000000000000, 0.000000000000000000, 0.000000000000000000 ) ) ;
#341 = CYLINDRICAL_SURFACE ( 'NONE', #86, 7.000000000000000888 ) ;
#342 = AXIS2_PLACEMENT_3D ( 'NONE', #57, #226, #25 ) ;
#343 = DIRECTION ( 'NONE',  ( 0.000000000000000000, 0.000000000000000000, 1.000000000000000000 ) ) ;
#344 = EDGE_CURVE ( 'NONE', #171, #232, #347, .T. ) ;
#345 = CYLINDRICAL_SURFACE ( 'NONE', #94, 7.000000000000000888 ) ;
#346 = APPROVAL_PERSON_ORGANIZATION ( #142, #356, #9 ) ;
#347 = LINE ( 'NONE', #326, #238 ) ;
#348 = DIRECTION ( 'NONE',  ( -0.000000000000000000, -0.000000000000000000, -1.000000000000000000 ) ) ;
#349 = ORIENTED_EDGE ( 'NONE', *, *, #344, .T. ) ;
#350 = EDGE_CURVE ( 'NONE', #73, #23, #14, .T. ) ;
#351 = DIRECTION ( 'NONE',  ( 1.000000000000000000, 0.000000000000000000, 0.000000000000000000 ) ) ;
#352 = DIRECTION ( 'NONE',  ( 0.000000000000000000, 0.000000000000000000, -1.000000000000000000 ) ) ;
#353 = EDGE_CURVE ( 'NONE', #139, #99, #218, .T. ) ;
#354 = VECTOR ( 'NONE', #320, 1000.000000000000000 ) ;
#355 = PERSON_AND_ORGANIZATION_ROLE ( 'creator' ) ;
#356 = APPROVAL ( #334, 'NEURÈENÝ' ) ;
#357 = APPROVAL_DATE_TIME ( #28, #314 ) ;
#358 = ORIENTED_EDGE ( 'NONE', *, *, #378, .F. ) ;
#359 = ORIENTED_EDGE ( 'NONE', *, *, #274, .F. ) ;
#360 = CIRCLE ( 'NONE', #40, 7.700000000000001066 ) ;
#361 = COORDINATED_UNIVERSAL_TIME_OFFSET ( 1, 0, .AHEAD. ) ;
#362 = DIRECTION ( 'NONE',  ( 0.000000000000000000, 0.000000000000000000, 1.000000000000000000 ) ) ;
#363 = CYLINDRICAL_SURFACE ( 'NONE', #49, 5.000000000000000000 ) ;
#364 = EDGE_CURVE ( 'NONE', #292, #83, #126, .T. ) ;
#365 = ORIENTED_EDGE ( 'NONE', *, *, #35, .F. ) ;
#366 = DIRECTION ( 'NONE',  ( -1.000000000000000000, 0.000000000000000000, 0.000000000000000000 ) ) ;
#367 = ORIENTED_EDGE ( 'NONE', *, *, #154, .F. ) ;
#368 = CARTESIAN_POINT ( 'NONE',  ( 11.00000000000000000, 1.347111479062088405E-15, 0.000000000000000000 ) ) ;
#369 = ORIENTED_EDGE ( 'NONE', *, *, #103, .F. ) ;
#370 = AXIS2_PLACEMENT_3D ( 'NONE', #175, #205, #150 ) ;
#371 = DIRECTION ( 'NONE',  ( 0.000000000000000000, 0.000000000000000000, 1.000000000000000000 ) ) ;
#372 = LOCAL_TIME ( 11, 1, 5.000000000000000000, #236 ) ;
#373 = CARTESIAN_POINT ( 'NONE',  ( 0.000000000000000000, 0.000000000000000000, 167.0000000000000000 ) ) ;
#374 = CARTESIAN_POINT ( 'NONE',  ( 0.000000000000000000, 0.000000000000000000, 7.700000000000012612 ) ) ;
#375 = ORIENTED_EDGE ( 'NONE', *, *, #52, .F. ) ;
#376 = DIRECTION ( 'NONE',  ( 0.000000000000000000, 0.000000000000000000, 1.000000000000000000 ) ) ;
#377 = AXIS2_PLACEMENT_3D ( 'NONE', #47, #275, #16 ) ;
#378 = EDGE_CURVE ( 'NONE', #45, #67, #53, .T. ) ;
#379 = CARTESIAN_POINT ( 'NONE',  ( 0.000000000000000000, 0.000000000000000000, 167.0000000000000000 ) ) ;
#380 = CARTESIAN_POINT ( 'NONE',  ( 5.000000000000000000, 6.123233995736765296E-16, 167.0000000000000000 ) ) ;
#381 = CARTESIAN_POINT ( 'NONE',  ( 0.000000000000000000, 0.000000000000000000, 0.000000000000000000 ) ) ;
ENDSEC;
END-ISO-10303-21;
