ISO-10303-21;
HEADER;
FILE_DESCRIPTION (( 'STEP AP203' ),
    '1' );
FILE_NAME ('fcc9.STEP',
    '2022-07-10T09:01:49',
    ( '' ),
    ( '' ),
    'SwSTEP 2.0',
    'SolidWorks 2019',
    '' );
FILE_SCHEMA (( 'CONFIG_CONTROL_DESIGN' ));
ENDSEC;

DATA;
#1 = CARTESIAN_POINT ( 'NONE',  ( 0.000000000000000000, 0.000000000000000000, 0.000000000000000000 ) ) ;
#2 = FACE_OUTER_BOUND ( 'NONE', #136, .T. ) ;
#3 = DIRECTION ( 'NONE',  ( 1.000000000000000000, 0.000000000000000000, 0.000000000000000000 ) ) ;
#4 = DIRECTION ( 'NONE',  ( 1.000000000000000000, 0.000000000000000000, -0.000000000000000000 ) ) ;
#5 = EDGE_CURVE ( 'NONE', #379, #125, #252, .T. ) ;
#6 = ORIENTED_EDGE ( 'NONE', *, *, #327, .T. ) ;
#7 = APPROVAL_PERSON_ORGANIZATION ( #349, #124, #320 ) ;
#8 = DIRECTION ( 'NONE',  ( 0.000000000000000000, 0.000000000000000000, 1.000000000000000000 ) ) ;
#9 = EDGE_LOOP ( 'NONE', ( #273, #93 ) ) ;
#10 = ADVANCED_FACE ( 'NONE', ( #137 ), #315, .T. ) ;
#11 = ORIENTED_EDGE ( 'NONE', *, *, #369, .F. ) ;
#12 = APPLICATION_CONTEXT ( 'configuration controlled 3d designs of mechanical parts and assemblies' ) ;
#13 = ORIENTED_EDGE ( 'NONE', *, *, #345, .F. ) ;
#14 = AXIS2_PLACEMENT_3D ( 'NONE', #36, #178, #272 ) ;
#15 = EDGE_CURVE ( 'NONE', #125, #255, #17, .T. ) ;
#16 = APPROVAL_DATE_TIME ( #73, #351 ) ;
#17 = CIRCLE ( 'NONE', #154, 10.00000000000000000 ) ;
#18 = CARTESIAN_POINT ( 'NONE',  ( 4.099999999999999645, 5.021051876504147385E-16, 257.0000000000000000 ) ) ;
#19 = EDGE_LOOP ( 'NONE', ( #110, #102 ) ) ;
#20 = AXIS2_PLACEMENT_3D ( 'NONE', #333, #35, #331 ) ;
#21 = CALENDAR_DATE ( 2022, 10, 7 ) ;
#22 = ORIENTED_EDGE ( 'NONE', *, *, #299, .F. ) ;
#23 = ORIENTED_EDGE ( 'NONE', *, *, #322, .T. ) ;
#24 = ORIENTED_EDGE ( 'NONE', *, *, #142, .T. ) ;
#25 = AXIS2_PLACEMENT_3D ( 'NONE', #181, #95, #219 ) ;
#26 = CARTESIAN_POINT ( 'NONE',  ( -6.000000000000000888, 0.000000000000000000, 257.0000000000000000 ) ) ;
#27 = EDGE_CURVE ( 'NONE', #167, #68, #354, .T. ) ;
#28 = SHAPE_DEFINITION_REPRESENTATION ( #230, #265 ) ;
#29 = CYLINDRICAL_SURFACE ( 'NONE', #176, 10.00000000000000000 ) ;
#30 = CARTESIAN_POINT ( 'NONE',  ( 0.000000000000000000, 0.000000000000000000, 257.0000000000000000 ) ) ;
#31 = DIRECTION ( 'NONE',  ( -0.000000000000000000, -0.000000000000000000, -1.000000000000000000 ) ) ;
#32 = DIRECTION ( 'NONE',  ( -0.000000000000000000, -0.000000000000000000, -1.000000000000000000 ) ) ;
#33 = CC_DESIGN_PERSON_AND_ORGANIZATION_ASSIGNMENT ( #376, #337, ( #122 ) ) ;
#34 = AXIS2_PLACEMENT_3D ( 'NONE', #57, #291, #210 ) ;
#35 = DIRECTION ( 'NONE',  ( 0.000000000000000000, 0.000000000000000000, 1.000000000000000000 ) ) ;
#36 = CARTESIAN_POINT ( 'NONE',  ( 0.000000000000000000, 0.000000000000000000, 257.0000000000000000 ) ) ;
#37 = ORIENTED_EDGE ( 'NONE', *, *, #53, .F. ) ;
#38 = LINE ( 'NONE', #274, #197 ) ;
#39 = ORIENTED_EDGE ( 'NONE', *, *, #170, .T. ) ;
#40 = LOCAL_TIME ( 11, 1, 49.00000000000000000, #342 ) ;
#41 = EDGE_LOOP ( 'NONE', ( #161, #268, #97, #184 ) ) ;
#42 = AXIS2_PLACEMENT_3D ( 'NONE', #52, #32, #141 ) ;
#43 = EDGE_LOOP ( 'NONE', ( #218, #344, #365, #24 ) ) ;
#44 = PERSON_AND_ORGANIZATION ( #198, #113 ) ;
#45 = FACE_OUTER_BOUND ( 'NONE', #19, .T. ) ;
#46 = ADVANCED_FACE ( 'NONE', ( #254, #45 ), #280, .F. ) ;
#47 = AXIS2_PLACEMENT_3D ( 'NONE', #145, #263, #4 ) ;
#48 = CALENDAR_DATE ( 2022, 10, 7 ) ;
#49 = DIRECTION ( 'NONE',  ( 0.000000000000000000, 0.000000000000000000, 1.000000000000000000 ) ) ;
#50 = APPROVAL_ROLE ( '' ) ;
#51 = ORIENTED_EDGE ( 'NONE', *, *, #142, .F. ) ;
#52 = CARTESIAN_POINT ( 'NONE',  ( 0.000000000000000000, 0.000000000000000000, 7.000000000000000000 ) ) ;
#53 = EDGE_CURVE ( 'NONE', #62, #226, #220, .T. ) ;
#54 = AXIS2_PLACEMENT_3D ( 'NONE', #119, #121, #243 ) ;
#55 = DIRECTION ( 'NONE',  ( -0.000000000000000000, -0.000000000000000000, -1.000000000000000000 ) ) ;
#56 = CARTESIAN_POINT ( 'NONE',  ( 0.000000000000000000, 0.000000000000000000, 7.000000000000000000 ) ) ;
#57 = CARTESIAN_POINT ( 'NONE',  ( 0.000000000000000000, 0.000000000000000000, 257.0000000000000000 ) ) ;
#58 = PLANE ( 'NONE',  #179 ) ;
#59 = CARTESIAN_POINT ( 'NONE',  ( -4.099999999999999645, 0.000000000000000000, 257.0000000000000000 ) ) ;
#60 = CC_DESIGN_SECURITY_CLASSIFICATION ( #189, ( #91 ) ) ;
#61 = DIRECTION ( 'NONE',  ( 0.000000000000000000, 0.000000000000000000, 1.000000000000000000 ) ) ;
#62 = VERTEX_POINT ( 'NONE', #79 ) ;
#63 = EDGE_CURVE ( 'NONE', #335, #303, #196, .T. ) ;
#64 = CARTESIAN_POINT ( 'NONE',  ( 10.00000000000000000, 1.224646799147353256E-15, 7.000000000000000000 ) ) ;
#65 = EDGE_LOOP ( 'NONE', ( #37, #275, #215, #334 ) ) ;
#66 = EDGE_LOOP ( 'NONE', ( #329, #241 ) ) ;
#67 = DIRECTION ( 'NONE',  ( 0.000000000000000000, 0.000000000000000000, 1.000000000000000000 ) ) ;
#68 = VERTEX_POINT ( 'NONE', #371 ) ;
#69 = PERSON_AND_ORGANIZATION ( #198, #113 ) ;
#70 = EDGE_CURVE ( 'NONE', #62, #231, #348, .T. ) ;
#71 = DIRECTION ( 'NONE',  ( 0.000000000000000000, 0.000000000000000000, 1.000000000000000000 ) ) ;
#72 = TOROIDAL_SURFACE ( 'NONE', #352, 6.700000000000001066, 0.6999999999999999556 ) ;
#73 = DATE_AND_TIME ( #370, #306 ) ;
#74 = ORIENTED_EDGE ( 'NONE', *, *, #53, .T. ) ;
#75 = PERSON_AND_ORGANIZATION_ROLE ( 'classification_officer' ) ;
#76 = DIRECTION ( 'NONE',  ( -0.000000000000000000, -0.000000000000000000, -1.000000000000000000 ) ) ;
#77 = EDGE_CURVE ( 'NONE', #224, #68, #362, .T. ) ;
#78 = COORDINATED_UNIVERSAL_TIME_OFFSET ( 1, 0, .AHEAD. ) ;
#79 = CARTESIAN_POINT ( 'NONE',  ( 6.000000000000000888, 7.347880794884120722E-16, 257.0000000000000000 ) ) ;
#80 = ORIENTED_EDGE ( 'NONE', *, *, #345, .T. ) ;
#81 = DATE_TIME_ROLE ( 'classification_date' ) ;
#82 = ADVANCED_FACE ( 'NONE', ( #203 ), #368, .F. ) ;
#83 = FACE_BOUND ( 'NONE', #66, .T. ) ;
#84 = CLOSED_SHELL ( 'NONE', ( #138, #82, #10, #253, #162, #128, #46, #356, #205, #316, #366 ) ) ;
#85 = CARTESIAN_POINT ( 'NONE',  ( -6.700000000000001066, 8.205133554287267548E-16, 7.700000000000012612 ) ) ;
#86 = DIRECTION ( 'NONE',  ( -0.000000000000000000, -0.000000000000000000, -1.000000000000000000 ) ) ;
#87 = DIRECTION ( 'NONE',  ( -1.000000000000000000, 0.000000000000000000, 0.000000000000000000 ) ) ;
#88 = CARTESIAN_POINT ( 'NONE',  ( 0.000000000000000000, 0.000000000000000000, 7.000000000000000000 ) ) ;
#89 = APPLICATION_CONTEXT ( 'configuration controlled 3d designs of mechanical parts and assemblies' ) ;
#90 = FACE_OUTER_BOUND ( 'NONE', #43, .T. ) ;
#91 = PRODUCT_DEFINITION_FORMATION_WITH_SPECIFIED_SOURCE ( 'LIBOVOLNÝ', '', #122, .NOT_KNOWN. ) ;
#92 = EDGE_CURVE ( 'NONE', #287, #335, #202, .T. ) ;
#93 = ORIENTED_EDGE ( 'NONE', *, *, #211, .F. ) ;
#94 = APPROVAL_DATE_TIME ( #380, #124 ) ;
#95 = DIRECTION ( 'NONE',  ( 0.000000000000000000, 0.000000000000000000, 1.000000000000000000 ) ) ;
#96 = ORIENTED_EDGE ( 'NONE', *, *, #15, .T. ) ;
#97 = ORIENTED_EDGE ( 'NONE', *, *, #211, .T. ) ;
#98 = CIRCLE ( 'NONE', #183, 6.000000000000000888 ) ;
#99 = DIRECTION ( 'NONE',  ( -0.000000000000000000, -0.000000000000000000, -1.000000000000000000 ) ) ;
#100 = EDGE_CURVE ( 'NONE', #226, #224, #175, .T. ) ;
#101 = PERSON_AND_ORGANIZATION_ROLE ( 'creator' ) ;
#102 = ORIENTED_EDGE ( 'NONE', *, *, #327, .F. ) ;
#103 = AXIS2_PLACEMENT_3D ( 'NONE', #318, #55, #246 ) ;
#104 = DIRECTION ( 'NONE',  ( -0.000000000000000000, -0.000000000000000000, -1.000000000000000000 ) ) ;
#105 = DATE_AND_TIME ( #21, #159 ) ;
#106 = DIRECTION ( 'NONE',  ( 1.000000000000000000, 0.000000000000000000, -0.000000000000000000 ) ) ;
#107 = APPLICATION_PROTOCOL_DEFINITION ( 'international standard', 'config_control_design', 1994, #12 ) ;
#108 = ORIENTED_EDGE ( 'NONE', *, *, #77, .F. ) ;
#109 = AXIS2_PLACEMENT_3D ( 'NONE', #132, #135, #310 ) ;
#110 = ORIENTED_EDGE ( 'NONE', *, *, #15, .F. ) ;
#111 = PLANE ( 'NONE',  #47 ) ;
#112 = DIRECTION ( 'NONE',  ( -0.000000000000000000, -0.000000000000000000, -1.000000000000000000 ) ) ;
#113 = ORGANIZATION ( 'NEURÈENÝ', 'NEURÈENÝ', '' ) ;
#114 = FACE_OUTER_BOUND ( 'NONE', #152, .T. ) ;
#115 = CARTESIAN_POINT ( 'NONE',  ( -4.099999999999999645, 0.000000000000000000, 0.000000000000000000 ) ) ;
#116 = DIRECTION ( 'NONE',  ( 1.000000000000000000, 0.000000000000000000, 0.000000000000000000 ) ) ;
#117 = DIRECTION ( 'NONE',  ( 0.000000000000000000, -1.000000000000000000, 0.000000000000000000 ) ) ;
#118 = APPROVAL_PERSON_ORGANIZATION ( #69, #278, #160 ) ;
#119 = CARTESIAN_POINT ( 'NONE',  ( 0.000000000000000000, 0.000000000000000000, 257.0000000000000000 ) ) ;
#120 = CIRCLE ( 'NONE', #163, 6.000000000000000888 ) ;
#121 = DIRECTION ( 'NONE',  ( 0.000000000000000000, 0.000000000000000000, 1.000000000000000000 ) ) ;
#122 = PRODUCT ( 'fcc9', 'fcc9', '', ( #193 ) ) ;
#123 = ORIENTED_EDGE ( 'NONE', *, *, #27, .T. ) ;
#124 = APPROVAL ( #207, 'NEURÈENÝ' ) ;
#125 = VERTEX_POINT ( 'NONE', #204 ) ;
#126 = VECTOR ( 'NONE', #177, 1000.000000000000000 ) ;
#127 = ORIENTED_EDGE ( 'NONE', *, *, #332, .T. ) ;
#128 = ADVANCED_FACE ( 'NONE', ( #353, #292 ), #58, .T. ) ;
#129 = APPROVAL_DATE_TIME ( #105, #278 ) ;
#130 = ORIENTED_EDGE ( 'NONE', *, *, #148, .F. ) ;
#131 = CIRCLE ( 'NONE', #262, 4.099999999999999645 ) ;
#132 = CARTESIAN_POINT ( 'NONE',  ( 0.000000000000000000, 0.000000000000000000, 0.000000000000000000 ) ) ;
#133 = DIRECTION ( 'NONE',  ( -1.000000000000000000, 0.000000000000000000, 0.000000000000000000 ) ) ;
#134 = AXIS2_PLACEMENT_3D ( 'NONE', #373, #104, #133 ) ;
#135 = DIRECTION ( 'NONE',  ( 0.000000000000000000, 0.000000000000000000, 1.000000000000000000 ) ) ;
#136 = EDGE_LOOP ( 'NONE', ( #13, #11, #309, #96 ) ) ;
#137 = FACE_OUTER_BOUND ( 'NONE', #65, .T. ) ;
#138 = ADVANCED_FACE ( 'NONE', ( #143 ), #261, .F. ) ;
#139 = AXIS2_PLACEMENT_3D ( 'NONE', #300, #8, #326 ) ;
#140 = CARTESIAN_POINT ( 'NONE',  ( 6.000000000000000888, 7.347880794884120722E-16, 7.700000000000012612 ) ) ;
#141 = DIRECTION ( 'NONE',  ( 1.000000000000000000, 0.000000000000000000, 0.000000000000000000 ) ) ;
#142 = EDGE_CURVE ( 'NONE', #224, #231, #120, .T. ) ;
#143 = FACE_OUTER_BOUND ( 'NONE', #41, .T. ) ;
#144 = DESIGN_CONTEXT ( 'detailed design', #89, 'design' ) ;
#145 = CARTESIAN_POINT ( 'NONE',  ( 0.000000000000000000, 0.000000000000000000, 257.0000000000000000 ) ) ;
#146 = DIRECTION ( 'NONE',  ( -1.000000000000000000, 0.000000000000000000, 0.000000000000000000 ) ) ;
#147 = AXIS2_PLACEMENT_3D ( 'NONE', #85, #174, #237 ) ;
#148 = EDGE_CURVE ( 'NONE', #68, #167, #341, .T. ) ;
#149 = CALENDAR_DATE ( 2022, 10, 7 ) ;
#150 = EDGE_LOOP ( 'NONE', ( #171, #23, #127, #39 ) ) ;
#151 = CIRCLE ( 'NONE', #25, 6.000000000000000888 ) ;
#152 = EDGE_LOOP ( 'NONE', ( #157, #74 ) ) ;
#153 = CARTESIAN_POINT ( 'NONE',  ( 10.00000000000000000, 1.224646799147353256E-15, 0.000000000000000000 ) ) ;
#154 = AXIS2_PLACEMENT_3D ( 'NONE', #285, #71, #340 ) ;
#155 = CARTESIAN_POINT ( 'NONE',  ( 0.000000000000000000, 0.000000000000000000, 257.0000000000000000 ) ) ;
#156 = CC_DESIGN_PERSON_AND_ORGANIZATION_ASSIGNMENT ( #44, #307, ( #91 ) ) ;
#157 = ORIENTED_EDGE ( 'NONE', *, *, #293, .T. ) ;
#158 = CARTESIAN_POINT ( 'NONE',  ( 0.000000000000000000, 0.000000000000000000, 7.700000000000012612 ) ) ;
#159 = LOCAL_TIME ( 11, 1, 49.00000000000000000, #78 ) ;
#160 = APPROVAL_ROLE ( '' ) ;
#161 = ORIENTED_EDGE ( 'NONE', *, *, #92, .T. ) ;
#162 = ADVANCED_FACE ( 'NONE', ( #2 ), #29, .T. ) ;
#163 = AXIS2_PLACEMENT_3D ( 'NONE', #381, #295, #3 ) ;
#164 = DATE_AND_TIME ( #48, #40 ) ;
#165 = EDGE_LOOP ( 'NONE', ( #123, #301 ) ) ;
#166 = DIRECTION ( 'NONE',  ( 0.000000000000000000, 0.000000000000000000, 1.000000000000000000 ) ) ;
#167 = VERTEX_POINT ( 'NONE', #260 ) ;
#168 = AXIS2_PLACEMENT_3D ( 'NONE', #375, #166, #106 ) ;
#169 = PERSON_AND_ORGANIZATION ( #198, #113 ) ;
#170 = EDGE_CURVE ( 'NONE', #185, #303, #192, .T. ) ;
#171 = ORIENTED_EDGE ( 'NONE', *, *, #63, .F. ) ;
#172 = CARTESIAN_POINT ( 'NONE',  ( 0.000000000000000000, 0.000000000000000000, 0.000000000000000000 ) ) ;
#173 = LOCAL_TIME ( 11, 1, 49.00000000000000000, #281 ) ;
#174 = DIRECTION ( 'NONE',  ( 1.224646799147353207E-16, 1.000000000000000000, -0.000000000000000000 ) ) ;
#175 = LINE ( 'NONE', #321, #248 ) ;
#176 = AXIS2_PLACEMENT_3D ( 'NONE', #355, #31, #146 ) ;
#177 = DIRECTION ( 'NONE',  ( -0.000000000000000000, -0.000000000000000000, -1.000000000000000000 ) ) ;
#178 = DIRECTION ( 'NONE',  ( 0.000000000000000000, 0.000000000000000000, -1.000000000000000000 ) ) ;
#179 = AXIS2_PLACEMENT_3D ( 'NONE', #56, #317, #238 ) ;
#180 = ORIENTED_EDGE ( 'NONE', *, *, #288, .F. ) ;
#181 = CARTESIAN_POINT ( 'NONE',  ( 0.000000000000000000, 0.000000000000000000, 7.700000000000012612 ) ) ;
#182 = CYLINDRICAL_SURFACE ( 'NONE', #372, 6.000000000000000888 ) ;
#183 = AXIS2_PLACEMENT_3D ( 'NONE', #357, #67, #213 ) ;
#184 = ORIENTED_EDGE ( 'NONE', *, *, #332, .F. ) ;
#185 = VERTEX_POINT ( 'NONE', #115 ) ;
#186 =( LENGTH_UNIT ( ) NAMED_UNIT ( * ) SI_UNIT ( .MILLI., .METRE. ) );
#187 = ORIENTED_EDGE ( 'NONE', *, *, #299, .T. ) ;
#188 = DATE_TIME_ROLE ( 'creation_date' ) ;
#189 = SECURITY_CLASSIFICATION ( '', '', #286 ) ;
#190 = ORIENTED_EDGE ( 'NONE', *, *, #27, .F. ) ;
#191 = EDGE_LOOP ( 'NONE', ( #108, #180, #187, #130 ) ) ;
#192 = CIRCLE ( 'NONE', #236, 4.099999999999999645 ) ;
#193 = MECHANICAL_CONTEXT ( 'NONE', #12, 'mechanical' ) ;
#194 = ORIENTED_EDGE ( 'NONE', *, *, #199, .T. ) ;
#195 = MANIFOLD_SOLID_BREP ( 'Odebrat vysunutím3', #84 ) ;
#196 = LINE ( 'NONE', #18, #297 ) ;
#197 = VECTOR ( 'NONE', #99, 1000.000000000000000 ) ;
#198 = PERSON ( 'NEURÈENÝ', 'NEURÈENÝ', 'NEURÈENÝ', ('NEURÈENÝ'), ('NEURÈENÝ'), ('NEURÈENÝ') ) ;
#199 = EDGE_CURVE ( 'NONE', #338, #379, #277, .T. ) ;
#200 = APPLICATION_PROTOCOL_DEFINITION ( 'international standard', 'config_control_design', 1994, #89 ) ;
#201 = DIRECTION ( 'NONE',  ( -0.000000000000000000, -0.000000000000000000, -1.000000000000000000 ) ) ;
#202 = CIRCLE ( 'NONE', #34, 4.099999999999999645 ) ;
#203 = FACE_OUTER_BOUND ( 'NONE', #247, .T. ) ;
#204 = CARTESIAN_POINT ( 'NONE',  ( -10.00000000000000000, 0.000000000000000000, 0.000000000000000000 ) ) ;
#205 = ADVANCED_FACE ( 'NONE', ( #83, #114 ), #111, .T. ) ;
#206 = VECTOR ( 'NONE', #330, 1000.000000000000000 ) ;
#207 = APPROVAL_STATUS ( 'not_yet_approved' ) ;
#208 = CARTESIAN_POINT ( 'NONE',  ( 0.000000000000000000, 0.000000000000000000, 7.700000000000012612 ) ) ;
#209 = DIRECTION ( 'NONE',  ( 1.000000000000000000, 0.000000000000000000, 0.000000000000000000 ) ) ;
#210 = DIRECTION ( 'NONE',  ( 1.000000000000000000, 0.000000000000000000, 0.000000000000000000 ) ) ;
#211 = EDGE_CURVE ( 'NONE', #303, #185, #131, .T. ) ;
#212 = DIRECTION ( 'NONE',  ( 1.000000000000000000, 0.000000000000000000, 0.000000000000000000 ) ) ;
#213 = DIRECTION ( 'NONE',  ( 1.000000000000000000, 0.000000000000000000, 0.000000000000000000 ) ) ;
#214 = AXIS2_PLACEMENT_3D ( 'NONE', #256, #76, #377 ) ;
#215 = ORIENTED_EDGE ( 'NONE', *, *, #288, .T. ) ;
#216 = CARTESIAN_POINT ( 'NONE',  ( -4.099999999999999645, 0.000000000000000000, 257.0000000000000000 ) ) ;
#217 =( NAMED_UNIT ( * ) SI_UNIT ( $, .STERADIAN. ) SOLID_ANGLE_UNIT ( ) );
#218 = ORIENTED_EDGE ( 'NONE', *, *, #70, .F. ) ;
#219 = DIRECTION ( 'NONE',  ( 1.000000000000000000, 0.000000000000000000, 0.000000000000000000 ) ) ;
#220 = CIRCLE ( 'NONE', #244, 6.000000000000000888 ) ;
#221 = PRODUCT_RELATED_PRODUCT_CATEGORY ( 'detail', '', ( #122 ) ) ;
#222 = EDGE_LOOP ( 'NONE', ( #311, #194 ) ) ;
#223 = LOCAL_TIME ( 11, 1, 49.00000000000000000, #361 ) ;
#224 = VERTEX_POINT ( 'NONE', #289 ) ;
#225 = COORDINATED_UNIVERSAL_TIME_OFFSET ( 1, 0, .AHEAD. ) ;
#226 = VERTEX_POINT ( 'NONE', #26 ) ;
#227 = PERSON_AND_ORGANIZATION_ROLE ( 'creator' ) ;
#228 = CARTESIAN_POINT ( 'NONE',  ( 0.000000000000000000, 0.000000000000000000, 257.0000000000000000 ) ) ;
#229 = CC_DESIGN_DATE_AND_TIME_ASSIGNMENT ( #164, #188, ( #264 ) ) ;
#230 = PRODUCT_DEFINITION_SHAPE ( 'NONE', 'NONE',  #264 ) ;
#231 = VERTEX_POINT ( 'NONE', #140 ) ;
#232 = CIRCLE ( 'NONE', #20, 10.00000000000000000 ) ;
#233 = CC_DESIGN_DATE_AND_TIME_ASSIGNMENT ( #269, #81, ( #189 ) ) ;
#234 = CYLINDRICAL_SURFACE ( 'NONE', #103, 10.00000000000000000 ) ;
#235 = DIRECTION ( 'NONE',  ( 0.000000000000000000, 0.000000000000000000, 1.000000000000000000 ) ) ;
#236 = AXIS2_PLACEMENT_3D ( 'NONE', #1, #112, #266 ) ;
#237 = DIRECTION ( 'NONE',  ( -1.000000000000000000, 1.224646799147353454E-16, 0.000000000000000000 ) ) ;
#238 = DIRECTION ( 'NONE',  ( 1.000000000000000000, 0.000000000000000000, -0.000000000000000000 ) ) ;
#239 = CYLINDRICAL_SURFACE ( 'NONE', #14, 4.099999999999999645 ) ;
#240 = DIRECTION ( 'NONE',  ( 0.000000000000000000, 0.000000000000000000, -1.000000000000000000 ) ) ;
#241 = ORIENTED_EDGE ( 'NONE', *, *, #322, .F. ) ;
#242 = CALENDAR_DATE ( 2022, 10, 7 ) ;
#243 = DIRECTION ( 'NONE',  ( 1.000000000000000000, 0.000000000000000000, 0.000000000000000000 ) ) ;
#244 = AXIS2_PLACEMENT_3D ( 'NONE', #228, #49, #343 ) ;
#245 = ORIENTED_EDGE ( 'NONE', *, *, #5, .F. ) ;
#246 = DIRECTION ( 'NONE',  ( -1.000000000000000000, 0.000000000000000000, 0.000000000000000000 ) ) ;
#247 = EDGE_LOOP ( 'NONE', ( #51, #360, #190, #22 ) ) ;
#248 = VECTOR ( 'NONE', #86, 1000.000000000000000 ) ;
#249 = CC_DESIGN_PERSON_AND_ORGANIZATION_ASSIGNMENT ( #279, #75, ( #189 ) ) ;
#250 = PERSON_AND_ORGANIZATION ( #198, #113 ) ;
#251 = AXIS2_PLACEMENT_3D ( 'NONE', #88, #235, #209 ) ;
#252 = LINE ( 'NONE', #284, #323 ) ;
#253 = ADVANCED_FACE ( 'NONE', ( #258 ), #234, .T. ) ;
#254 = FACE_BOUND ( 'NONE', #9, .T. ) ;
#255 = VERTEX_POINT ( 'NONE', #153 ) ;
#256 = CARTESIAN_POINT ( 'NONE',  ( 0.000000000000000000, 0.000000000000000000, 7.000000000000000000 ) ) ;
#257 = CC_DESIGN_PERSON_AND_ORGANIZATION_ASSIGNMENT ( #169, #101, ( #91 ) ) ;
#258 = FACE_OUTER_BOUND ( 'NONE', #308, .T. ) ;
#259 = AXIS2_PLACEMENT_3D ( 'NONE', #30, #296, #87 ) ;
#260 = CARTESIAN_POINT ( 'NONE',  ( 6.700000000000001066, 0.000000000000000000, 7.000000000000006217 ) ) ;
#261 = CYLINDRICAL_SURFACE ( 'NONE', #259, 4.099999999999999645 ) ;
#262 = AXIS2_PLACEMENT_3D ( 'NONE', #172, #350, #116 ) ;
#263 = DIRECTION ( 'NONE',  ( 0.000000000000000000, 0.000000000000000000, 1.000000000000000000 ) ) ;
#264 = PRODUCT_DEFINITION ( 'NEZNÁMÝ', '', #91, #144 ) ;
#265 = ADVANCED_BREP_SHAPE_REPRESENTATION ( 'fcc9', ( #195, #109 ), #290 ) ;
#266 = DIRECTION ( 'NONE',  ( 1.000000000000000000, 0.000000000000000000, 0.000000000000000000 ) ) ;
#267 = CARTESIAN_POINT ( 'NONE',  ( 4.099999999999999645, 5.021051876504147385E-16, 0.000000000000000000 ) ) ;
#268 = ORIENTED_EDGE ( 'NONE', *, *, #63, .T. ) ;
#269 = DATE_AND_TIME ( #242, #173 ) ;
#270 = CC_DESIGN_PERSON_AND_ORGANIZATION_ASSIGNMENT ( #250, #227, ( #264 ) ) ;
#271 = CC_DESIGN_APPROVAL ( #124, ( #189 ) ) ;
#272 = DIRECTION ( 'NONE',  ( -1.000000000000000000, 0.000000000000000000, 0.000000000000000000 ) ) ;
#273 = ORIENTED_EDGE ( 'NONE', *, *, #170, .F. ) ;
#274 = CARTESIAN_POINT ( 'NONE',  ( 10.00000000000000000, 1.224646799147353256E-15, 7.000000000000000000 ) ) ;
#275 = ORIENTED_EDGE ( 'NONE', *, *, #70, .T. ) ;
#276 = DIRECTION ( 'NONE',  ( -0.000000000000000000, -0.000000000000000000, -1.000000000000000000 ) ) ;
#277 = CIRCLE ( 'NONE', #251, 10.00000000000000000 ) ;
#278 = APPROVAL ( #374, 'NEURÈENÝ' ) ;
#279 = PERSON_AND_ORGANIZATION ( #198, #113 ) ;
#280 = PLANE ( 'NONE',  #168 ) ;
#281 = COORDINATED_UNIVERSAL_TIME_OFFSET ( 1, 0, .AHEAD. ) ;
#282 = ORIENTED_EDGE ( 'NONE', *, *, #199, .F. ) ;
#283 = CIRCLE ( 'NONE', #54, 4.099999999999999645 ) ;
#284 = CARTESIAN_POINT ( 'NONE',  ( -10.00000000000000000, 0.000000000000000000, 7.000000000000000000 ) ) ;
#285 = CARTESIAN_POINT ( 'NONE',  ( 0.000000000000000000, 0.000000000000000000, 0.000000000000000000 ) ) ;
#286 = SECURITY_CLASSIFICATION_LEVEL ( 'unclassified' ) ;
#287 = VERTEX_POINT ( 'NONE', #59 ) ;
#288 = EDGE_CURVE ( 'NONE', #231, #224, #151, .T. ) ;
#289 = CARTESIAN_POINT ( 'NONE',  ( -6.000000000000000888, 0.000000000000000000, 7.700000000000012612 ) ) ;
#290 =( GEOMETRIC_REPRESENTATION_CONTEXT ( 3 ) GLOBAL_UNCERTAINTY_ASSIGNED_CONTEXT ( ( #294 ) ) GLOBAL_UNIT_ASSIGNED_CONTEXT ( ( #186, #305, #217 ) ) REPRESENTATION_CONTEXT ( 'NONE', 'WORKASPACE' ) );
#291 = DIRECTION ( 'NONE',  ( 0.000000000000000000, 0.000000000000000000, 1.000000000000000000 ) ) ;
#292 = FACE_OUTER_BOUND ( 'NONE', #222, .T. ) ;
#293 = EDGE_CURVE ( 'NONE', #226, #62, #98, .T. ) ;
#294 = UNCERTAINTY_MEASURE_WITH_UNIT (LENGTH_MEASURE( 1.000000000000000082E-05 ), #186, 'distance_accuracy_value', 'NONE');
#295 = DIRECTION ( 'NONE',  ( 0.000000000000000000, 0.000000000000000000, 1.000000000000000000 ) ) ;
#296 = DIRECTION ( 'NONE',  ( 0.000000000000000000, 0.000000000000000000, -1.000000000000000000 ) ) ;
#297 = VECTOR ( 'NONE', #313, 1000.000000000000000 ) ;
#298 = CARTESIAN_POINT ( 'NONE',  ( -10.00000000000000000, 0.000000000000000000, 7.000000000000000000 ) ) ;
#299 = EDGE_CURVE ( 'NONE', #231, #167, #336, .T. ) ;
#300 = CARTESIAN_POINT ( 'NONE',  ( 0.000000000000000000, 0.000000000000000000, 0.000000000000000000 ) ) ;
#301 = ORIENTED_EDGE ( 'NONE', *, *, #148, .T. ) ;
#302 = DIRECTION ( 'NONE',  ( -1.000000000000000000, 0.000000000000000000, 0.000000000000000000 ) ) ;
#303 = VERTEX_POINT ( 'NONE', #267 ) ;
#304 = FACE_OUTER_BOUND ( 'NONE', #191, .T. ) ;
#305 =( NAMED_UNIT ( * ) PLANE_ANGLE_UNIT ( ) SI_UNIT ( $, .RADIAN. ) );
#306 = LOCAL_TIME ( 11, 1, 49.00000000000000000, #225 ) ;
#307 = PERSON_AND_ORGANIZATION_ROLE ( 'design_supplier' ) ;
#308 = EDGE_LOOP ( 'NONE', ( #282, #80, #6, #245 ) ) ;
#309 = ORIENTED_EDGE ( 'NONE', *, *, #5, .T. ) ;
#310 = DIRECTION ( 'NONE',  ( 1.000000000000000000, 0.000000000000000000, 0.000000000000000000 ) ) ;
#311 = ORIENTED_EDGE ( 'NONE', *, *, #369, .T. ) ;
#312 = AXIS2_PLACEMENT_3D ( 'NONE', #328, #117, #240 ) ;
#313 = DIRECTION ( 'NONE',  ( 0.000000000000000000, 0.000000000000000000, -1.000000000000000000 ) ) ;
#314 = PERSON_AND_ORGANIZATION ( #198, #113 ) ;
#315 = CYLINDRICAL_SURFACE ( 'NONE', #134, 6.000000000000000888 ) ;
#316 = ADVANCED_FACE ( 'NONE', ( #304 ), #72, .F. ) ;
#317 = DIRECTION ( 'NONE',  ( 0.000000000000000000, 0.000000000000000000, 1.000000000000000000 ) ) ;
#318 = CARTESIAN_POINT ( 'NONE',  ( 0.000000000000000000, 0.000000000000000000, 7.000000000000000000 ) ) ;
#319 = CC_DESIGN_APPROVAL ( #351, ( #91 ) ) ;
#320 = APPROVAL_ROLE ( '' ) ;
#321 = CARTESIAN_POINT ( 'NONE',  ( -6.000000000000000888, 0.000000000000000000, 257.0000000000000000 ) ) ;
#322 = EDGE_CURVE ( 'NONE', #335, #287, #283, .T. ) ;
#323 = VECTOR ( 'NONE', #201, 1000.000000000000000 ) ;
#324 = DIRECTION ( 'NONE',  ( 1.000000000000000000, 0.000000000000000000, 0.000000000000000000 ) ) ;
#325 = DIRECTION ( 'NONE',  ( 0.000000000000000000, 0.000000000000000000, 1.000000000000000000 ) ) ;
#326 = DIRECTION ( 'NONE',  ( 1.000000000000000000, 0.000000000000000000, 0.000000000000000000 ) ) ;
#327 = EDGE_CURVE ( 'NONE', #255, #125, #367, .T. ) ;
#328 = CARTESIAN_POINT ( 'NONE',  ( 6.700000000000001066, 0.000000000000000000, 7.700000000000012612 ) ) ;
#329 = ORIENTED_EDGE ( 'NONE', *, *, #92, .F. ) ;
#330 = DIRECTION ( 'NONE',  ( 0.000000000000000000, 0.000000000000000000, -1.000000000000000000 ) ) ;
#331 = DIRECTION ( 'NONE',  ( 1.000000000000000000, 0.000000000000000000, 0.000000000000000000 ) ) ;
#332 = EDGE_CURVE ( 'NONE', #287, #185, #359, .T. ) ;
#333 = CARTESIAN_POINT ( 'NONE',  ( 0.000000000000000000, 0.000000000000000000, 7.000000000000000000 ) ) ;
#334 = ORIENTED_EDGE ( 'NONE', *, *, #100, .F. ) ;
#335 = VERTEX_POINT ( 'NONE', #363 ) ;
#336 = CIRCLE ( 'NONE', #312, 0.7000000000000000666 ) ;
#337 = PERSON_AND_ORGANIZATION_ROLE ( 'design_owner' ) ;
#338 = VERTEX_POINT ( 'NONE', #64 ) ;
#339 = APPROVAL_STATUS ( 'not_yet_approved' ) ;
#340 = DIRECTION ( 'NONE',  ( 1.000000000000000000, 0.000000000000000000, 0.000000000000000000 ) ) ;
#341 = CIRCLE ( 'NONE', #42, 6.700000000000001066 ) ;
#342 = COORDINATED_UNIVERSAL_TIME_OFFSET ( 1, 0, .AHEAD. ) ;
#343 = DIRECTION ( 'NONE',  ( 1.000000000000000000, 0.000000000000000000, 0.000000000000000000 ) ) ;
#344 = ORIENTED_EDGE ( 'NONE', *, *, #293, .F. ) ;
#345 = EDGE_CURVE ( 'NONE', #338, #255, #38, .T. ) ;
#346 = CARTESIAN_POINT ( 'NONE',  ( 6.000000000000000888, 7.347880794884120722E-16, 257.0000000000000000 ) ) ;
#347 = AXIS2_PLACEMENT_3D ( 'NONE', #208, #325, #324 ) ;
#348 = LINE ( 'NONE', #346, #126 ) ;
#349 = PERSON_AND_ORGANIZATION ( #198, #113 ) ;
#350 = DIRECTION ( 'NONE',  ( -0.000000000000000000, -0.000000000000000000, -1.000000000000000000 ) ) ;
#351 = APPROVAL ( #339, 'NEURÈENÝ' ) ;
#352 = AXIS2_PLACEMENT_3D ( 'NONE', #158, #61, #212 ) ;
#353 = FACE_BOUND ( 'NONE', #165, .T. ) ;
#354 = CIRCLE ( 'NONE', #214, 6.700000000000001066 ) ;
#355 = CARTESIAN_POINT ( 'NONE',  ( 0.000000000000000000, 0.000000000000000000, 7.000000000000000000 ) ) ;
#356 = ADVANCED_FACE ( 'NONE', ( #90 ), #182, .T. ) ;
#357 = CARTESIAN_POINT ( 'NONE',  ( 0.000000000000000000, 0.000000000000000000, 257.0000000000000000 ) ) ;
#358 = APPROVAL_PERSON_ORGANIZATION ( #314, #351, #50 ) ;
#359 = LINE ( 'NONE', #216, #206 ) ;
#360 = ORIENTED_EDGE ( 'NONE', *, *, #77, .T. ) ;
#361 = COORDINATED_UNIVERSAL_TIME_OFFSET ( 1, 0, .AHEAD. ) ;
#362 = CIRCLE ( 'NONE', #147, 0.7000000000000000666 ) ;
#363 = CARTESIAN_POINT ( 'NONE',  ( 4.099999999999999645, 5.021051876504147385E-16, 257.0000000000000000 ) ) ;
#364 = FACE_OUTER_BOUND ( 'NONE', #150, .T. ) ;
#365 = ORIENTED_EDGE ( 'NONE', *, *, #100, .T. ) ;
#366 = ADVANCED_FACE ( 'NONE', ( #364 ), #239, .F. ) ;
#367 = CIRCLE ( 'NONE', #139, 10.00000000000000000 ) ;
#368 = TOROIDAL_SURFACE ( 'NONE', #347, 6.700000000000001066, 0.6999999999999999556 ) ;
#369 = EDGE_CURVE ( 'NONE', #379, #338, #232, .T. ) ;
#370 = CALENDAR_DATE ( 2022, 10, 7 ) ;
#371 = CARTESIAN_POINT ( 'NONE',  ( -6.700000000000001066, 8.205133554287267548E-16, 7.000000000000006217 ) ) ;
#372 = AXIS2_PLACEMENT_3D ( 'NONE', #155, #276, #302 ) ;
#373 = CARTESIAN_POINT ( 'NONE',  ( 0.000000000000000000, 0.000000000000000000, 257.0000000000000000 ) ) ;
#374 = APPROVAL_STATUS ( 'not_yet_approved' ) ;
#375 = CARTESIAN_POINT ( 'NONE',  ( 0.000000000000000000, 0.000000000000000000, 0.000000000000000000 ) ) ;
#376 = PERSON_AND_ORGANIZATION ( #198, #113 ) ;
#377 = DIRECTION ( 'NONE',  ( 1.000000000000000000, 0.000000000000000000, 0.000000000000000000 ) ) ;
#378 = CC_DESIGN_APPROVAL ( #278, ( #264 ) ) ;
#379 = VERTEX_POINT ( 'NONE', #298 ) ;
#380 = DATE_AND_TIME ( #149, #223 ) ;
#381 = CARTESIAN_POINT ( 'NONE',  ( 0.000000000000000000, 0.000000000000000000, 7.700000000000012612 ) ) ;
ENDSEC;
END-ISO-10303-21;
