ISO-10303-21;
HEADER;
FILE_DESCRIPTION (( 'STEP AP203' ),
    '1' );
FILE_NAME ('49e3.STEP',
    '2022-07-10T09:08:02',
    ( '' ),
    ( '' ),
    'SwSTEP 2.0',
    'SolidWorks 2019',
    '' );
FILE_SCHEMA (( 'CONFIG_CONTROL_DESIGN' ));
ENDSEC;

DATA;
#1 = VERTEX_POINT ( 'NONE', #335 ) ;
#2 = DIRECTION ( 'NONE',  ( 1.000000000000000000, 0.000000000000000000, 0.000000000000000000 ) ) ;
#3 = MANIFOLD_SOLID_BREP ( 'Odebrat vysunutím3', #221 ) ;
#4 = ORIENTED_EDGE ( 'NONE', *, *, #324, .T. ) ;
#5 = AXIS2_PLACEMENT_3D ( 'NONE', #32, #298, #153 ) ;
#6 = LINE ( 'NONE', #121, #280 ) ;
#7 = DIRECTION ( 'NONE',  ( 0.000000000000000000, 0.000000000000000000, 1.000000000000000000 ) ) ;
#8 = EDGE_LOOP ( 'NONE', ( #307, #381, #148, #4 ) ) ;
#9 = CIRCLE ( 'NONE', #358, 7.000000000000000000 ) ;
#10 = CC_DESIGN_PERSON_AND_ORGANIZATION_ASSIGNMENT ( #316, #200, ( #310 ) ) ;
#11 = DIRECTION ( 'NONE',  ( -0.000000000000000000, -0.000000000000000000, -1.000000000000000000 ) ) ;
#12 = CIRCLE ( 'NONE', #60, 4.500000000000000888 ) ;
#13 = CARTESIAN_POINT ( 'NONE',  ( 0.000000000000000000, 0.000000000000000000, 5.500000000000005329 ) ) ;
#14 = ORIENTED_EDGE ( 'NONE', *, *, #176, .F. ) ;
#15 = PERSON_AND_ORGANIZATION ( #276, #323 ) ;
#16 = ORIENTED_EDGE ( 'NONE', *, *, #52, .F. ) ;
#17 = PRODUCT_DEFINITION ( 'NEZNÁMÝ', '', #184, #309 ) ;
#18 = APPROVAL_ROLE ( '' ) ;
#19 = DIRECTION ( 'NONE',  ( 1.000000000000000000, 0.000000000000000000, 0.000000000000000000 ) ) ;
#20 = APPROVAL_ROLE ( '' ) ;
#21 = LOCAL_TIME ( 11, 8, 2.000000000000000000, #141 ) ;
#22 = LINE ( 'NONE', #119, #158 ) ;
#23 = DIRECTION ( 'NONE',  ( 1.000000000000000000, 0.000000000000000000, -0.000000000000000000 ) ) ;
#24 = PERSON_AND_ORGANIZATION ( #276, #323 ) ;
#25 = DIRECTION ( 'NONE',  ( 1.224646799147353207E-16, 1.000000000000000000, -0.000000000000000000 ) ) ;
#26 = EDGE_CURVE ( 'NONE', #333, #354, #366, .T. ) ;
#27 = CIRCLE ( 'NONE', #345, 0.5000000000000004441 ) ;
#28 = FACE_BOUND ( 'NONE', #214, .T. ) ;
#29 = ORIENTED_EDGE ( 'NONE', *, *, #327, .T. ) ;
#30 = AXIS2_PLACEMENT_3D ( 'NONE', #377, #204, #197 ) ;
#31 = ORIENTED_EDGE ( 'NONE', *, *, #56, .T. ) ;
#32 = CARTESIAN_POINT ( 'NONE',  ( 0.000000000000000000, 0.000000000000000000, 0.000000000000000000 ) ) ;
#33 = TOROIDAL_SURFACE ( 'NONE', #139, 4.500000000000000888, 0.5000000000000000000 ) ;
#34 = DIRECTION ( 'NONE',  ( 0.000000000000000000, 0.000000000000000000, 1.000000000000000000 ) ) ;
#35 = EDGE_LOOP ( 'NONE', ( #68, #159, #360, #134 ) ) ;
#36 = EDGE_CURVE ( 'NONE', #352, #178, #9, .T. ) ;
#37 = DIRECTION ( 'NONE',  ( -0.000000000000000000, -0.000000000000000000, -1.000000000000000000 ) ) ;
#38 = ORIENTED_EDGE ( 'NONE', *, *, #301, .F. ) ;
#39 = AXIS2_PLACEMENT_3D ( 'NONE', #375, #169, #353 ) ;
#40 = CARTESIAN_POINT ( 'NONE',  ( 0.000000000000000000, 0.000000000000000000, 0.000000000000000000 ) ) ;
#41 = ORIENTED_EDGE ( 'NONE', *, *, #118, .F. ) ;
#42 = APPROVAL_PERSON_ORGANIZATION ( #289, #208, #20 ) ;
#43 = DATE_AND_TIME ( #342, #262 ) ;
#44 = ADVANCED_FACE ( 'NONE', ( #138 ), #224, .F. ) ;
#45 = CARTESIAN_POINT ( 'NONE',  ( -4.000000000000000000, 0.000000000000000000, 180.0000000000000000 ) ) ;
#46 = PLANE ( 'NONE',  #351 ) ;
#47 = APPLICATION_PROTOCOL_DEFINITION ( 'international standard', 'config_control_design', 1994, #58 ) ;
#48 = CARTESIAN_POINT ( 'NONE',  ( 0.000000000000000000, 0.000000000000000000, 180.0000000000000000 ) ) ;
#49 = DATE_AND_TIME ( #82, #209 ) ;
#50 = DIRECTION ( 'NONE',  ( 0.000000000000000000, 0.000000000000000000, -1.000000000000000000 ) ) ;
#51 = ADVANCED_BREP_SHAPE_REPRESENTATION ( '49e3', ( #3, #296 ), #355 ) ;
#52 = EDGE_CURVE ( 'NONE', #163, #325, #311, .T. ) ;
#53 = COORDINATED_UNIVERSAL_TIME_OFFSET ( 1, 0, .AHEAD. ) ;
#54 = DIRECTION ( 'NONE',  ( 1.000000000000000000, 0.000000000000000000, 0.000000000000000000 ) ) ;
#55 = CARTESIAN_POINT ( 'NONE',  ( 0.000000000000000000, 0.000000000000000000, 180.0000000000000000 ) ) ;
#56 = EDGE_CURVE ( 'NONE', #178, #352, #110, .T. ) ;
#57 = DIRECTION ( 'NONE',  ( -1.000000000000000000, 1.224646799147351482E-16, 0.000000000000000000 ) ) ;
#58 = APPLICATION_CONTEXT ( 'configuration controlled 3d designs of mechanical parts and assemblies' ) ;
#59 = CC_DESIGN_PERSON_AND_ORGANIZATION_ASSIGNMENT ( #372, #107, ( #184 ) ) ;
#60 = AXIS2_PLACEMENT_3D ( 'NONE', #275, #11, #357 ) ;
#61 = VERTEX_POINT ( 'NONE', #77 ) ;
#62 = DIRECTION ( 'NONE',  ( -0.000000000000000000, -0.000000000000000000, -1.000000000000000000 ) ) ;
#63 = ORIENTED_EDGE ( 'NONE', *, *, #279, .F. ) ;
#64 = DIRECTION ( 'NONE',  ( -1.000000000000000000, 0.000000000000000000, 0.000000000000000000 ) ) ;
#65 = EDGE_LOOP ( 'NONE', ( #89, #152 ) ) ;
#66 = CARTESIAN_POINT ( 'NONE',  ( 0.000000000000000000, 0.000000000000000000, 5.000000000000000000 ) ) ;
#67 = ADVANCED_FACE ( 'NONE', ( #194, #312 ), #46, .F. ) ;
#68 = ORIENTED_EDGE ( 'NONE', *, *, #56, .F. ) ;
#69 = APPROVAL_PERSON_ORGANIZATION ( #15, #193, #18 ) ;
#70 = DIRECTION ( 'NONE',  ( 0.000000000000000000, 0.000000000000000000, 1.000000000000000000 ) ) ;
#71 = CARTESIAN_POINT ( 'NONE',  ( 0.000000000000000000, 0.000000000000000000, 0.000000000000000000 ) ) ;
#72 =( LENGTH_UNIT ( ) NAMED_UNIT ( * ) SI_UNIT ( .MILLI., .METRE. ) );
#73 = CARTESIAN_POINT ( 'NONE',  ( 0.000000000000000000, 0.000000000000000000, 5.000000000000000000 ) ) ;
#74 = COORDINATED_UNIVERSAL_TIME_OFFSET ( 1, 0, .AHEAD. ) ;
#75 = DIRECTION ( 'NONE',  ( 1.000000000000000000, 0.000000000000000000, 0.000000000000000000 ) ) ;
#76 = APPROVAL_STATUS ( 'not_yet_approved' ) ;
#77 = CARTESIAN_POINT ( 'NONE',  ( -7.000000000000000000, 0.000000000000000000, 0.000000000000000000 ) ) ;
#78 = APPROVAL_ROLE ( '' ) ;
#79 = ORIENTED_EDGE ( 'NONE', *, *, #124, .T. ) ;
#80 = APPROVAL_DATE_TIME ( #43, #108 ) ;
#81 = CC_DESIGN_PERSON_AND_ORGANIZATION_ASSIGNMENT ( #196, #344, ( #184 ) ) ;
#82 = CALENDAR_DATE ( 2022, 10, 7 ) ;
#83 = AXIS2_PLACEMENT_3D ( 'NONE', #40, #7, #328 ) ;
#84 = DIRECTION ( 'NONE',  ( 0.000000000000000000, 0.000000000000000000, -1.000000000000000000 ) ) ;
#85 = DIRECTION ( 'NONE',  ( -0.000000000000000000, -0.000000000000000000, -1.000000000000000000 ) ) ;
#86 = EDGE_CURVE ( 'NONE', #352, #61, #332, .T. ) ;
#87 = FACE_OUTER_BOUND ( 'NONE', #363, .T. ) ;
#88 = TOROIDAL_SURFACE ( 'NONE', #97, 4.500000000000000888, 0.5000000000000000000 ) ;
#89 = ORIENTED_EDGE ( 'NONE', *, *, #349, .T. ) ;
#90 = DIRECTION ( 'NONE',  ( 0.000000000000000000, 0.000000000000000000, 1.000000000000000000 ) ) ;
#91 = CC_DESIGN_APPROVAL ( #108, ( #184 ) ) ;
#92 = FACE_OUTER_BOUND ( 'NONE', #243, .T. ) ;
#93 = EDGE_CURVE ( 'NONE', #354, #207, #22, .T. ) ;
#94 = DIRECTION ( 'NONE',  ( -0.000000000000000000, -0.000000000000000000, -1.000000000000000000 ) ) ;
#95 = ORIENTED_EDGE ( 'NONE', *, *, #36, .T. ) ;
#96 = DIRECTION ( 'NONE',  ( 0.000000000000000000, 0.000000000000000000, 1.000000000000000000 ) ) ;
#97 = AXIS2_PLACEMENT_3D ( 'NONE', #13, #98, #2 ) ;
#98 = DIRECTION ( 'NONE',  ( 0.000000000000000000, 0.000000000000000000, 1.000000000000000000 ) ) ;
#99 = ORIENTED_EDGE ( 'NONE', *, *, #26, .F. ) ;
#100 = ADVANCED_FACE ( 'NONE', ( #238 ), #378, .T. ) ;
#101 = PERSON_AND_ORGANIZATION ( #276, #323 ) ;
#102 = EDGE_LOOP ( 'NONE', ( #106, #222 ) ) ;
#103 = SECURITY_CLASSIFICATION_LEVEL ( 'unclassified' ) ;
#104 = DIRECTION ( 'NONE',  ( 0.000000000000000000, 0.000000000000000000, 1.000000000000000000 ) ) ;
#105 = CIRCLE ( 'NONE', #154, 2.600000000000000089 ) ;
#106 = ORIENTED_EDGE ( 'NONE', *, *, #315, .F. ) ;
#107 = PERSON_AND_ORGANIZATION_ROLE ( 'creator' ) ;
#108 = APPROVAL ( #334, 'NEURÈENÝ' ) ;
#109 = CARTESIAN_POINT ( 'NONE',  ( -2.600000000000000089, 0.000000000000000000, 0.000000000000000000 ) ) ;
#110 = CIRCLE ( 'NONE', #264, 7.000000000000000000 ) ;
#111 = DATE_AND_TIME ( #374, #287 ) ;
#112 = DIRECTION ( 'NONE',  ( -1.000000000000000000, 0.000000000000000000, 0.000000000000000000 ) ) ;
#113 = CIRCLE ( 'NONE', #337, 4.000000000000000000 ) ;
#114 = AXIS2_PLACEMENT_3D ( 'NONE', #125, #34, #210 ) ;
#115 = DIRECTION ( 'NONE',  ( 1.000000000000000000, 0.000000000000000000, 0.000000000000000000 ) ) ;
#116 = VECTOR ( 'NONE', #226, 1000.000000000000000 ) ;
#117 = CC_DESIGN_SECURITY_CLASSIFICATION ( #310, ( #184 ) ) ;
#118 = EDGE_CURVE ( 'NONE', #130, #163, #203, .T. ) ;
#119 = CARTESIAN_POINT ( 'NONE',  ( -2.600000000000000089, 0.000000000000000000, 180.0000000000000000 ) ) ;
#120 = ORIENTED_EDGE ( 'NONE', *, *, #216, .F. ) ;
#121 = CARTESIAN_POINT ( 'NONE',  ( 7.000000000000000000, 8.572527594031473190E-16, 5.000000000000000000 ) ) ;
#122 = VECTOR ( 'NONE', #259, 1000.000000000000000 ) ;
#123 = EDGE_LOOP ( 'NONE', ( #302, #277, #237, #181 ) ) ;
#124 = EDGE_CURVE ( 'NONE', #252, #325, #258, .T. ) ;
#125 = CARTESIAN_POINT ( 'NONE',  ( 0.000000000000000000, 0.000000000000000000, 0.000000000000000000 ) ) ;
#126 = CARTESIAN_POINT ( 'NONE',  ( 2.600000000000000089, 3.184081677783117698E-16, 0.000000000000000000 ) ) ;
#127 = DIRECTION ( 'NONE',  ( 0.000000000000000000, 0.000000000000000000, 1.000000000000000000 ) ) ;
#128 = FACE_OUTER_BOUND ( 'NONE', #156, .T. ) ;
#129 = ADVANCED_FACE ( 'NONE', ( #373, #87 ), #317, .T. ) ;
#130 = VERTEX_POINT ( 'NONE', #231 ) ;
#131 = AXIS2_PLACEMENT_3D ( 'NONE', #147, #320, #54 ) ;
#132 = UNCERTAINTY_MEASURE_WITH_UNIT (LENGTH_MEASURE( 1.000000000000000082E-05 ), #72, 'distance_accuracy_value', 'NONE');
#133 = CYLINDRICAL_SURFACE ( 'NONE', #225, 4.000000000000000000 ) ;
#134 = ORIENTED_EDGE ( 'NONE', *, *, #86, .F. ) ;
#135 = COORDINATED_UNIVERSAL_TIME_OFFSET ( 1, 0, .AHEAD. ) ;
#136 = CARTESIAN_POINT ( 'NONE',  ( 0.000000000000000000, 0.000000000000000000, 180.0000000000000000 ) ) ;
#137 = APPROVAL_DATE_TIME ( #111, #193 ) ;
#138 = FACE_OUTER_BOUND ( 'NONE', #123, .T. ) ;
#139 = AXIS2_PLACEMENT_3D ( 'NONE', #306, #180, #151 ) ;
#140 = CC_DESIGN_DATE_AND_TIME_ASSIGNMENT ( #168, #256, ( #310 ) ) ;
#141 = COORDINATED_UNIVERSAL_TIME_OFFSET ( 1, 0, .AHEAD. ) ;
#142 = CARTESIAN_POINT ( 'NONE',  ( 0.000000000000000000, 0.000000000000000000, 5.000000000000000000 ) ) ;
#143 = APPLICATION_PROTOCOL_DEFINITION ( 'international standard', 'config_control_design', 1994, #326 ) ;
#144 = CARTESIAN_POINT ( 'NONE',  ( -7.000000000000000000, 0.000000000000000000, 5.000000000000000000 ) ) ;
#145 = PERSON_AND_ORGANIZATION_ROLE ( 'creator' ) ;
#146 = FACE_OUTER_BOUND ( 'NONE', #65, .T. ) ;
#147 = CARTESIAN_POINT ( 'NONE',  ( 0.000000000000000000, 0.000000000000000000, 0.000000000000000000 ) ) ;
#148 = ORIENTED_EDGE ( 'NONE', *, *, #52, .T. ) ;
#149 = ADVANCED_FACE ( 'NONE', ( #28, #146 ), #173, .T. ) ;
#150 = AXIS2_PLACEMENT_3D ( 'NONE', #55, #84, #112 ) ;
#151 = DIRECTION ( 'NONE',  ( 1.000000000000000000, 0.000000000000000000, 0.000000000000000000 ) ) ;
#152 = ORIENTED_EDGE ( 'NONE', *, *, #118, .T. ) ;
#153 = DIRECTION ( 'NONE',  ( 1.000000000000000000, 0.000000000000000000, 0.000000000000000000 ) ) ;
#154 = AXIS2_PLACEMENT_3D ( 'NONE', #202, #286, #228 ) ;
#155 = CARTESIAN_POINT ( 'NONE',  ( 0.000000000000000000, 0.000000000000000000, 180.0000000000000000 ) ) ;
#156 = EDGE_LOOP ( 'NONE', ( #186, #284, #268, #14 ) ) ;
#157 = CARTESIAN_POINT ( 'NONE',  ( 4.500000000000000888, 0.000000000000000000, 5.500000000000005329 ) ) ;
#158 = VECTOR ( 'NONE', #50, 1000.000000000000000 ) ;
#159 = ORIENTED_EDGE ( 'NONE', *, *, #288, .T. ) ;
#160 = DIRECTION ( 'NONE',  ( 1.000000000000000000, 0.000000000000000000, 0.000000000000000000 ) ) ;
#161 = COORDINATED_UNIVERSAL_TIME_OFFSET ( 1, 0, .AHEAD. ) ;
#162 = ORIENTED_EDGE ( 'NONE', *, *, #288, .F. ) ;
#163 = VERTEX_POINT ( 'NONE', #255 ) ;
#164 = EDGE_CURVE ( 'NONE', #333, #270, #347, .T. ) ;
#165 = CARTESIAN_POINT ( 'NONE',  ( 0.000000000000000000, 0.000000000000000000, 0.000000000000000000 ) ) ;
#166 = DIRECTION ( 'NONE',  ( 0.000000000000000000, 0.000000000000000000, 1.000000000000000000 ) ) ;
#167 = CIRCLE ( 'NONE', #376, 4.500000000000000888 ) ;
#168 = DATE_AND_TIME ( #336, #234 ) ;
#169 = DIRECTION ( 'NONE',  ( -0.000000000000000000, -0.000000000000000000, -1.000000000000000000 ) ) ;
#170 = DIRECTION ( 'NONE',  ( 0.000000000000000000, 0.000000000000000000, 1.000000000000000000 ) ) ;
#171 = CC_DESIGN_DATE_AND_TIME_ASSIGNMENT ( #254, #220, ( #17 ) ) ;
#172 = DIRECTION ( 'NONE',  ( 1.000000000000000000, 0.000000000000000000, 0.000000000000000000 ) ) ;
#173 = PLANE ( 'NONE',  #174 ) ;
#174 = AXIS2_PLACEMENT_3D ( 'NONE', #48, #166, #23 ) ;
#175 = DIRECTION ( 'NONE',  ( -0.000000000000000000, -0.000000000000000000, -1.000000000000000000 ) ) ;
#176 = EDGE_CURVE ( 'NONE', #299, #1, #167, .T. ) ;
#177 = AXIS2_PLACEMENT_3D ( 'NONE', #136, #127, #75 ) ;
#178 = VERTEX_POINT ( 'NONE', #314 ) ;
#179 = CC_DESIGN_PERSON_AND_ORGANIZATION_ASSIGNMENT ( #101, #145, ( #17 ) ) ;
#180 = DIRECTION ( 'NONE',  ( 0.000000000000000000, 0.000000000000000000, 1.000000000000000000 ) ) ;
#181 = ORIENTED_EDGE ( 'NONE', *, *, #216, .T. ) ;
#182 = DIRECTION ( 'NONE',  ( 0.000000000000000000, 0.000000000000000000, -1.000000000000000000 ) ) ;
#183 = DIRECTION ( 'NONE',  ( -0.000000000000000000, -0.000000000000000000, -1.000000000000000000 ) ) ;
#184 = PRODUCT_DEFINITION_FORMATION_WITH_SPECIFIED_SOURCE ( 'LIBOVOLNÝ', '', #293, .NOT_KNOWN. ) ;
#185 = ORIENTED_EDGE ( 'NONE', *, *, #187, .F. ) ;
#186 = ORIENTED_EDGE ( 'NONE', *, *, #233, .F. ) ;
#187 = EDGE_CURVE ( 'NONE', #354, #333, #105, .T. ) ;
#188 = CARTESIAN_POINT ( 'NONE',  ( 4.000000000000000000, 4.898587196589412829E-16, 5.500000000000005329 ) ) ;
#189 = CARTESIAN_POINT ( 'NONE',  ( 0.000000000000000000, 0.000000000000000000, 180.0000000000000000 ) ) ;
#190 = DIRECTION ( 'NONE',  ( 0.000000000000000000, 0.000000000000000000, -1.000000000000000000 ) ) ;
#191 = CIRCLE ( 'NONE', #5, 2.600000000000000089 ) ;
#192 = MECHANICAL_CONTEXT ( 'NONE', #58, 'mechanical' ) ;
#193 = APPROVAL ( #282, 'NEURÈENÝ' ) ;
#194 = FACE_BOUND ( 'NONE', #305, .T. ) ;
#195 = EDGE_LOOP ( 'NONE', ( #249, #350 ) ) ;
#196 = PERSON_AND_ORGANIZATION ( #276, #323 ) ;
#197 = DIRECTION ( 'NONE',  ( 1.000000000000000000, 0.000000000000000000, 0.000000000000000000 ) ) ;
#198 = ADVANCED_FACE ( 'NONE', ( #261 ), #321, .F. ) ;
#199 = CIRCLE ( 'NONE', #131, 2.600000000000000089 ) ;
#200 = PERSON_AND_ORGANIZATION_ROLE ( 'classification_officer' ) ;
#201 = CARTESIAN_POINT ( 'NONE',  ( 2.600000000000000089, 3.184081677783117698E-16, 180.0000000000000000 ) ) ;
#202 = CARTESIAN_POINT ( 'NONE',  ( 0.000000000000000000, 0.000000000000000000, 180.0000000000000000 ) ) ;
#203 = CIRCLE ( 'NONE', #30, 4.000000000000000000 ) ;
#204 = DIRECTION ( 'NONE',  ( 0.000000000000000000, 0.000000000000000000, 1.000000000000000000 ) ) ;
#205 = ORIENTED_EDGE ( 'NONE', *, *, #187, .T. ) ;
#206 = AXIS2_PLACEMENT_3D ( 'NONE', #290, #90, #115 ) ;
#207 = VERTEX_POINT ( 'NONE', #109 ) ;
#208 = APPROVAL ( #76, 'NEURÈENÝ' ) ;
#209 = LOCAL_TIME ( 11, 8, 2.000000000000000000, #53 ) ;
#210 = DIRECTION ( 'NONE',  ( 1.000000000000000000, 0.000000000000000000, 0.000000000000000000 ) ) ;
#211 = ORIENTED_EDGE ( 'NONE', *, *, #93, .F. ) ;
#212 = CARTESIAN_POINT ( 'NONE',  ( 0.000000000000000000, 0.000000000000000000, 5.000000000000000000 ) ) ;
#213 = DIRECTION ( 'NONE',  ( 0.000000000000000000, -1.000000000000000000, 0.000000000000000000 ) ) ;
#214 = EDGE_LOOP ( 'NONE', ( #185, #99 ) ) ;
#215 = CARTESIAN_POINT ( 'NONE',  ( 0.000000000000000000, 0.000000000000000000, 180.0000000000000000 ) ) ;
#216 = EDGE_CURVE ( 'NONE', #207, #270, #199, .T. ) ;
#217 = CARTESIAN_POINT ( 'NONE',  ( 0.000000000000000000, 0.000000000000000000, 5.000000000000000000 ) ) ;
#218 = CYLINDRICAL_SURFACE ( 'NONE', #271, 7.000000000000000000 ) ;
#219 = ORIENTED_EDGE ( 'NONE', *, *, #301, .T. ) ;
#220 = DATE_TIME_ROLE ( 'creation_date' ) ;
#221 = CLOSED_SHELL ( 'NONE', ( #198, #244, #236, #369, #250, #129, #67, #100, #149, #346, #44 ) ) ;
#222 = ORIENTED_EDGE ( 'NONE', *, *, #257, .F. ) ;
#223 = PRODUCT_RELATED_PRODUCT_CATEGORY ( 'detail', '', ( #293 ) ) ;
#224 = CYLINDRICAL_SURFACE ( 'NONE', #283, 2.600000000000000089 ) ;
#225 = AXIS2_PLACEMENT_3D ( 'NONE', #155, #62, #64 ) ;
#226 = DIRECTION ( 'NONE',  ( -0.000000000000000000, -0.000000000000000000, -1.000000000000000000 ) ) ;
#227 = APPROVAL_DATE_TIME ( #49, #208 ) ;
#228 = DIRECTION ( 'NONE',  ( 1.000000000000000000, 0.000000000000000000, 0.000000000000000000 ) ) ;
#229 = SHAPE_DEFINITION_REPRESENTATION ( #232, #51 ) ;
#230 = CIRCLE ( 'NONE', #318, 0.5000000000000004441 ) ;
#231 = CARTESIAN_POINT ( 'NONE',  ( 4.000000000000000000, 4.898587196589412829E-16, 180.0000000000000000 ) ) ;
#232 = PRODUCT_DEFINITION_SHAPE ( 'NONE', 'NONE',  #17 ) ;
#233 = EDGE_CURVE ( 'NONE', #325, #299, #230, .T. ) ;
#234 = LOCAL_TIME ( 11, 8, 2.000000000000000000, #161 ) ;
#235 = EDGE_LOOP ( 'NONE', ( #205, #308, #219, #211 ) ) ;
#236 = ADVANCED_FACE ( 'NONE', ( #295 ), #133, .T. ) ;
#237 = ORIENTED_EDGE ( 'NONE', *, *, #93, .T. ) ;
#238 = FACE_OUTER_BOUND ( 'NONE', #8, .T. ) ;
#239 = EDGE_LOOP ( 'NONE', ( #41, #29, #79, #16 ) ) ;
#240 = CIRCLE ( 'NONE', #348, 4.000000000000000000 ) ;
#241 = CARTESIAN_POINT ( 'NONE',  ( 7.000000000000000000, 8.572527594031473190E-16, 0.000000000000000000 ) ) ;
#242 = DIRECTION ( 'NONE',  ( -0.000000000000000000, -0.000000000000000000, -1.000000000000000000 ) ) ;
#243 = EDGE_LOOP ( 'NONE', ( #267, #265, #63, #251 ) ) ;
#244 = ADVANCED_FACE ( 'NONE', ( #92 ), #88, .F. ) ;
#245 = CARTESIAN_POINT ( 'NONE',  ( 0.000000000000000000, 0.000000000000000000, 5.500000000000005329 ) ) ;
#246 = DIRECTION ( 'NONE',  ( -1.000000000000000000, 0.000000000000000000, 0.000000000000000000 ) ) ;
#247 = FACE_OUTER_BOUND ( 'NONE', #35, .T. ) ;
#248 = DIRECTION ( 'NONE',  ( 0.000000000000000000, 0.000000000000000000, 1.000000000000000000 ) ) ;
#249 = ORIENTED_EDGE ( 'NONE', *, *, #279, .T. ) ;
#250 = ADVANCED_FACE ( 'NONE', ( #364 ), #356, .T. ) ;
#251 = ORIENTED_EDGE ( 'NONE', *, *, #297, .F. ) ;
#252 = VERTEX_POINT ( 'NONE', #188 ) ;
#253 = CC_DESIGN_APPROVAL ( #208, ( #17 ) ) ;
#254 = DATE_AND_TIME ( #339, #21 ) ;
#255 = CARTESIAN_POINT ( 'NONE',  ( -4.000000000000000000, 0.000000000000000000, 180.0000000000000000 ) ) ;
#256 = DATE_TIME_ROLE ( 'classification_date' ) ;
#257 = EDGE_CURVE ( 'NONE', #281, #61, #294, .T. ) ;
#258 = CIRCLE ( 'NONE', #206, 4.000000000000000000 ) ;
#259 = DIRECTION ( 'NONE',  ( 0.000000000000000000, 0.000000000000000000, -1.000000000000000000 ) ) ;
#260 =( NAMED_UNIT ( * ) SI_UNIT ( $, .STERADIAN. ) SOLID_ANGLE_UNIT ( ) );
#261 = FACE_OUTER_BOUND ( 'NONE', #235, .T. ) ;
#262 = LOCAL_TIME ( 11, 8, 2.000000000000000000, #74 ) ;
#263 = DIRECTION ( 'NONE',  ( 1.000000000000000000, 0.000000000000000000, -0.000000000000000000 ) ) ;
#264 = AXIS2_PLACEMENT_3D ( 'NONE', #217, #338, #19 ) ;
#265 = ORIENTED_EDGE ( 'NONE', *, *, #233, .T. ) ;
#266 = APPROVAL_PERSON_ORGANIZATION ( #24, #108, #78 ) ;
#267 = ORIENTED_EDGE ( 'NONE', *, *, #324, .F. ) ;
#268 = ORIENTED_EDGE ( 'NONE', *, *, #297, .T. ) ;
#269 = DIRECTION ( 'NONE',  ( 1.000000000000000000, 0.000000000000000000, 0.000000000000000000 ) ) ;
#270 = VERTEX_POINT ( 'NONE', #126 ) ;
#271 = AXIS2_PLACEMENT_3D ( 'NONE', #66, #183, #304 ) ;
#272 = LINE ( 'NONE', #278, #303 ) ;
#273 = DIRECTION ( 'NONE',  ( -1.000000000000000000, 0.000000000000000000, 0.000000000000000000 ) ) ;
#274 = DIRECTION ( 'NONE',  ( 1.000000000000000000, 0.000000000000000000, 0.000000000000000000 ) ) ;
#275 = CARTESIAN_POINT ( 'NONE',  ( 0.000000000000000000, 0.000000000000000000, 5.000000000000000000 ) ) ;
#276 = PERSON ( 'NEURÈENÝ', 'NEURÈENÝ', 'NEURÈENÝ', ('NEURÈENÝ'), ('NEURÈENÝ'), ('NEURÈENÝ') ) ;
#277 = ORIENTED_EDGE ( 'NONE', *, *, #26, .T. ) ;
#278 = CARTESIAN_POINT ( 'NONE',  ( 4.000000000000000000, 4.898587196589412829E-16, 180.0000000000000000 ) ) ;
#279 = EDGE_CURVE ( 'NONE', #1, #299, #12, .T. ) ;
#280 = VECTOR ( 'NONE', #94, 1000.000000000000000 ) ;
#281 = VERTEX_POINT ( 'NONE', #241 ) ;
#282 = APPROVAL_STATUS ( 'not_yet_approved' ) ;
#283 = AXIS2_PLACEMENT_3D ( 'NONE', #189, #190, #246 ) ;
#284 = ORIENTED_EDGE ( 'NONE', *, *, #124, .F. ) ;
#285 = PERSON_AND_ORGANIZATION_ROLE ( 'design_owner' ) ;
#286 = DIRECTION ( 'NONE',  ( 0.000000000000000000, 0.000000000000000000, 1.000000000000000000 ) ) ;
#287 = LOCAL_TIME ( 11, 8, 2.000000000000000000, #135 ) ;
#288 = EDGE_CURVE ( 'NONE', #178, #281, #6, .T. ) ;
#289 = PERSON_AND_ORGANIZATION ( #276, #323 ) ;
#290 = CARTESIAN_POINT ( 'NONE',  ( 0.000000000000000000, 0.000000000000000000, 5.500000000000005329 ) ) ;
#291 = AXIS2_PLACEMENT_3D ( 'NONE', #142, #322, #263 ) ;
#292 = CARTESIAN_POINT ( 'NONE',  ( 0.000000000000000000, 0.000000000000000000, 5.000000000000000000 ) ) ;
#293 = PRODUCT ( '49e3', '49e3', '', ( #192 ) ) ;
#294 = CIRCLE ( 'NONE', #83, 7.000000000000000000 ) ;
#295 = FACE_OUTER_BOUND ( 'NONE', #239, .T. ) ;
#296 = AXIS2_PLACEMENT_3D ( 'NONE', #165, #170, #313 ) ;
#297 = EDGE_CURVE ( 'NONE', #252, #1, #27, .T. ) ;
#298 = DIRECTION ( 'NONE',  ( -0.000000000000000000, -0.000000000000000000, -1.000000000000000000 ) ) ;
#299 = VERTEX_POINT ( 'NONE', #300 ) ;
#300 = CARTESIAN_POINT ( 'NONE',  ( -4.500000000000000888, 5.510910596163088569E-16, 5.000000000000002665 ) ) ;
#301 = EDGE_CURVE ( 'NONE', #270, #207, #191, .T. ) ;
#302 = ORIENTED_EDGE ( 'NONE', *, *, #164, .F. ) ;
#303 = VECTOR ( 'NONE', #242, 1000.000000000000000 ) ;
#304 = DIRECTION ( 'NONE',  ( -1.000000000000000000, 0.000000000000000000, 0.000000000000000000 ) ) ;
#305 = EDGE_LOOP ( 'NONE', ( #120, #38 ) ) ;
#306 = CARTESIAN_POINT ( 'NONE',  ( 0.000000000000000000, 0.000000000000000000, 5.500000000000005329 ) ) ;
#307 = ORIENTED_EDGE ( 'NONE', *, *, #327, .F. ) ;
#308 = ORIENTED_EDGE ( 'NONE', *, *, #164, .T. ) ;
#309 = DESIGN_CONTEXT ( 'detailed design', #326, 'design' ) ;
#310 = SECURITY_CLASSIFICATION ( '', '', #103 ) ;
#311 = LINE ( 'NONE', #45, #116 ) ;
#312 = FACE_OUTER_BOUND ( 'NONE', #102, .T. ) ;
#313 = DIRECTION ( 'NONE',  ( 1.000000000000000000, 0.000000000000000000, 0.000000000000000000 ) ) ;
#314 = CARTESIAN_POINT ( 'NONE',  ( 7.000000000000000000, 8.572527594031473190E-16, 5.000000000000000000 ) ) ;
#315 = EDGE_CURVE ( 'NONE', #61, #281, #361, .T. ) ;
#316 = PERSON_AND_ORGANIZATION ( #276, #323 ) ;
#317 = PLANE ( 'NONE',  #291 ) ;
#318 = AXIS2_PLACEMENT_3D ( 'NONE', #343, #25, #57 ) ;
#319 =( NAMED_UNIT ( * ) PLANE_ANGLE_UNIT ( ) SI_UNIT ( $, .RADIAN. ) );
#320 = DIRECTION ( 'NONE',  ( -0.000000000000000000, -0.000000000000000000, -1.000000000000000000 ) ) ;
#321 = CYLINDRICAL_SURFACE ( 'NONE', #150, 2.600000000000000089 ) ;
#322 = DIRECTION ( 'NONE',  ( 0.000000000000000000, 0.000000000000000000, 1.000000000000000000 ) ) ;
#323 = ORGANIZATION ( 'NEURÈENÝ', 'NEURÈENÝ', '' ) ;
#324 = EDGE_CURVE ( 'NONE', #325, #252, #113, .T. ) ;
#325 = VERTEX_POINT ( 'NONE', #359 ) ;
#326 = APPLICATION_CONTEXT ( 'configuration controlled 3d designs of mechanical parts and assemblies' ) ;
#327 = EDGE_CURVE ( 'NONE', #130, #252, #272, .T. ) ;
#328 = DIRECTION ( 'NONE',  ( 1.000000000000000000, 0.000000000000000000, 0.000000000000000000 ) ) ;
#329 = VECTOR ( 'NONE', #85, 1000.000000000000000 ) ;
#330 = CARTESIAN_POINT ( 'NONE',  ( -2.600000000000000089, 0.000000000000000000, 180.0000000000000000 ) ) ;
#331 = CARTESIAN_POINT ( 'NONE',  ( -7.000000000000000000, 0.000000000000000000, 5.000000000000000000 ) ) ;
#332 = LINE ( 'NONE', #144, #329 ) ;
#333 = VERTEX_POINT ( 'NONE', #362 ) ;
#334 = APPROVAL_STATUS ( 'not_yet_approved' ) ;
#335 = CARTESIAN_POINT ( 'NONE',  ( 4.500000000000000888, 0.000000000000000000, 5.000000000000002665 ) ) ;
#336 = CALENDAR_DATE ( 2022, 10, 7 ) ;
#337 = AXIS2_PLACEMENT_3D ( 'NONE', #245, #70, #160 ) ;
#338 = DIRECTION ( 'NONE',  ( 0.000000000000000000, 0.000000000000000000, 1.000000000000000000 ) ) ;
#339 = CALENDAR_DATE ( 2022, 10, 7 ) ;
#340 = CC_DESIGN_PERSON_AND_ORGANIZATION_ASSIGNMENT ( #367, #285, ( #293 ) ) ;
#341 = DIRECTION ( 'NONE',  ( 1.000000000000000000, 0.000000000000000000, -0.000000000000000000 ) ) ;
#342 = CALENDAR_DATE ( 2022, 10, 7 ) ;
#343 = CARTESIAN_POINT ( 'NONE',  ( -4.500000000000000888, 5.510910596163089556E-16, 5.500000000000005329 ) ) ;
#344 = PERSON_AND_ORGANIZATION_ROLE ( 'design_supplier' ) ;
#345 = AXIS2_PLACEMENT_3D ( 'NONE', #157, #213, #182 ) ;
#346 = ADVANCED_FACE ( 'NONE', ( #128 ), #33, .F. ) ;
#347 = LINE ( 'NONE', #201, #122 ) ;
#348 = AXIS2_PLACEMENT_3D ( 'NONE', #215, #248, #269 ) ;
#349 = EDGE_CURVE ( 'NONE', #163, #130, #240, .T. ) ;
#350 = ORIENTED_EDGE ( 'NONE', *, *, #176, .T. ) ;
#351 = AXIS2_PLACEMENT_3D ( 'NONE', #71, #96, #341 ) ;
#352 = VERTEX_POINT ( 'NONE', #331 ) ;
#353 = DIRECTION ( 'NONE',  ( -1.000000000000000000, 0.000000000000000000, 0.000000000000000000 ) ) ;
#354 = VERTEX_POINT ( 'NONE', #330 ) ;
#355 =( GEOMETRIC_REPRESENTATION_CONTEXT ( 3 ) GLOBAL_UNCERTAINTY_ASSIGNED_CONTEXT ( ( #132 ) ) GLOBAL_UNIT_ASSIGNED_CONTEXT ( ( #72, #319, #260 ) ) REPRESENTATION_CONTEXT ( 'NONE', 'WORKASPACE' ) );
#356 = CYLINDRICAL_SURFACE ( 'NONE', #370, 7.000000000000000000 ) ;
#357 = DIRECTION ( 'NONE',  ( 1.000000000000000000, 0.000000000000000000, 0.000000000000000000 ) ) ;
#358 = AXIS2_PLACEMENT_3D ( 'NONE', #73, #104, #274 ) ;
#359 = CARTESIAN_POINT ( 'NONE',  ( -4.000000000000000000, 0.000000000000000000, 5.500000000000005329 ) ) ;
#360 = ORIENTED_EDGE ( 'NONE', *, *, #257, .T. ) ;
#361 = CIRCLE ( 'NONE', #114, 7.000000000000000000 ) ;
#362 = CARTESIAN_POINT ( 'NONE',  ( 2.600000000000000089, 3.184081677783117698E-16, 180.0000000000000000 ) ) ;
#363 = EDGE_LOOP ( 'NONE', ( #95, #31 ) ) ;
#364 = FACE_OUTER_BOUND ( 'NONE', #365, .T. ) ;
#365 = EDGE_LOOP ( 'NONE', ( #162, #380, #371, #368 ) ) ;
#366 = CIRCLE ( 'NONE', #177, 2.600000000000000089 ) ;
#367 = PERSON_AND_ORGANIZATION ( #276, #323 ) ;
#368 = ORIENTED_EDGE ( 'NONE', *, *, #315, .T. ) ;
#369 = ADVANCED_FACE ( 'NONE', ( #247 ), #218, .T. ) ;
#370 = AXIS2_PLACEMENT_3D ( 'NONE', #212, #37, #273 ) ;
#371 = ORIENTED_EDGE ( 'NONE', *, *, #86, .T. ) ;
#372 = PERSON_AND_ORGANIZATION ( #276, #323 ) ;
#373 = FACE_BOUND ( 'NONE', #195, .T. ) ;
#374 = CALENDAR_DATE ( 2022, 10, 7 ) ;
#375 = CARTESIAN_POINT ( 'NONE',  ( 0.000000000000000000, 0.000000000000000000, 180.0000000000000000 ) ) ;
#376 = AXIS2_PLACEMENT_3D ( 'NONE', #292, #175, #172 ) ;
#377 = CARTESIAN_POINT ( 'NONE',  ( 0.000000000000000000, 0.000000000000000000, 180.0000000000000000 ) ) ;
#378 = CYLINDRICAL_SURFACE ( 'NONE', #39, 4.000000000000000000 ) ;
#379 = CC_DESIGN_APPROVAL ( #193, ( #310 ) ) ;
#380 = ORIENTED_EDGE ( 'NONE', *, *, #36, .F. ) ;
#381 = ORIENTED_EDGE ( 'NONE', *, *, #349, .F. ) ;
ENDSEC;
END-ISO-10303-21;
