ISO-10303-21;
HEADER;
FILE_DESCRIPTION (( 'STEP AP203' ),
    '1' );
FILE_NAME ('aeae.STEP',
    '2022-07-10T09:05:13',
    ( '' ),
    ( '' ),
    'SwSTEP 2.0',
    'SolidWorks 2019',
    '' );
FILE_SCHEMA (( 'CONFIG_CONTROL_DESIGN' ));
ENDSEC;

DATA;
#1 = ADVANCED_FACE ( 'NONE', ( #90 ), #207, .T. ) ;
#2 =( LENGTH_UNIT ( ) NAMED_UNIT ( * ) SI_UNIT ( .MILLI., .METRE. ) );
#3 = DIRECTION ( 'NONE',  ( 0.000000000000000000, -1.000000000000000000, 0.000000000000000000 ) ) ;
#4 = DIRECTION ( 'NONE',  ( 0.000000000000000000, 0.000000000000000000, 1.000000000000000000 ) ) ;
#5 = CARTESIAN_POINT ( 'NONE',  ( 5.500000000000000000, 0.000000000000000000, 5.500000000000005329 ) ) ;
#6 = DATE_TIME_ROLE ( 'creation_date' ) ;
#7 = FACE_BOUND ( 'NONE', #269, .T. ) ;
#8 = APPROVAL_PERSON_ORGANIZATION ( #156, #234, #180 ) ;
#9 = DIRECTION ( 'NONE',  ( 1.000000000000000000, 0.000000000000000000, 0.000000000000000000 ) ) ;
#10 = FACE_OUTER_BOUND ( 'NONE', #318, .T. ) ;
#11 = FACE_BOUND ( 'NONE', #226, .T. ) ;
#12 = EDGE_CURVE ( 'NONE', #316, #21, #129, .T. ) ;
#13 = ORIENTED_EDGE ( 'NONE', *, *, #99, .F. ) ;
#14 = APPLICATION_PROTOCOL_DEFINITION ( 'international standard', 'config_control_design', 1994, #51 ) ;
#15 = DIRECTION ( 'NONE',  ( -0.000000000000000000, -0.000000000000000000, -1.000000000000000000 ) ) ;
#16 = CARTESIAN_POINT ( 'NONE',  ( 0.000000000000000000, 0.000000000000000000, 5.000000000000000000 ) ) ;
#17 = ORIENTED_EDGE ( 'NONE', *, *, #49, .F. ) ;
#18 = CIRCLE ( 'NONE', #92, 8.000000000000000000 ) ;
#19 = LINE ( 'NONE', #377, #335 ) ;
#20 = ORIENTED_EDGE ( 'NONE', *, *, #290, .F. ) ;
#21 = VERTEX_POINT ( 'NONE', #114 ) ;
#22 = CIRCLE ( 'NONE', #380, 8.000000000000000000 ) ;
#23 = AXIS2_PLACEMENT_3D ( 'NONE', #26, #119, #146 ) ;
#24 = FACE_OUTER_BOUND ( 'NONE', #110, .T. ) ;
#25 = EDGE_CURVE ( 'NONE', #339, #21, #324, .T. ) ;
#26 = CARTESIAN_POINT ( 'NONE',  ( 0.000000000000000000, 0.000000000000000000, 5.000000000000000000 ) ) ;
#27 = LINE ( 'NONE', #257, #79 ) ;
#28 = APPROVAL_PERSON_ORGANIZATION ( #244, #372, #242 ) ;
#29 = CARTESIAN_POINT ( 'NONE',  ( 0.000000000000000000, 0.000000000000000000, 165.0000000000000000 ) ) ;
#30 = CC_DESIGN_PERSON_AND_ORGANIZATION_ASSIGNMENT ( #208, #340, ( #304 ) ) ;
#31 = CIRCLE ( 'NONE', #368, 5.500000000000000000 ) ;
#32 = APPROVAL ( #192, 'NEURÈENÝ' ) ;
#33 = CARTESIAN_POINT ( 'NONE',  ( 0.000000000000000000, 0.000000000000000000, 0.000000000000000000 ) ) ;
#34 = EDGE_CURVE ( 'NONE', #81, #141, #31, .T. ) ;
#35 = DATE_TIME_ROLE ( 'classification_date' ) ;
#36 = CC_DESIGN_APPROVAL ( #234, ( #175 ) ) ;
#37 = ORIENTED_EDGE ( 'NONE', *, *, #215, .T. ) ;
#38 = CC_DESIGN_PERSON_AND_ORGANIZATION_ASSIGNMENT ( #95, #132, ( #175 ) ) ;
#39 = ORIENTED_EDGE ( 'NONE', *, *, #12, .F. ) ;
#40 = LOCAL_TIME ( 11, 5, 13.00000000000000000, #364 ) ;
#41 = COORDINATED_UNIVERSAL_TIME_OFFSET ( 1, 0, .AHEAD. ) ;
#42 = CARTESIAN_POINT ( 'NONE',  ( 0.000000000000000000, 0.000000000000000000, 5.000000000000000000 ) ) ;
#43 = VERTEX_POINT ( 'NONE', #52 ) ;
#44 = DIRECTION ( 'NONE',  ( -1.000000000000000000, 0.000000000000000000, 0.000000000000000000 ) ) ;
#45 = EDGE_LOOP ( 'NONE', ( #282, #47 ) ) ;
#46 = DIRECTION ( 'NONE',  ( 0.000000000000000000, 0.000000000000000000, 1.000000000000000000 ) ) ;
#47 = ORIENTED_EDGE ( 'NONE', *, *, #287, .T. ) ;
#48 = DIRECTION ( 'NONE',  ( -0.000000000000000000, -0.000000000000000000, -1.000000000000000000 ) ) ;
#49 = EDGE_CURVE ( 'NONE', #339, #270, #376, .T. ) ;
#50 = CARTESIAN_POINT ( 'NONE',  ( 5.000000000000000000, 6.123233995736766282E-16, 5.500000000000005329 ) ) ;
#51 = APPLICATION_CONTEXT ( 'configuration controlled 3d designs of mechanical parts and assemblies' ) ;
#52 = CARTESIAN_POINT ( 'NONE',  ( -3.100000000000000089, 0.000000000000000000, 0.000000000000000000 ) ) ;
#53 = SECURITY_CLASSIFICATION ( '', '', #344 ) ;
#54 = DIRECTION ( 'NONE',  ( 0.000000000000000000, 0.000000000000000000, 1.000000000000000000 ) ) ;
#55 = EDGE_CURVE ( 'NONE', #270, #339, #88, .T. ) ;
#56 = PLANE ( 'NONE',  #128 ) ;
#57 = EDGE_LOOP ( 'NONE', ( #159, #39, #105, #349 ) ) ;
#58 = DIRECTION ( 'NONE',  ( 1.224646799147353207E-16, 1.000000000000000000, -0.000000000000000000 ) ) ;
#59 = AXIS2_PLACEMENT_3D ( 'NONE', #16, #317, #280 ) ;
#60 = APPROVAL_STATUS ( 'not_yet_approved' ) ;
#61 = PERSON_AND_ORGANIZATION_ROLE ( 'design_supplier' ) ;
#62 = CIRCLE ( 'NONE', #94, 0.5000000000000004441 ) ;
#63 = DIRECTION ( 'NONE',  ( 1.000000000000000000, 0.000000000000000000, -0.000000000000000000 ) ) ;
#64 = PERSON_AND_ORGANIZATION ( #75, #154 ) ;
#65 = CARTESIAN_POINT ( 'NONE',  ( 8.000000000000000000, 9.797174393178825657E-16, 5.000000000000000000 ) ) ;
#66 = ORIENTED_EDGE ( 'NONE', *, *, #204, .F. ) ;
#67 = ADVANCED_FACE ( 'NONE', ( #24 ), #331, .T. ) ;
#68 = CC_DESIGN_DATE_AND_TIME_ASSIGNMENT ( #262, #6, ( #358 ) ) ;
#69 = CYLINDRICAL_SURFACE ( 'NONE', #122, 5.000000000000000000 ) ;
#70 = CARTESIAN_POINT ( 'NONE',  ( 0.000000000000000000, 0.000000000000000000, 165.0000000000000000 ) ) ;
#71 = CIRCLE ( 'NONE', #260, 8.000000000000000000 ) ;
#72 = ORIENTED_EDGE ( 'NONE', *, *, #246, .F. ) ;
#73 = CC_DESIGN_APPROVAL ( #372, ( #358 ) ) ;
#74 = CALENDAR_DATE ( 2022, 10, 7 ) ;
#75 = PERSON ( 'NEURÈENÝ', 'NEURÈENÝ', 'NEURÈENÝ', ('NEURÈENÝ'), ('NEURÈENÝ'), ('NEURÈENÝ') ) ;
#76 = ORIENTED_EDGE ( 'NONE', *, *, #297, .F. ) ;
#77 = DIRECTION ( 'NONE',  ( -0.000000000000000000, -0.000000000000000000, -1.000000000000000000 ) ) ;
#78 = ORIENTED_EDGE ( 'NONE', *, *, #219, .F. ) ;
#79 = VECTOR ( 'NONE', #142, 1000.000000000000000 ) ;
#80 = EDGE_LOOP ( 'NONE', ( #153, #135, #250, #185 ) ) ;
#81 = VERTEX_POINT ( 'NONE', #258 ) ;
#82 = DIRECTION ( 'NONE',  ( 0.000000000000000000, 0.000000000000000000, 1.000000000000000000 ) ) ;
#83 = DIRECTION ( 'NONE',  ( 0.000000000000000000, 0.000000000000000000, 1.000000000000000000 ) ) ;
#84 = EDGE_CURVE ( 'NONE', #316, #141, #62, .T. ) ;
#85 = CIRCLE ( 'NONE', #206, 3.100000000000000089 ) ;
#86 = APPLICATION_PROTOCOL_DEFINITION ( 'international standard', 'config_control_design', 1994, #133 ) ;
#87 = ORIENTED_EDGE ( 'NONE', *, *, #49, .T. ) ;
#88 = CIRCLE ( 'NONE', #354, 5.000000000000000000 ) ;
#89 = DIRECTION ( 'NONE',  ( 1.000000000000000000, 0.000000000000000000, 0.000000000000000000 ) ) ;
#90 = FACE_OUTER_BOUND ( 'NONE', #360, .T. ) ;
#91 = PLANE ( 'NONE',  #374 ) ;
#92 = AXIS2_PLACEMENT_3D ( 'NONE', #42, #169, #278 ) ;
#93 = EDGE_CURVE ( 'NONE', #21, #81, #337, .T. ) ;
#94 = AXIS2_PLACEMENT_3D ( 'NONE', #5, #3, #235 ) ;
#95 = PERSON_AND_ORGANIZATION ( #75, #154 ) ;
#96 = CARTESIAN_POINT ( 'NONE',  ( 0.000000000000000000, 0.000000000000000000, 165.0000000000000000 ) ) ;
#97 = ORIENTED_EDGE ( 'NONE', *, *, #361, .T. ) ;
#98 = CARTESIAN_POINT ( 'NONE',  ( 0.000000000000000000, 0.000000000000000000, 5.000000000000000000 ) ) ;
#99 = EDGE_CURVE ( 'NONE', #141, #81, #137, .T. ) ;
#100 = EDGE_CURVE ( 'NONE', #102, #313, #71, .T. ) ;
#101 = PERSON_AND_ORGANIZATION ( #75, #154 ) ;
#102 = VERTEX_POINT ( 'NONE', #211 ) ;
#103 = CARTESIAN_POINT ( 'NONE',  ( -3.100000000000000089, 0.000000000000000000, 165.0000000000000000 ) ) ;
#104 = AXIS2_PLACEMENT_3D ( 'NONE', #214, #341, #365 ) ;
#105 = ORIENTED_EDGE ( 'NONE', *, *, #84, .T. ) ;
#106 = APPROVAL_PERSON_ORGANIZATION ( #267, #32, #149 ) ;
#107 = DIRECTION ( 'NONE',  ( 0.000000000000000000, 0.000000000000000000, -1.000000000000000000 ) ) ;
#108 = AXIS2_PLACEMENT_3D ( 'NONE', #322, #256, #147 ) ;
#109 = CARTESIAN_POINT ( 'NONE',  ( 5.000000000000000000, 6.123233995736766282E-16, 165.0000000000000000 ) ) ;
#110 = EDGE_LOOP ( 'NONE', ( #163, #171, #319, #253 ) ) ;
#111 = DIRECTION ( 'NONE',  ( -0.000000000000000000, -0.000000000000000000, -1.000000000000000000 ) ) ;
#112 = ORIENTED_EDGE ( 'NONE', *, *, #215, .F. ) ;
#113 = CIRCLE ( 'NONE', #363, 3.100000000000000089 ) ;
#114 = CARTESIAN_POINT ( 'NONE',  ( -5.000000000000000000, 0.000000000000000000, 5.500000000000005329 ) ) ;
#115 = ADVANCED_FACE ( 'NONE', ( #263 ), #300, .F. ) ;
#116 = DIRECTION ( 'NONE',  ( 1.000000000000000000, 0.000000000000000000, 0.000000000000000000 ) ) ;
#117 = DIRECTION ( 'NONE',  ( -0.000000000000000000, -0.000000000000000000, -1.000000000000000000 ) ) ;
#118 = CARTESIAN_POINT ( 'NONE',  ( 8.000000000000000000, 9.797174393178825657E-16, 5.000000000000000000 ) ) ;
#119 = DIRECTION ( 'NONE',  ( -0.000000000000000000, -0.000000000000000000, -1.000000000000000000 ) ) ;
#120 = EDGE_CURVE ( 'NONE', #43, #301, #85, .T. ) ;
#121 = CYLINDRICAL_SURFACE ( 'NONE', #104, 3.100000000000000089 ) ;
#122 = AXIS2_PLACEMENT_3D ( 'NONE', #350, #249, #44 ) ;
#123 = DIRECTION ( 'NONE',  ( -0.000000000000000000, -0.000000000000000000, -1.000000000000000000 ) ) ;
#124 = DESIGN_CONTEXT ( 'detailed design', #51, 'design' ) ;
#125 = CARTESIAN_POINT ( 'NONE',  ( 0.000000000000000000, 0.000000000000000000, 0.000000000000000000 ) ) ;
#126 = PRODUCT_DEFINITION_SHAPE ( 'NONE', 'NONE',  #358 ) ;
#127 = LOCAL_TIME ( 11, 5, 13.00000000000000000, #189 ) ;
#128 = AXIS2_PLACEMENT_3D ( 'NONE', #284, #173, #292 ) ;
#129 = CIRCLE ( 'NONE', #329, 5.000000000000000000 ) ;
#130 = DIRECTION ( 'NONE',  ( -1.000000000000000000, 0.000000000000000000, 0.000000000000000000 ) ) ;
#131 = VERTEX_POINT ( 'NONE', #65 ) ;
#132 = PERSON_AND_ORGANIZATION_ROLE ( 'creator' ) ;
#133 = APPLICATION_CONTEXT ( 'configuration controlled 3d designs of mechanical parts and assemblies' ) ;
#134 = CYLINDRICAL_SURFACE ( 'NONE', #231, 5.000000000000000000 ) ;
#135 = ORIENTED_EDGE ( 'NONE', *, *, #343, .T. ) ;
#136 = ORIENTED_EDGE ( 'NONE', *, *, #369, .T. ) ;
#137 = CIRCLE ( 'NONE', #195, 5.500000000000000000 ) ;
#138 = ORIENTED_EDGE ( 'NONE', *, *, #93, .T. ) ;
#139 = ADVANCED_FACE ( 'NONE', ( #7, #334 ), #158, .F. ) ;
#140 = CARTESIAN_POINT ( 'NONE',  ( 0.000000000000000000, 0.000000000000000000, 5.500000000000005329 ) ) ;
#141 = VERTEX_POINT ( 'NONE', #181 ) ;
#142 = DIRECTION ( 'NONE',  ( 0.000000000000000000, 0.000000000000000000, -1.000000000000000000 ) ) ;
#143 = ORIENTED_EDGE ( 'NONE', *, *, #343, .F. ) ;
#144 = CIRCLE ( 'NONE', #161, 3.100000000000000089 ) ;
#145 = CARTESIAN_POINT ( 'NONE',  ( -5.000000000000000000, 0.000000000000000000, 165.0000000000000000 ) ) ;
#146 = DIRECTION ( 'NONE',  ( -1.000000000000000000, 0.000000000000000000, 0.000000000000000000 ) ) ;
#147 = DIRECTION ( 'NONE',  ( -1.000000000000000000, 0.000000000000000000, 0.000000000000000000 ) ) ;
#148 = AXIS2_PLACEMENT_3D ( 'NONE', #125, #240, #160 ) ;
#149 = APPROVAL_ROLE ( '' ) ;
#150 = DIRECTION ( 'NONE',  ( -1.000000000000000000, 1.224646799147351482E-16, 0.000000000000000000 ) ) ;
#151 = APPROVAL_DATE_TIME ( #178, #372 ) ;
#152 = CARTESIAN_POINT ( 'NONE',  ( 0.000000000000000000, 0.000000000000000000, 5.000000000000000000 ) ) ;
#153 = ORIENTED_EDGE ( 'NONE', *, *, #204, .T. ) ;
#154 = ORGANIZATION ( 'NEURÈENÝ', 'NEURÈENÝ', '' ) ;
#155 = ADVANCED_FACE ( 'NONE', ( #299 ), #121, .F. ) ;
#156 = PERSON_AND_ORGANIZATION ( #75, #154 ) ;
#157 = VECTOR ( 'NONE', #203, 1000.000000000000000 ) ;
#158 = PLANE ( 'NONE',  #148 ) ;
#159 = ORIENTED_EDGE ( 'NONE', *, *, #93, .F. ) ;
#160 = DIRECTION ( 'NONE',  ( 1.000000000000000000, 0.000000000000000000, -0.000000000000000000 ) ) ;
#161 = AXIS2_PLACEMENT_3D ( 'NONE', #70, #198, #312 ) ;
#162 = CARTESIAN_POINT ( 'NONE',  ( 0.000000000000000000, 0.000000000000000000, 0.000000000000000000 ) ) ;
#163 = ORIENTED_EDGE ( 'NONE', *, *, #369, .F. ) ;
#164 = ADVANCED_FACE ( 'NONE', ( #10 ), #223, .F. ) ;
#165 = AXIS2_PLACEMENT_3D ( 'NONE', #291, #54, #116 ) ;
#166 = ORIENTED_EDGE ( 'NONE', *, *, #120, .F. ) ;
#167 = DIRECTION ( 'NONE',  ( 1.000000000000000000, 0.000000000000000000, 0.000000000000000000 ) ) ;
#168 = ADVANCED_FACE ( 'NONE', ( #11, #238 ), #91, .T. ) ;
#169 = DIRECTION ( 'NONE',  ( 0.000000000000000000, 0.000000000000000000, 1.000000000000000000 ) ) ;
#170 = LINE ( 'NONE', #281, #356 ) ;
#171 = ORIENTED_EDGE ( 'NONE', *, *, #264, .F. ) ;
#172 = DIRECTION ( 'NONE',  ( 1.000000000000000000, 0.000000000000000000, 0.000000000000000000 ) ) ;
#173 = DIRECTION ( 'NONE',  ( 0.000000000000000000, 0.000000000000000000, 1.000000000000000000 ) ) ;
#174 = AXIS2_PLACEMENT_3D ( 'NONE', #96, #268, #241 ) ;
#175 = PRODUCT_DEFINITION_FORMATION_WITH_SPECIFIED_SOURCE ( 'LIBOVOLNÝ', '', #304, .NOT_KNOWN. ) ;
#176 = ADVANCED_FACE ( 'NONE', ( #179 ), #285, .F. ) ;
#177 = ORIENTED_EDGE ( 'NONE', *, *, #100, .F. ) ;
#178 = DATE_AND_TIME ( #362, #40 ) ;
#179 = FACE_OUTER_BOUND ( 'NONE', #57, .T. ) ;
#180 = APPROVAL_ROLE ( '' ) ;
#181 = CARTESIAN_POINT ( 'NONE',  ( 5.500000000000000000, 0.000000000000000000, 5.000000000000002665 ) ) ;
#182 = ADVANCED_FACE ( 'NONE', ( #296 ), #69, .T. ) ;
#183 = DATE_AND_TIME ( #298, #127 ) ;
#184 = DIRECTION ( 'NONE',  ( 0.000000000000000000, 0.000000000000000000, 1.000000000000000000 ) ) ;
#185 = ORIENTED_EDGE ( 'NONE', *, *, #232, .F. ) ;
#186 = EDGE_LOOP ( 'NONE', ( #87, #305 ) ) ;
#187 = CARTESIAN_POINT ( 'NONE',  ( 0.000000000000000000, 0.000000000000000000, 0.000000000000000000 ) ) ;
#188 = DIRECTION ( 'NONE',  ( 0.000000000000000000, 0.000000000000000000, 1.000000000000000000 ) ) ;
#189 = COORDINATED_UNIVERSAL_TIME_OFFSET ( 1, 0, .AHEAD. ) ;
#190 = CIRCLE ( 'NONE', #59, 8.000000000000000000 ) ;
#191 = ORIENTED_EDGE ( 'NONE', *, *, #25, .T. ) ;
#192 = APPROVAL_STATUS ( 'not_yet_approved' ) ;
#193 = DIRECTION ( 'NONE',  ( -0.000000000000000000, -0.000000000000000000, -1.000000000000000000 ) ) ;
#194 = ORIENTED_EDGE ( 'NONE', *, *, #34, .T. ) ;
#195 = AXIS2_PLACEMENT_3D ( 'NONE', #98, #216, #307 ) ;
#196 = DIRECTION ( 'NONE',  ( 1.000000000000000000, 0.000000000000000000, 0.000000000000000000 ) ) ;
#197 = ADVANCED_BREP_SHAPE_REPRESENTATION ( 'aeae', ( #237, #217 ), #302 ) ;
#198 = DIRECTION ( 'NONE',  ( 0.000000000000000000, 0.000000000000000000, 1.000000000000000000 ) ) ;
#199 = VERTEX_POINT ( 'NONE', #308 ) ;
#200 = CLOSED_SHELL ( 'NONE', ( #155, #164, #182, #1, #67, #168, #139, #227, #333, #176, #115 ) ) ;
#201 = VERTEX_POINT ( 'NONE', #345 ) ;
#202 =( NAMED_UNIT ( * ) SI_UNIT ( $, .STERADIAN. ) SOLID_ANGLE_UNIT ( ) );
#203 = DIRECTION ( 'NONE',  ( -0.000000000000000000, -0.000000000000000000, -1.000000000000000000 ) ) ;
#204 = EDGE_CURVE ( 'NONE', #199, #201, #144, .T. ) ;
#205 = DIRECTION ( 'NONE',  ( 1.000000000000000000, 0.000000000000000000, 0.000000000000000000 ) ) ;
#206 = AXIS2_PLACEMENT_3D ( 'NONE', #33, #123, #9 ) ;
#207 = CYLINDRICAL_SURFACE ( 'NONE', #108, 8.000000000000000000 ) ;
#208 = PERSON_AND_ORGANIZATION ( #75, #154 ) ;
#209 = DIRECTION ( 'NONE',  ( 0.000000000000000000, 0.000000000000000000, 1.000000000000000000 ) ) ;
#210 = COORDINATED_UNIVERSAL_TIME_OFFSET ( 1, 0, .AHEAD. ) ;
#211 = CARTESIAN_POINT ( 'NONE',  ( -8.000000000000000000, 0.000000000000000000, 0.000000000000000000 ) ) ;
#212 = ORIENTED_EDGE ( 'NONE', *, *, #287, .F. ) ;
#213 = PERSON_AND_ORGANIZATION ( #75, #154 ) ;
#214 = CARTESIAN_POINT ( 'NONE',  ( 0.000000000000000000, 0.000000000000000000, 165.0000000000000000 ) ) ;
#215 = EDGE_CURVE ( 'NONE', #21, #316, #266, .T. ) ;
#216 = DIRECTION ( 'NONE',  ( -0.000000000000000000, -0.000000000000000000, -1.000000000000000000 ) ) ;
#217 = AXIS2_PLACEMENT_3D ( 'NONE', #326, #82, #205 ) ;
#218 = CARTESIAN_POINT ( 'NONE',  ( 0.000000000000000000, 0.000000000000000000, 5.500000000000005329 ) ) ;
#219 = EDGE_CURVE ( 'NONE', #301, #43, #255, .T. ) ;
#220 = CALENDAR_DATE ( 2022, 10, 7 ) ;
#221 = EDGE_LOOP ( 'NONE', ( #20, #17, #191, #37 ) ) ;
#222 = APPROVAL_STATUS ( 'not_yet_approved' ) ;
#223 = TOROIDAL_SURFACE ( 'NONE', #325, 5.500000000000000000, 0.5000000000000000000 ) ;
#224 = LOCAL_TIME ( 11, 5, 13.00000000000000000, #210 ) ;
#225 = CARTESIAN_POINT ( 'NONE',  ( 0.000000000000000000, 0.000000000000000000, 165.0000000000000000 ) ) ;
#226 = EDGE_LOOP ( 'NONE', ( #342, #194 ) ) ;
#227 = ADVANCED_FACE ( 'NONE', ( #229 ), #134, .T. ) ;
#228 = EDGE_LOOP ( 'NONE', ( #66, #72 ) ) ;
#229 = FACE_OUTER_BOUND ( 'NONE', #221, .T. ) ;
#230 = ORIENTED_EDGE ( 'NONE', *, *, #246, .T. ) ;
#231 = AXIS2_PLACEMENT_3D ( 'NONE', #247, #193, #130 ) ;
#232 = EDGE_CURVE ( 'NONE', #199, #43, #373, .T. ) ;
#233 = CARTESIAN_POINT ( 'NONE',  ( 0.000000000000000000, 0.000000000000000000, 0.000000000000000000 ) ) ;
#234 = APPROVAL ( #222, 'NEURÈENÝ' ) ;
#235 = DIRECTION ( 'NONE',  ( 0.000000000000000000, 0.000000000000000000, -1.000000000000000000 ) ) ;
#236 = CARTESIAN_POINT ( 'NONE',  ( 0.000000000000000000, 0.000000000000000000, 5.000000000000000000 ) ) ;
#237 = MANIFOLD_SOLID_BREP ( 'Odebrat vysunutím3', #200 ) ;
#238 = FACE_OUTER_BOUND ( 'NONE', #45, .T. ) ;
#239 = VECTOR ( 'NONE', #111, 1000.000000000000000 ) ;
#240 = DIRECTION ( 'NONE',  ( 0.000000000000000000, 0.000000000000000000, 1.000000000000000000 ) ) ;
#241 = DIRECTION ( 'NONE',  ( -1.000000000000000000, 0.000000000000000000, 0.000000000000000000 ) ) ;
#242 = APPROVAL_ROLE ( '' ) ;
#243 = CC_DESIGN_PERSON_AND_ORGANIZATION_ASSIGNMENT ( #64, #346, ( #53 ) ) ;
#244 = PERSON_AND_ORGANIZATION ( #75, #154 ) ;
#245 = PRODUCT_RELATED_PRODUCT_CATEGORY ( 'detail', '', ( #304 ) ) ;
#246 = EDGE_CURVE ( 'NONE', #201, #199, #113, .T. ) ;
#247 = CARTESIAN_POINT ( 'NONE',  ( 0.000000000000000000, 0.000000000000000000, 165.0000000000000000 ) ) ;
#248 = ORIENTED_EDGE ( 'NONE', *, *, #55, .F. ) ;
#249 = DIRECTION ( 'NONE',  ( -0.000000000000000000, -0.000000000000000000, -1.000000000000000000 ) ) ;
#250 = ORIENTED_EDGE ( 'NONE', *, *, #219, .T. ) ;
#251 = DIRECTION ( 'NONE',  ( 1.000000000000000000, 0.000000000000000000, 0.000000000000000000 ) ) ;
#252 = CC_DESIGN_DATE_AND_TIME_ASSIGNMENT ( #183, #35, ( #53 ) ) ;
#253 = ORIENTED_EDGE ( 'NONE', *, *, #100, .T. ) ;
#254 = VERTEX_POINT ( 'NONE', #315 ) ;
#255 = CIRCLE ( 'NONE', #311, 3.100000000000000089 ) ;
#256 = DIRECTION ( 'NONE',  ( -0.000000000000000000, -0.000000000000000000, -1.000000000000000000 ) ) ;
#257 = CARTESIAN_POINT ( 'NONE',  ( 3.100000000000000089, 3.796405077356794918E-16, 165.0000000000000000 ) ) ;
#258 = CARTESIAN_POINT ( 'NONE',  ( -5.500000000000000000, 6.735557395310442023E-16, 5.000000000000002665 ) ) ;
#259 = ORIENTED_EDGE ( 'NONE', *, *, #12, .T. ) ;
#260 = AXIS2_PLACEMENT_3D ( 'NONE', #187, #184, #338 ) ;
#261 = LOCAL_TIME ( 11, 5, 13.00000000000000000, #41 ) ;
#262 = DATE_AND_TIME ( #74, #347 ) ;
#263 = FACE_OUTER_BOUND ( 'NONE', #351, .T. ) ;
#264 = EDGE_CURVE ( 'NONE', #254, #131, #18, .T. ) ;
#265 = APPROVAL_DATE_TIME ( #336, #234 ) ;
#266 = CIRCLE ( 'NONE', #273, 5.000000000000000000 ) ;
#267 = PERSON_AND_ORGANIZATION ( #75, #154 ) ;
#268 = DIRECTION ( 'NONE',  ( 0.000000000000000000, 0.000000000000000000, -1.000000000000000000 ) ) ;
#269 = EDGE_LOOP ( 'NONE', ( #166, #78 ) ) ;
#270 = VERTEX_POINT ( 'NONE', #109 ) ;
#271 = UNCERTAINTY_MEASURE_WITH_UNIT (LENGTH_MEASURE( 1.000000000000000082E-05 ), #2, 'distance_accuracy_value', 'NONE');
#272 = DIRECTION ( 'NONE',  ( 1.000000000000000000, 0.000000000000000000, 0.000000000000000000 ) ) ;
#273 = AXIS2_PLACEMENT_3D ( 'NONE', #140, #46, #196 ) ;
#274 = DIRECTION ( 'NONE',  ( 1.000000000000000000, 0.000000000000000000, 0.000000000000000000 ) ) ;
#275 = EDGE_LOOP ( 'NONE', ( #177, #352 ) ) ;
#276 = DATE_AND_TIME ( #310, #261 ) ;
#277 = ORIENTED_EDGE ( 'NONE', *, *, #84, .F. ) ;
#278 = DIRECTION ( 'NONE',  ( 1.000000000000000000, 0.000000000000000000, 0.000000000000000000 ) ) ;
#279 = AXIS2_PLACEMENT_3D ( 'NONE', #367, #188, #167 ) ;
#280 = DIRECTION ( 'NONE',  ( 1.000000000000000000, 0.000000000000000000, 0.000000000000000000 ) ) ;
#281 = CARTESIAN_POINT ( 'NONE',  ( -8.000000000000000000, 0.000000000000000000, 5.000000000000000000 ) ) ;
#282 = ORIENTED_EDGE ( 'NONE', *, *, #264, .T. ) ;
#283 = CC_DESIGN_PERSON_AND_ORGANIZATION_ASSIGNMENT ( #101, #332, ( #358 ) ) ;
#284 = CARTESIAN_POINT ( 'NONE',  ( 0.000000000000000000, 0.000000000000000000, 165.0000000000000000 ) ) ;
#285 = TOROIDAL_SURFACE ( 'NONE', #279, 5.500000000000000000, 0.5000000000000000000 ) ;
#286 = DIRECTION ( 'NONE',  ( 0.000000000000000000, 0.000000000000000000, 1.000000000000000000 ) ) ;
#287 = EDGE_CURVE ( 'NONE', #131, #254, #190, .T. ) ;
#288 = FACE_BOUND ( 'NONE', #228, .T. ) ;
#289 = DIRECTION ( 'NONE',  ( 1.000000000000000000, 0.000000000000000000, 0.000000000000000000 ) ) ;
#290 = EDGE_CURVE ( 'NONE', #270, #316, #19, .T. ) ;
#291 = CARTESIAN_POINT ( 'NONE',  ( 0.000000000000000000, 0.000000000000000000, 165.0000000000000000 ) ) ;
#292 = DIRECTION ( 'NONE',  ( 1.000000000000000000, 0.000000000000000000, -0.000000000000000000 ) ) ;
#293 = DIRECTION ( 'NONE',  ( 1.000000000000000000, 0.000000000000000000, 0.000000000000000000 ) ) ;
#294 = VECTOR ( 'NONE', #107, 1000.000000000000000 ) ;
#295 = COORDINATED_UNIVERSAL_TIME_OFFSET ( 1, 0, .AHEAD. ) ;
#296 = FACE_OUTER_BOUND ( 'NONE', #366, .T. ) ;
#297 = EDGE_CURVE ( 'NONE', #254, #102, #170, .T. ) ;
#298 = CALENDAR_DATE ( 2022, 10, 7 ) ;
#299 = FACE_OUTER_BOUND ( 'NONE', #80, .T. ) ;
#300 = CYLINDRICAL_SURFACE ( 'NONE', #174, 3.100000000000000089 ) ;
#301 = VERTEX_POINT ( 'NONE', #353 ) ;
#302 =( GEOMETRIC_REPRESENTATION_CONTEXT ( 3 ) GLOBAL_UNCERTAINTY_ASSIGNED_CONTEXT ( ( #271 ) ) GLOBAL_UNIT_ASSIGNED_CONTEXT ( ( #2, #381, #202 ) ) REPRESENTATION_CONTEXT ( 'NONE', 'WORKASPACE' ) );
#303 = DIRECTION ( 'NONE',  ( 0.000000000000000000, 0.000000000000000000, 1.000000000000000000 ) ) ;
#304 = PRODUCT ( 'aeae', 'aeae', '', ( #328 ) ) ;
#305 = ORIENTED_EDGE ( 'NONE', *, *, #55, .T. ) ;
#306 = AXIS2_PLACEMENT_3D ( 'NONE', #357, #58, #150 ) ;
#307 = DIRECTION ( 'NONE',  ( 1.000000000000000000, 0.000000000000000000, 0.000000000000000000 ) ) ;
#308 = CARTESIAN_POINT ( 'NONE',  ( -3.100000000000000089, 0.000000000000000000, 165.0000000000000000 ) ) ;
#309 = ORIENTED_EDGE ( 'NONE', *, *, #120, .T. ) ;
#310 = CALENDAR_DATE ( 2022, 10, 7 ) ;
#311 = AXIS2_PLACEMENT_3D ( 'NONE', #162, #15, #274 ) ;
#312 = DIRECTION ( 'NONE',  ( 1.000000000000000000, 0.000000000000000000, 0.000000000000000000 ) ) ;
#313 = VERTEX_POINT ( 'NONE', #330 ) ;
#314 = APPROVAL_DATE_TIME ( #276, #32 ) ;
#315 = CARTESIAN_POINT ( 'NONE',  ( -8.000000000000000000, 0.000000000000000000, 5.000000000000000000 ) ) ;
#316 = VERTEX_POINT ( 'NONE', #50 ) ;
#317 = DIRECTION ( 'NONE',  ( 0.000000000000000000, 0.000000000000000000, 1.000000000000000000 ) ) ;
#318 = EDGE_LOOP ( 'NONE', ( #112, #138, #13, #277 ) ) ;
#319 = ORIENTED_EDGE ( 'NONE', *, *, #297, .T. ) ;
#320 = LINE ( 'NONE', #118, #239 ) ;
#321 = CC_DESIGN_PERSON_AND_ORGANIZATION_ASSIGNMENT ( #213, #61, ( #175 ) ) ;
#322 = CARTESIAN_POINT ( 'NONE',  ( 0.000000000000000000, 0.000000000000000000, 5.000000000000000000 ) ) ;
#323 = FACE_OUTER_BOUND ( 'NONE', #186, .T. ) ;
#324 = LINE ( 'NONE', #145, #157 ) ;
#325 = AXIS2_PLACEMENT_3D ( 'NONE', #218, #303, #272 ) ;
#326 = CARTESIAN_POINT ( 'NONE',  ( 0.000000000000000000, 0.000000000000000000, 0.000000000000000000 ) ) ;
#327 = CC_DESIGN_APPROVAL ( #32, ( #53 ) ) ;
#328 = MECHANICAL_CONTEXT ( 'NONE', #133, 'mechanical' ) ;
#329 = AXIS2_PLACEMENT_3D ( 'NONE', #355, #286, #293 ) ;
#330 = CARTESIAN_POINT ( 'NONE',  ( 8.000000000000000000, 9.797174393178825657E-16, 0.000000000000000000 ) ) ;
#331 = CYLINDRICAL_SURFACE ( 'NONE', #23, 8.000000000000000000 ) ;
#332 = PERSON_AND_ORGANIZATION_ROLE ( 'creator' ) ;
#333 = ADVANCED_FACE ( 'NONE', ( #288, #323 ), #56, .T. ) ;
#334 = FACE_OUTER_BOUND ( 'NONE', #275, .T. ) ;
#335 = VECTOR ( 'NONE', #77, 1000.000000000000000 ) ;
#336 = DATE_AND_TIME ( #220, #224 ) ;
#337 = CIRCLE ( 'NONE', #306, 0.5000000000000004441 ) ;
#338 = DIRECTION ( 'NONE',  ( 1.000000000000000000, 0.000000000000000000, 0.000000000000000000 ) ) ;
#339 = VERTEX_POINT ( 'NONE', #359 ) ;
#340 = PERSON_AND_ORGANIZATION_ROLE ( 'design_owner' ) ;
#341 = DIRECTION ( 'NONE',  ( 0.000000000000000000, 0.000000000000000000, -1.000000000000000000 ) ) ;
#342 = ORIENTED_EDGE ( 'NONE', *, *, #99, .T. ) ;
#343 = EDGE_CURVE ( 'NONE', #201, #301, #27, .T. ) ;
#344 = SECURITY_CLASSIFICATION_LEVEL ( 'unclassified' ) ;
#345 = CARTESIAN_POINT ( 'NONE',  ( 3.100000000000000089, 3.796405077356794918E-16, 165.0000000000000000 ) ) ;
#346 = PERSON_AND_ORGANIZATION_ROLE ( 'classification_officer' ) ;
#347 = LOCAL_TIME ( 11, 5, 13.00000000000000000, #295 ) ;
#348 = DIRECTION ( 'NONE',  ( 0.000000000000000000, 0.000000000000000000, 1.000000000000000000 ) ) ;
#349 = ORIENTED_EDGE ( 'NONE', *, *, #34, .F. ) ;
#350 = CARTESIAN_POINT ( 'NONE',  ( 0.000000000000000000, 0.000000000000000000, 165.0000000000000000 ) ) ;
#351 = EDGE_LOOP ( 'NONE', ( #143, #230, #378, #309 ) ) ;
#352 = ORIENTED_EDGE ( 'NONE', *, *, #361, .F. ) ;
#353 = CARTESIAN_POINT ( 'NONE',  ( 3.100000000000000089, 3.796405077356794918E-16, 0.000000000000000000 ) ) ;
#354 = AXIS2_PLACEMENT_3D ( 'NONE', #29, #83, #289 ) ;
#355 = CARTESIAN_POINT ( 'NONE',  ( 0.000000000000000000, 0.000000000000000000, 5.500000000000005329 ) ) ;
#356 = VECTOR ( 'NONE', #117, 1000.000000000000000 ) ;
#357 = CARTESIAN_POINT ( 'NONE',  ( -5.500000000000000000, 6.735557395310442023E-16, 5.500000000000005329 ) ) ;
#358 = PRODUCT_DEFINITION ( 'NEZNÁMÝ', '', #175, #124 ) ;
#359 = CARTESIAN_POINT ( 'NONE',  ( -5.000000000000000000, 0.000000000000000000, 165.0000000000000000 ) ) ;
#360 = EDGE_LOOP ( 'NONE', ( #212, #136, #97, #76 ) ) ;
#361 = EDGE_CURVE ( 'NONE', #313, #102, #22, .T. ) ;
#362 = CALENDAR_DATE ( 2022, 10, 7 ) ;
#363 = AXIS2_PLACEMENT_3D ( 'NONE', #225, #348, #251 ) ;
#364 = COORDINATED_UNIVERSAL_TIME_OFFSET ( 1, 0, .AHEAD. ) ;
#365 = DIRECTION ( 'NONE',  ( -1.000000000000000000, 0.000000000000000000, 0.000000000000000000 ) ) ;
#366 = EDGE_LOOP ( 'NONE', ( #248, #370, #259, #379 ) ) ;
#367 = CARTESIAN_POINT ( 'NONE',  ( 0.000000000000000000, 0.000000000000000000, 5.500000000000005329 ) ) ;
#368 = AXIS2_PLACEMENT_3D ( 'NONE', #236, #48, #172 ) ;
#369 = EDGE_CURVE ( 'NONE', #131, #313, #320, .T. ) ;
#370 = ORIENTED_EDGE ( 'NONE', *, *, #290, .T. ) ;
#371 = SHAPE_DEFINITION_REPRESENTATION ( #126, #197 ) ;
#372 = APPROVAL ( #60, 'NEURÈENÝ' ) ;
#373 = LINE ( 'NONE', #103, #294 ) ;
#374 = AXIS2_PLACEMENT_3D ( 'NONE', #152, #209, #63 ) ;
#375 = CC_DESIGN_SECURITY_CLASSIFICATION ( #53, ( #175 ) ) ;
#376 = CIRCLE ( 'NONE', #165, 5.000000000000000000 ) ;
#377 = CARTESIAN_POINT ( 'NONE',  ( 5.000000000000000000, 6.123233995736766282E-16, 165.0000000000000000 ) ) ;
#378 = ORIENTED_EDGE ( 'NONE', *, *, #232, .T. ) ;
#379 = ORIENTED_EDGE ( 'NONE', *, *, #25, .F. ) ;
#380 = AXIS2_PLACEMENT_3D ( 'NONE', #233, #4, #89 ) ;
#381 =( NAMED_UNIT ( * ) PLANE_ANGLE_UNIT ( ) SI_UNIT ( $, .RADIAN. ) );
ENDSEC;
END-ISO-10303-21;
