ISO-10303-21;
HEADER;
FILE_DESCRIPTION (( 'STEP AP203' ),
    '1' );
FILE_NAME ('3ccc.STEP',
    '2022-07-10T08:59:30',
    ( '' ),
    ( '' ),
    'SwSTEP 2.0',
    'SolidWorks 2019',
    '' );
FILE_SCHEMA (( 'CONFIG_CONTROL_DESIGN' ));
ENDSEC;

DATA;
#1 = ADVANCED_FACE ( 'NONE', ( #301 ), #366, .F. ) ;
#2 = AXIS2_PLACEMENT_3D ( 'NONE', #72, #110, #132 ) ;
#3 = CALENDAR_DATE ( 2022, 10, 7 ) ;
#4 = ORIENTED_EDGE ( 'NONE', *, *, #348, .T. ) ;
#5 = APPROVAL_DATE_TIME ( #253, #74 ) ;
#6 = CARTESIAN_POINT ( 'NONE',  ( -6.000000000000000888, 0.000000000000000000, 0.000000000000000000 ) ) ;
#7 = ORIENTED_EDGE ( 'NONE', *, *, #171, .F. ) ;
#8 = DIRECTION ( 'NONE',  ( 0.000000000000000000, 0.000000000000000000, 1.000000000000000000 ) ) ;
#9 = VERTEX_POINT ( 'NONE', #281 ) ;
#10 = DIRECTION ( 'NONE',  ( 0.000000000000000000, 0.000000000000000000, -1.000000000000000000 ) ) ;
#11 = PERSON_AND_ORGANIZATION ( #131, #225 ) ;
#12 = ADVANCED_FACE ( 'NONE', ( #146 ), #259, .F. ) ;
#13 = ORIENTED_EDGE ( 'NONE', *, *, #63, .T. ) ;
#14 = DIRECTION ( 'NONE',  ( 0.000000000000000000, 0.000000000000000000, 1.000000000000000000 ) ) ;
#15 = AXIS2_PLACEMENT_3D ( 'NONE', #261, #28, #258 ) ;
#16 = CC_DESIGN_APPROVAL ( #74, ( #346 ) ) ;
#17 = SECURITY_CLASSIFICATION_LEVEL ( 'unclassified' ) ;
#18 = DIRECTION ( 'NONE',  ( 0.000000000000000000, 0.000000000000000000, 1.000000000000000000 ) ) ;
#19 = CARTESIAN_POINT ( 'NONE',  ( 0.000000000000000000, 0.000000000000000000, 7.700000000000012612 ) ) ;
#20 = EDGE_CURVE ( 'NONE', #45, #162, #155, .T. ) ;
#21 = DIRECTION ( 'NONE',  ( 1.000000000000000000, 0.000000000000000000, 0.000000000000000000 ) ) ;
#22 = CARTESIAN_POINT ( 'NONE',  ( 0.000000000000000000, 0.000000000000000000, 7.000000000000000000 ) ) ;
#23 = AXIS2_PLACEMENT_3D ( 'NONE', #377, #284, #317 ) ;
#24 = LOCAL_TIME ( 10, 59, 30.00000000000000000, #157 ) ;
#25 = CARTESIAN_POINT ( 'NONE',  ( 6.000000000000000888, 7.347880794884119736E-16, 0.000000000000000000 ) ) ;
#26 = ADVANCED_FACE ( 'NONE', ( #257 ), #231, .T. ) ;
#27 = FACE_BOUND ( 'NONE', #262, .T. ) ;
#28 = DIRECTION ( 'NONE',  ( 0.000000000000000000, 0.000000000000000000, 1.000000000000000000 ) ) ;
#29 = FACE_OUTER_BOUND ( 'NONE', #120, .T. ) ;
#30 = AXIS2_PLACEMENT_3D ( 'NONE', #22, #339, #118 ) ;
#31 = PERSON_AND_ORGANIZATION_ROLE ( 'creator' ) ;
#32 = PLANE ( 'NONE',  #35 ) ;
#33 = ADVANCED_FACE ( 'NONE', ( #314, #255 ), #53, .T. ) ;
#34 = CARTESIAN_POINT ( 'NONE',  ( -8.699999999999999289, 1.065442715258197248E-15, 7.000000000000006217 ) ) ;
#35 = AXIS2_PLACEMENT_3D ( 'NONE', #321, #288, #263 ) ;
#36 = ORIENTED_EDGE ( 'NONE', *, *, #215, .F. ) ;
#37 = APPROVAL_STATUS ( 'not_yet_approved' ) ;
#38 = DIRECTION ( 'NONE',  ( 0.000000000000000000, 0.000000000000000000, 1.000000000000000000 ) ) ;
#39 = PERSON_AND_ORGANIZATION_ROLE ( 'creator' ) ;
#40 = CC_DESIGN_DATE_AND_TIME_ASSIGNMENT ( #169, #107, ( #130 ) ) ;
#41 = ORIENTED_EDGE ( 'NONE', *, *, #330, .T. ) ;
#42 = CIRCLE ( 'NONE', #195, 6.000000000000000888 ) ;
#43 = DIRECTION ( 'NONE',  ( 1.000000000000000000, 0.000000000000000000, 0.000000000000000000 ) ) ;
#44 = ORIENTED_EDGE ( 'NONE', *, *, #121, .T. ) ;
#45 = VERTEX_POINT ( 'NONE', #144 ) ;
#46 = EDGE_CURVE ( 'NONE', #308, #185, #320, .T. ) ;
#47 = ORIENTED_EDGE ( 'NONE', *, *, #96, .T. ) ;
#48 = CARTESIAN_POINT ( 'NONE',  ( 0.000000000000000000, 0.000000000000000000, 207.0000000000000284 ) ) ;
#49 = DATE_AND_TIME ( #166, #307 ) ;
#50 = VECTOR ( 'NONE', #123, 1000.000000000000000 ) ;
#51 = PRODUCT_DEFINITION_SHAPE ( 'NONE', 'NONE',  #161 ) ;
#52 =( NAMED_UNIT ( * ) SI_UNIT ( $, .STERADIAN. ) SOLID_ANGLE_UNIT ( ) );
#53 = PLANE ( 'NONE',  #30 ) ;
#54 = LINE ( 'NONE', #176, #145 ) ;
#55 = CIRCLE ( 'NONE', #265, 0.6999999999999992895 ) ;
#56 = LOCAL_TIME ( 10, 59, 30.00000000000000000, #355 ) ;
#57 = ORIENTED_EDGE ( 'NONE', *, *, #69, .T. ) ;
#58 = CC_DESIGN_PERSON_AND_ORGANIZATION_ASSIGNMENT ( #134, #31, ( #161 ) ) ;
#59 = CARTESIAN_POINT ( 'NONE',  ( 0.000000000000000000, 0.000000000000000000, 7.000000000000000000 ) ) ;
#60 = DIRECTION ( 'NONE',  ( 0.000000000000000000, 0.000000000000000000, 1.000000000000000000 ) ) ;
#61 = AXIS2_PLACEMENT_3D ( 'NONE', #180, #351, #122 ) ;
#62 = APPROVAL_DATE_TIME ( #357, #92 ) ;
#63 = EDGE_CURVE ( 'NONE', #363, #245, #105, .T. ) ;
#64 = DIRECTION ( 'NONE',  ( 0.000000000000000000, 0.000000000000000000, 1.000000000000000000 ) ) ;
#65 = CYLINDRICAL_SURFACE ( 'NONE', #61, 8.000000000000000000 ) ;
#66 = MECHANICAL_CONTEXT ( 'NONE', #289, 'mechanical' ) ;
#67 = FACE_OUTER_BOUND ( 'NONE', #170, .T. ) ;
#68 = ORIENTED_EDGE ( 'NONE', *, *, #184, .F. ) ;
#69 = EDGE_CURVE ( 'NONE', #9, #308, #54, .T. ) ;
#70 = CIRCLE ( 'NONE', #93, 11.00000000000000000 ) ;
#71 = APPROVAL_PERSON_ORGANIZATION ( #273, #354, #194 ) ;
#72 = CARTESIAN_POINT ( 'NONE',  ( 0.000000000000000000, 0.000000000000000000, 207.0000000000000284 ) ) ;
#73 = ORIENTED_EDGE ( 'NONE', *, *, #191, .T. ) ;
#74 = APPROVAL ( #37, 'NEURÈENÝ' ) ;
#75 = DIRECTION ( 'NONE',  ( 0.000000000000000000, 0.000000000000000000, 1.000000000000000000 ) ) ;
#76 = EDGE_LOOP ( 'NONE', ( #329, #335 ) ) ;
#77 = CARTESIAN_POINT ( 'NONE',  ( -8.000000000000000000, 0.000000000000000000, 7.700000000000012612 ) ) ;
#78 = ORIENTED_EDGE ( 'NONE', *, *, #109, .T. ) ;
#79 = AXIS2_PLACEMENT_3D ( 'NONE', #334, #342, #228 ) ;
#80 = DIRECTION ( 'NONE',  ( 0.000000000000000000, 0.000000000000000000, 1.000000000000000000 ) ) ;
#81 = PRODUCT ( '3ccc', '3ccc', '', ( #66 ) ) ;
#82 = EDGE_CURVE ( 'NONE', #116, #244, #252, .T. ) ;
#83 = APPROVAL_STATUS ( 'not_yet_approved' ) ;
#84 = ORIENTED_EDGE ( 'NONE', *, *, #20, .T. ) ;
#85 = DIRECTION ( 'NONE',  ( 1.000000000000000000, 0.000000000000000000, 0.000000000000000000 ) ) ;
#86 = ORIENTED_EDGE ( 'NONE', *, *, #229, .F. ) ;
#87 = VERTEX_POINT ( 'NONE', #227 ) ;
#88 =( GEOMETRIC_REPRESENTATION_CONTEXT ( 3 ) GLOBAL_UNCERTAINTY_ASSIGNED_CONTEXT ( ( #362 ) ) GLOBAL_UNIT_ASSIGNED_CONTEXT ( ( #375, #117, #52 ) ) REPRESENTATION_CONTEXT ( 'NONE', 'WORKASPACE' ) );
#89 = DIRECTION ( 'NONE',  ( 0.000000000000000000, 0.000000000000000000, 1.000000000000000000 ) ) ;
#90 = DIRECTION ( 'NONE',  ( 1.000000000000000000, 0.000000000000000000, 0.000000000000000000 ) ) ;
#91 = ORIENTED_EDGE ( 'NONE', *, *, #63, .F. ) ;
#92 = APPROVAL ( #183, 'NEURÈENÝ' ) ;
#93 = AXIS2_PLACEMENT_3D ( 'NONE', #59, #80, #234 ) ;
#94 = CARTESIAN_POINT ( 'NONE',  ( 0.000000000000000000, 0.000000000000000000, 207.0000000000000284 ) ) ;
#95 = PERSON_AND_ORGANIZATION ( #131, #225 ) ;
#96 = EDGE_CURVE ( 'NONE', #162, #45, #173, .T. ) ;
#97 = FACE_OUTER_BOUND ( 'NONE', #218, .T. ) ;
#98 = CIRCLE ( 'NONE', #353, 8.000000000000000000 ) ;
#99 = LOCAL_TIME ( 10, 59, 30.00000000000000000, #247 ) ;
#100 = CARTESIAN_POINT ( 'NONE',  ( 0.000000000000000000, 0.000000000000000000, 7.700000000000012612 ) ) ;
#101 = EDGE_CURVE ( 'NONE', #87, #162, #376, .T. ) ;
#102 = DATE_AND_TIME ( #327, #56 ) ;
#103 = DIRECTION ( 'NONE',  ( -1.000000000000000000, 0.000000000000000000, 0.000000000000000000 ) ) ;
#104 = ORIENTED_EDGE ( 'NONE', *, *, #229, .T. ) ;
#105 = CIRCLE ( 'NONE', #290, 8.699999999999999289 ) ;
#106 = ORIENTED_EDGE ( 'NONE', *, *, #319, .F. ) ;
#107 = DATE_TIME_ROLE ( 'classification_date' ) ;
#108 = DIRECTION ( 'NONE',  ( 1.000000000000000000, 0.000000000000000000, 0.000000000000000000 ) ) ;
#109 = EDGE_CURVE ( 'NONE', #87, #312, #345, .T. ) ;
#110 = DIRECTION ( 'NONE',  ( 0.000000000000000000, 0.000000000000000000, -1.000000000000000000 ) ) ;
#111 = ORIENTED_EDGE ( 'NONE', *, *, #101, .F. ) ;
#112 = CALENDAR_DATE ( 2022, 10, 7 ) ;
#113 = AXIS2_PLACEMENT_3D ( 'NONE', #297, #358, #103 ) ;
#114 = DIRECTION ( 'NONE',  ( -0.000000000000000000, -0.000000000000000000, -1.000000000000000000 ) ) ;
#115 = EDGE_CURVE ( 'NONE', #116, #198, #98, .T. ) ;
#116 = VERTEX_POINT ( 'NONE', #379 ) ;
#117 =( NAMED_UNIT ( * ) PLANE_ANGLE_UNIT ( ) SI_UNIT ( $, .RADIAN. ) );
#118 = DIRECTION ( 'NONE',  ( 1.000000000000000000, 0.000000000000000000, -0.000000000000000000 ) ) ;
#119 = DIRECTION ( 'NONE',  ( -0.000000000000000000, -0.000000000000000000, -1.000000000000000000 ) ) ;
#120 = EDGE_LOOP ( 'NONE', ( #242, #104, #84, #111 ) ) ;
#121 = EDGE_CURVE ( 'NONE', #193, #363, #160, .T. ) ;
#122 = DIRECTION ( 'NONE',  ( -1.000000000000000000, 0.000000000000000000, 0.000000000000000000 ) ) ;
#123 = DIRECTION ( 'NONE',  ( 0.000000000000000000, 0.000000000000000000, -1.000000000000000000 ) ) ;
#124 = DIRECTION ( 'NONE',  ( 0.000000000000000000, -1.000000000000000000, 0.000000000000000000 ) ) ;
#125 = TOROIDAL_SURFACE ( 'NONE', #324, 8.699999999999999289, 0.6999999999999999556 ) ;
#126 = ADVANCED_FACE ( 'NONE', ( #381 ), #65, .T. ) ;
#127 = CARTESIAN_POINT ( 'NONE',  ( 0.000000000000000000, 0.000000000000000000, 0.000000000000000000 ) ) ;
#128 = CARTESIAN_POINT ( 'NONE',  ( 8.000000000000000000, 9.797174393178825657E-16, 207.0000000000000284 ) ) ;
#129 = AXIS2_PLACEMENT_3D ( 'NONE', #248, #304, #43 ) ;
#130 = SECURITY_CLASSIFICATION ( '', '', #17 ) ;
#131 = PERSON ( 'NEURÈENÝ', 'NEURÈENÝ', 'NEURÈENÝ', ('NEURÈENÝ'), ('NEURÈENÝ'), ('NEURÈENÝ') ) ;
#132 = DIRECTION ( 'NONE',  ( -1.000000000000000000, 0.000000000000000000, 0.000000000000000000 ) ) ;
#133 = ORIENTED_EDGE ( 'NONE', *, *, #340, .F. ) ;
#134 = PERSON_AND_ORGANIZATION ( #131, #225 ) ;
#135 = ORIENTED_EDGE ( 'NONE', *, *, #82, .T. ) ;
#136 = CARTESIAN_POINT ( 'NONE',  ( 0.000000000000000000, 0.000000000000000000, 207.0000000000000284 ) ) ;
#137 = ORIENTED_EDGE ( 'NONE', *, *, #266, .F. ) ;
#138 = AXIS2_PLACEMENT_3D ( 'NONE', #199, #89, #90 ) ;
#139 = CC_DESIGN_SECURITY_CLASSIFICATION ( #130, ( #346 ) ) ;
#140 = ORIENTED_EDGE ( 'NONE', *, *, #121, .F. ) ;
#141 = ADVANCED_FACE ( 'NONE', ( #29 ), #179, .T. ) ;
#142 = FACE_OUTER_BOUND ( 'NONE', #269, .T. ) ;
#143 = EDGE_LOOP ( 'NONE', ( #249, #36, #44, #133 ) ) ;
#144 = CARTESIAN_POINT ( 'NONE',  ( 11.00000000000000000, 1.347111479062088405E-15, 0.000000000000000000 ) ) ;
#145 = VECTOR ( 'NONE', #10, 1000.000000000000000 ) ;
#146 = FACE_OUTER_BOUND ( 'NONE', #143, .T. ) ;
#147 = CARTESIAN_POINT ( 'NONE',  ( -6.000000000000000888, 0.000000000000000000, 207.0000000000000284 ) ) ;
#148 = CIRCLE ( 'NONE', #129, 6.000000000000000888 ) ;
#149 = FACE_BOUND ( 'NONE', #350, .T. ) ;
#150 = EDGE_LOOP ( 'NONE', ( #302, #57, #310, #106 ) ) ;
#151 = DIRECTION ( 'NONE',  ( 1.000000000000000000, 0.000000000000000000, 0.000000000000000000 ) ) ;
#152 = CARTESIAN_POINT ( 'NONE',  ( 11.00000000000000000, 1.347111479062088405E-15, 7.000000000000000000 ) ) ;
#153 = CARTESIAN_POINT ( 'NONE',  ( 0.000000000000000000, 0.000000000000000000, 7.000000000000000000 ) ) ;
#154 = ADVANCED_FACE ( 'NONE', ( #27, #236 ), #32, .F. ) ;
#155 = CIRCLE ( 'NONE', #138, 11.00000000000000000 ) ;
#156 = CC_DESIGN_APPROVAL ( #354, ( #130 ) ) ;
#157 = COORDINATED_UNIVERSAL_TIME_OFFSET ( 1, 0, .AHEAD. ) ;
#158 = DIRECTION ( 'NONE',  ( 1.000000000000000000, 0.000000000000000000, 0.000000000000000000 ) ) ;
#159 = PERSON_AND_ORGANIZATION ( #131, #225 ) ;
#160 = CIRCLE ( 'NONE', #214, 0.7000000000000000666 ) ;
#161 = PRODUCT_DEFINITION ( 'NEZNÁMÝ', '', #346, #270 ) ;
#162 = VERTEX_POINT ( 'NONE', #240 ) ;
#163 = APPROVAL_ROLE ( '' ) ;
#164 = DIRECTION ( 'NONE',  ( 1.000000000000000000, 0.000000000000000000, 0.000000000000000000 ) ) ;
#165 = EDGE_LOOP ( 'NONE', ( #7, #360, #135, #201 ) ) ;
#166 = CALENDAR_DATE ( 2022, 10, 7 ) ;
#167 = ADVANCED_BREP_SHAPE_REPRESENTATION ( '3ccc', ( #189, #187 ), #88 ) ;
#168 = EDGE_LOOP ( 'NONE', ( #276, #212 ) ) ;
#169 = DATE_AND_TIME ( #112, #99 ) ;
#170 = EDGE_LOOP ( 'NONE', ( #68, #4, #91, #140 ) ) ;
#171 = EDGE_CURVE ( 'NONE', #198, #193, #380, .T. ) ;
#172 = CARTESIAN_POINT ( 'NONE',  ( 0.000000000000000000, 0.000000000000000000, 0.000000000000000000 ) ) ;
#173 = CIRCLE ( 'NONE', #207, 11.00000000000000000 ) ;
#174 = DIRECTION ( 'NONE',  ( -0.000000000000000000, -0.000000000000000000, -1.000000000000000000 ) ) ;
#175 = VECTOR ( 'NONE', #220, 1000.000000000000000 ) ;
#176 = CARTESIAN_POINT ( 'NONE',  ( 6.000000000000000888, 7.347880794884119736E-16, 207.0000000000000284 ) ) ;
#177 = EDGE_LOOP ( 'NONE', ( #78, #41 ) ) ;
#178 = ADVANCED_FACE ( 'NONE', ( #97 ), #293, .T. ) ;
#179 = CYLINDRICAL_SURFACE ( 'NONE', #313, 11.00000000000000000 ) ;
#180 = CARTESIAN_POINT ( 'NONE',  ( 0.000000000000000000, 0.000000000000000000, 207.0000000000000284 ) ) ;
#181 = VECTOR ( 'NONE', #239, 1000.000000000000000 ) ;
#182 = DIRECTION ( 'NONE',  ( -1.000000000000000000, 0.000000000000000000, 0.000000000000000000 ) ) ;
#183 = APPROVAL_STATUS ( 'not_yet_approved' ) ;
#184 = EDGE_CURVE ( 'NONE', #244, #193, #271, .T. ) ;
#185 = VERTEX_POINT ( 'NONE', #6 ) ;
#186 = CIRCLE ( 'NONE', #15, 6.000000000000000888 ) ;
#187 = AXIS2_PLACEMENT_3D ( 'NONE', #127, #64, #210 ) ;
#188 = CARTESIAN_POINT ( 'NONE',  ( 0.000000000000000000, 0.000000000000000000, 207.0000000000000284 ) ) ;
#189 = MANIFOLD_SOLID_BREP ( 'Odebrat vysunutím3', #197 ) ;
#190 = ORIENTED_EDGE ( 'NONE', *, *, #215, .T. ) ;
#191 = EDGE_CURVE ( 'NONE', #185, #308, #148, .T. ) ;
#192 = CARTESIAN_POINT ( 'NONE',  ( 8.000000000000000000, 9.797174393178825657E-16, 207.0000000000000284 ) ) ;
#193 = VERTEX_POINT ( 'NONE', #243 ) ;
#194 = APPROVAL_ROLE ( '' ) ;
#195 = AXIS2_PLACEMENT_3D ( 'NONE', #188, #75, #282 ) ;
#196 = ORIENTED_EDGE ( 'NONE', *, *, #101, .T. ) ;
#197 = CLOSED_SHELL ( 'NONE', ( #1, #292, #126, #141, #178, #33, #154, #26, #305, #12, #274 ) ) ;
#198 = VERTEX_POINT ( 'NONE', #192 ) ;
#199 = CARTESIAN_POINT ( 'NONE',  ( 0.000000000000000000, 0.000000000000000000, 0.000000000000000000 ) ) ;
#200 = DIRECTION ( 'NONE',  ( -0.000000000000000000, -0.000000000000000000, -1.000000000000000000 ) ) ;
#201 = ORIENTED_EDGE ( 'NONE', *, *, #184, .T. ) ;
#202 = AXIS2_PLACEMENT_3D ( 'NONE', #211, #367, #333 ) ;
#203 = DIRECTION ( 'NONE',  ( -0.000000000000000000, -0.000000000000000000, -1.000000000000000000 ) ) ;
#204 = PLANE ( 'NONE',  #23 ) ;
#205 = CARTESIAN_POINT ( 'NONE',  ( 8.699999999999999289, 0.000000000000000000, 7.700000000000012612 ) ) ;
#206 = DIRECTION ( 'NONE',  ( 0.000000000000000000, 0.000000000000000000, 1.000000000000000000 ) ) ;
#207 = AXIS2_PLACEMENT_3D ( 'NONE', #172, #18, #158 ) ;
#208 = PERSON_AND_ORGANIZATION ( #131, #225 ) ;
#209 = DIRECTION ( 'NONE',  ( -0.000000000000000000, -0.000000000000000000, -1.000000000000000000 ) ) ;
#210 = DIRECTION ( 'NONE',  ( 1.000000000000000000, 0.000000000000000000, 0.000000000000000000 ) ) ;
#211 = CARTESIAN_POINT ( 'NONE',  ( 0.000000000000000000, 0.000000000000000000, 7.700000000000012612 ) ) ;
#212 = ORIENTED_EDGE ( 'NONE', *, *, #20, .F. ) ;
#213 = CARTESIAN_POINT ( 'NONE',  ( 11.00000000000000000, 1.347111479062088405E-15, 7.000000000000000000 ) ) ;
#214 = AXIS2_PLACEMENT_3D ( 'NONE', #205, #124, #286 ) ;
#215 = EDGE_CURVE ( 'NONE', #193, #244, #224, .T. ) ;
#216 = APPROVAL_PERSON_ORGANIZATION ( #95, #74, #163 ) ;
#217 = LINE ( 'NONE', #213, #175 ) ;
#218 = EDGE_LOOP ( 'NONE', ( #86, #226, #196, #47 ) ) ;
#219 = PRODUCT_RELATED_PRODUCT_CATEGORY ( 'detail', '', ( #81 ) ) ;
#220 = DIRECTION ( 'NONE',  ( -0.000000000000000000, -0.000000000000000000, -1.000000000000000000 ) ) ;
#221 = EDGE_LOOP ( 'NONE', ( #13, #232 ) ) ;
#222 = PERSON_AND_ORGANIZATION ( #131, #225 ) ;
#223 = ORIENTED_EDGE ( 'NONE', *, *, #191, .F. ) ;
#224 = CIRCLE ( 'NONE', #202, 8.000000000000000000 ) ;
#225 = ORGANIZATION ( 'NEURÈENÝ', 'NEURÈENÝ', '' ) ;
#226 = ORIENTED_EDGE ( 'NONE', *, *, #109, .F. ) ;
#227 = CARTESIAN_POINT ( 'NONE',  ( -11.00000000000000000, 0.000000000000000000, 7.000000000000000000 ) ) ;
#228 = DIRECTION ( 'NONE',  ( -1.000000000000000000, 0.000000000000000000, 0.000000000000000000 ) ) ;
#229 = EDGE_CURVE ( 'NONE', #312, #45, #217, .T. ) ;
#230 = CIRCLE ( 'NONE', #374, 8.000000000000000000 ) ;
#231 = CYLINDRICAL_SURFACE ( 'NONE', #298, 8.000000000000000000 ) ;
#232 = ORIENTED_EDGE ( 'NONE', *, *, #340, .T. ) ;
#233 = CARTESIAN_POINT ( 'NONE',  ( -11.00000000000000000, 0.000000000000000000, 7.000000000000000000 ) ) ;
#234 = DIRECTION ( 'NONE',  ( 1.000000000000000000, 0.000000000000000000, 0.000000000000000000 ) ) ;
#235 = AXIS2_PLACEMENT_3D ( 'NONE', #356, #206, #151 ) ;
#236 = FACE_OUTER_BOUND ( 'NONE', #168, .T. ) ;
#237 = CC_DESIGN_PERSON_AND_ORGANIZATION_ASSIGNMENT ( #336, #364, ( #346 ) ) ;
#238 = FACE_OUTER_BOUND ( 'NONE', #76, .T. ) ;
#239 = DIRECTION ( 'NONE',  ( -0.000000000000000000, -0.000000000000000000, -1.000000000000000000 ) ) ;
#240 = CARTESIAN_POINT ( 'NONE',  ( -11.00000000000000000, 0.000000000000000000, 0.000000000000000000 ) ) ;
#241 = AXIS2_PLACEMENT_3D ( 'NONE', #278, #119, #21 ) ;
#242 = ORIENTED_EDGE ( 'NONE', *, *, #330, .F. ) ;
#243 = CARTESIAN_POINT ( 'NONE',  ( 8.000000000000000000, 9.797174393178825657E-16, 7.700000000000012612 ) ) ;
#244 = VERTEX_POINT ( 'NONE', #77 ) ;
#245 = VERTEX_POINT ( 'NONE', #34 ) ;
#246 = CC_DESIGN_DATE_AND_TIME_ASSIGNMENT ( #102, #331, ( #161 ) ) ;
#247 = COORDINATED_UNIVERSAL_TIME_OFFSET ( 1, 0, .AHEAD. ) ;
#248 = CARTESIAN_POINT ( 'NONE',  ( 0.000000000000000000, 0.000000000000000000, 0.000000000000000000 ) ) ;
#249 = ORIENTED_EDGE ( 'NONE', *, *, #348, .F. ) ;
#250 = CYLINDRICAL_SURFACE ( 'NONE', #2, 6.000000000000000888 ) ;
#251 = EDGE_LOOP ( 'NONE', ( #137, #275, #190, #337 ) ) ;
#252 = LINE ( 'NONE', #370, #306 ) ;
#253 = DATE_AND_TIME ( #323, #325 ) ;
#254 = AXIS2_PLACEMENT_3D ( 'NONE', #19, #14, #311 ) ;
#255 = FACE_OUTER_BOUND ( 'NONE', #177, .T. ) ;
#256 = CARTESIAN_POINT ( 'NONE',  ( 8.699999999999999289, 0.000000000000000000, 7.000000000000006217 ) ) ;
#257 = FACE_OUTER_BOUND ( 'NONE', #165, .T. ) ;
#258 = DIRECTION ( 'NONE',  ( 1.000000000000000000, 0.000000000000000000, 0.000000000000000000 ) ) ;
#259 = TOROIDAL_SURFACE ( 'NONE', #254, 8.699999999999999289, 0.6999999999999999556 ) ;
#260 = CARTESIAN_POINT ( 'NONE',  ( 0.000000000000000000, 0.000000000000000000, 7.000000000000000000 ) ) ;
#261 = CARTESIAN_POINT ( 'NONE',  ( 0.000000000000000000, 0.000000000000000000, 207.0000000000000284 ) ) ;
#262 = EDGE_LOOP ( 'NONE', ( #223, #368 ) ) ;
#263 = DIRECTION ( 'NONE',  ( 1.000000000000000000, 0.000000000000000000, -0.000000000000000000 ) ) ;
#264 = APPROVAL_PERSON_ORGANIZATION ( #208, #92, #299 ) ;
#265 = AXIS2_PLACEMENT_3D ( 'NONE', #347, #287, #352 ) ;
#266 = EDGE_CURVE ( 'NONE', #198, #116, #230, .T. ) ;
#267 = ORIENTED_EDGE ( 'NONE', *, *, #69, .F. ) ;
#268 = COORDINATED_UNIVERSAL_TIME_OFFSET ( 1, 0, .AHEAD. ) ;
#269 = EDGE_LOOP ( 'NONE', ( #267, #272, #369, #73 ) ) ;
#270 = DESIGN_CONTEXT ( 'detailed design', #328, 'design' ) ;
#271 = CIRCLE ( 'NONE', #365, 8.000000000000000000 ) ;
#272 = ORIENTED_EDGE ( 'NONE', *, *, #359, .T. ) ;
#273 = PERSON_AND_ORGANIZATION ( #131, #225 ) ;
#274 = ADVANCED_FACE ( 'NONE', ( #142 ), #250, .F. ) ;
#275 = ORIENTED_EDGE ( 'NONE', *, *, #171, .T. ) ;
#276 = ORIENTED_EDGE ( 'NONE', *, *, #96, .F. ) ;
#277 = CIRCLE ( 'NONE', #241, 8.699999999999999289 ) ;
#278 = CARTESIAN_POINT ( 'NONE',  ( 0.000000000000000000, 0.000000000000000000, 7.000000000000000000 ) ) ;
#279 = CC_DESIGN_PERSON_AND_ORGANIZATION_ASSIGNMENT ( #222, #39, ( #346 ) ) ;
#280 = CARTESIAN_POINT ( 'NONE',  ( -6.000000000000000888, 0.000000000000000000, 207.0000000000000284 ) ) ;
#281 = CARTESIAN_POINT ( 'NONE',  ( 6.000000000000000888, 7.347880794884119736E-16, 207.0000000000000284 ) ) ;
#282 = DIRECTION ( 'NONE',  ( 1.000000000000000000, 0.000000000000000000, 0.000000000000000000 ) ) ;
#283 = CC_DESIGN_PERSON_AND_ORGANIZATION_ASSIGNMENT ( #159, #361, ( #81 ) ) ;
#284 = DIRECTION ( 'NONE',  ( 0.000000000000000000, 0.000000000000000000, 1.000000000000000000 ) ) ;
#285 = ORIENTED_EDGE ( 'NONE', *, *, #359, .F. ) ;
#286 = DIRECTION ( 'NONE',  ( 0.000000000000000000, 0.000000000000000000, -1.000000000000000000 ) ) ;
#287 = DIRECTION ( 'NONE',  ( 1.224646799147353207E-16, 1.000000000000000000, -0.000000000000000000 ) ) ;
#288 = DIRECTION ( 'NONE',  ( 0.000000000000000000, 0.000000000000000000, 1.000000000000000000 ) ) ;
#289 = APPLICATION_CONTEXT ( 'configuration controlled 3d designs of mechanical parts and assemblies' ) ;
#290 = AXIS2_PLACEMENT_3D ( 'NONE', #260, #200, #318 ) ;
#291 = CC_DESIGN_APPROVAL ( #92, ( #161 ) ) ;
#292 = ADVANCED_FACE ( 'NONE', ( #67 ), #125, .F. ) ;
#293 = CYLINDRICAL_SURFACE ( 'NONE', #113, 11.00000000000000000 ) ;
#294 = DIRECTION ( 'NONE',  ( 0.000000000000000000, 0.000000000000000000, 1.000000000000000000 ) ) ;
#295 = APPLICATION_PROTOCOL_DEFINITION ( 'international standard', 'config_control_design', 1994, #328 ) ;
#296 = EDGE_CURVE ( 'NONE', #344, #9, #42, .T. ) ;
#297 = CARTESIAN_POINT ( 'NONE',  ( 0.000000000000000000, 0.000000000000000000, 7.000000000000000000 ) ) ;
#298 = AXIS2_PLACEMENT_3D ( 'NONE', #48, #174, #316 ) ;
#299 = APPROVAL_ROLE ( '' ) ;
#300 = CARTESIAN_POINT ( 'NONE',  ( 0.000000000000000000, 0.000000000000000000, 7.700000000000012612 ) ) ;
#301 = FACE_OUTER_BOUND ( 'NONE', #150, .T. ) ;
#302 = ORIENTED_EDGE ( 'NONE', *, *, #296, .T. ) ;
#303 = COORDINATED_UNIVERSAL_TIME_OFFSET ( 1, 0, .AHEAD. ) ;
#304 = DIRECTION ( 'NONE',  ( -0.000000000000000000, -0.000000000000000000, -1.000000000000000000 ) ) ;
#305 = ADVANCED_FACE ( 'NONE', ( #149, #238 ), #204, .T. ) ;
#306 = VECTOR ( 'NONE', #114, 1000.000000000000000 ) ;
#307 = LOCAL_TIME ( 10, 59, 30.00000000000000000, #303 ) ;
#308 = VERTEX_POINT ( 'NONE', #25 ) ;
#309 = PERSON_AND_ORGANIZATION_ROLE ( 'classification_officer' ) ;
#310 = ORIENTED_EDGE ( 'NONE', *, *, #46, .T. ) ;
#311 = DIRECTION ( 'NONE',  ( 1.000000000000000000, 0.000000000000000000, 0.000000000000000000 ) ) ;
#312 = VERTEX_POINT ( 'NONE', #152 ) ;
#313 = AXIS2_PLACEMENT_3D ( 'NONE', #153, #203, #182 ) ;
#314 = FACE_BOUND ( 'NONE', #221, .T. ) ;
#315 = LINE ( 'NONE', #280, #50 ) ;
#316 = DIRECTION ( 'NONE',  ( -1.000000000000000000, 0.000000000000000000, 0.000000000000000000 ) ) ;
#317 = DIRECTION ( 'NONE',  ( 1.000000000000000000, 0.000000000000000000, -0.000000000000000000 ) ) ;
#318 = DIRECTION ( 'NONE',  ( 1.000000000000000000, 0.000000000000000000, 0.000000000000000000 ) ) ;
#319 = EDGE_CURVE ( 'NONE', #344, #185, #315, .T. ) ;
#320 = CIRCLE ( 'NONE', #378, 6.000000000000000888 ) ;
#321 = CARTESIAN_POINT ( 'NONE',  ( 0.000000000000000000, 0.000000000000000000, 0.000000000000000000 ) ) ;
#322 = APPLICATION_PROTOCOL_DEFINITION ( 'international standard', 'config_control_design', 1994, #289 ) ;
#323 = CALENDAR_DATE ( 2022, 10, 7 ) ;
#324 = AXIS2_PLACEMENT_3D ( 'NONE', #300, #38, #164 ) ;
#325 = LOCAL_TIME ( 10, 59, 30.00000000000000000, #268 ) ;
#326 = DIRECTION ( 'NONE',  ( 1.000000000000000000, 0.000000000000000000, 0.000000000000000000 ) ) ;
#327 = CALENDAR_DATE ( 2022, 10, 7 ) ;
#328 = APPLICATION_CONTEXT ( 'configuration controlled 3d designs of mechanical parts and assemblies' ) ;
#329 = ORIENTED_EDGE ( 'NONE', *, *, #115, .T. ) ;
#330 = EDGE_CURVE ( 'NONE', #312, #87, #70, .T. ) ;
#331 = DATE_TIME_ROLE ( 'creation_date' ) ;
#332 = DIRECTION ( 'NONE',  ( 1.000000000000000000, 0.000000000000000000, 0.000000000000000000 ) ) ;
#333 = DIRECTION ( 'NONE',  ( 1.000000000000000000, 0.000000000000000000, 0.000000000000000000 ) ) ;
#334 = CARTESIAN_POINT ( 'NONE',  ( 0.000000000000000000, 0.000000000000000000, 207.0000000000000284 ) ) ;
#335 = ORIENTED_EDGE ( 'NONE', *, *, #266, .T. ) ;
#336 = PERSON_AND_ORGANIZATION ( #131, #225 ) ;
#337 = ORIENTED_EDGE ( 'NONE', *, *, #82, .F. ) ;
#338 = ORIENTED_EDGE ( 'NONE', *, *, #296, .F. ) ;
#339 = DIRECTION ( 'NONE',  ( 0.000000000000000000, 0.000000000000000000, 1.000000000000000000 ) ) ;
#340 = EDGE_CURVE ( 'NONE', #245, #363, #277, .T. ) ;
#341 = SHAPE_DEFINITION_REPRESENTATION ( #51, #167 ) ;
#342 = DIRECTION ( 'NONE',  ( 0.000000000000000000, 0.000000000000000000, -1.000000000000000000 ) ) ;
#343 = CC_DESIGN_PERSON_AND_ORGANIZATION_ASSIGNMENT ( #11, #309, ( #130 ) ) ;
#344 = VERTEX_POINT ( 'NONE', #147 ) ;
#345 = CIRCLE ( 'NONE', #235, 11.00000000000000000 ) ;
#346 = PRODUCT_DEFINITION_FORMATION_WITH_SPECIFIED_SOURCE ( 'LIBOVOLNÝ', '', #81, .NOT_KNOWN. ) ;
#347 = CARTESIAN_POINT ( 'NONE',  ( -8.699999999999999289, 1.065442715258197248E-15, 7.700000000000012612 ) ) ;
#348 = EDGE_CURVE ( 'NONE', #244, #245, #55, .T. ) ;
#349 = CARTESIAN_POINT ( 'NONE',  ( 0.000000000000000000, 0.000000000000000000, 0.000000000000000000 ) ) ;
#350 = EDGE_LOOP ( 'NONE', ( #338, #285 ) ) ;
#351 = DIRECTION ( 'NONE',  ( -0.000000000000000000, -0.000000000000000000, -1.000000000000000000 ) ) ;
#352 = DIRECTION ( 'NONE',  ( -1.000000000000000000, 1.224646799147353207E-16, 0.000000000000000000 ) ) ;
#353 = AXIS2_PLACEMENT_3D ( 'NONE', #94, #60, #326 ) ;
#354 = APPROVAL ( #83, 'NEURÈENÝ' ) ;
#355 = COORDINATED_UNIVERSAL_TIME_OFFSET ( 1, 0, .AHEAD. ) ;
#356 = CARTESIAN_POINT ( 'NONE',  ( 0.000000000000000000, 0.000000000000000000, 7.000000000000000000 ) ) ;
#357 = DATE_AND_TIME ( #3, #24 ) ;
#358 = DIRECTION ( 'NONE',  ( -0.000000000000000000, -0.000000000000000000, -1.000000000000000000 ) ) ;
#359 = EDGE_CURVE ( 'NONE', #9, #344, #186, .T. ) ;
#360 = ORIENTED_EDGE ( 'NONE', *, *, #115, .F. ) ;
#361 = PERSON_AND_ORGANIZATION_ROLE ( 'design_owner' ) ;
#362 = UNCERTAINTY_MEASURE_WITH_UNIT (LENGTH_MEASURE( 1.000000000000000082E-05 ), #375, 'distance_accuracy_value', 'NONE');
#363 = VERTEX_POINT ( 'NONE', #256 ) ;
#364 = PERSON_AND_ORGANIZATION_ROLE ( 'design_supplier' ) ;
#365 = AXIS2_PLACEMENT_3D ( 'NONE', #100, #294, #108 ) ;
#366 = CYLINDRICAL_SURFACE ( 'NONE', #79, 6.000000000000000888 ) ;
#367 = DIRECTION ( 'NONE',  ( 0.000000000000000000, 0.000000000000000000, 1.000000000000000000 ) ) ;
#368 = ORIENTED_EDGE ( 'NONE', *, *, #46, .F. ) ;
#369 = ORIENTED_EDGE ( 'NONE', *, *, #319, .T. ) ;
#370 = CARTESIAN_POINT ( 'NONE',  ( -8.000000000000000000, 0.000000000000000000, 207.0000000000000284 ) ) ;
#371 = VECTOR ( 'NONE', #209, 1000.000000000000000 ) ;
#372 = APPROVAL_DATE_TIME ( #49, #354 ) ;
#373 = DIRECTION ( 'NONE',  ( -0.000000000000000000, -0.000000000000000000, -1.000000000000000000 ) ) ;
#374 = AXIS2_PLACEMENT_3D ( 'NONE', #136, #8, #332 ) ;
#375 =( LENGTH_UNIT ( ) NAMED_UNIT ( * ) SI_UNIT ( .MILLI., .METRE. ) );
#376 = LINE ( 'NONE', #233, #371 ) ;
#377 = CARTESIAN_POINT ( 'NONE',  ( 0.000000000000000000, 0.000000000000000000, 207.0000000000000284 ) ) ;
#378 = AXIS2_PLACEMENT_3D ( 'NONE', #349, #373, #85 ) ;
#379 = CARTESIAN_POINT ( 'NONE',  ( -8.000000000000000000, 0.000000000000000000, 207.0000000000000284 ) ) ;
#380 = LINE ( 'NONE', #128, #181 ) ;
#381 = FACE_OUTER_BOUND ( 'NONE', #251, .T. ) ;
ENDSEC;
END-ISO-10303-21;
