ISO-10303-21;
HEADER;
FILE_DESCRIPTION (( 'STEP AP203' ),
    '1' );
FILE_NAME ('c3c6.STEP',
    '2022-07-10T09:07:18',
    ( '' ),
    ( '' ),
    'SwSTEP 2.0',
    'SolidWorks 2019',
    '' );
FILE_SCHEMA (( 'CONFIG_CONTROL_DESIGN' ));
ENDSEC;

DATA;
#1 = LINE ( 'NONE', #374, #138 ) ;
#2 = EDGE_LOOP ( 'NONE', ( #321, #338, #106, #141 ) ) ;
#3 = FACE_BOUND ( 'NONE', #298, .T. ) ;
#4 = ORIENTED_EDGE ( 'NONE', *, *, #343, .T. ) ;
#5 = FACE_OUTER_BOUND ( 'NONE', #329, .T. ) ;
#6 = EDGE_CURVE ( 'NONE', #160, #114, #359, .T. ) ;
#7 = ADVANCED_BREP_SHAPE_REPRESENTATION ( 'c3c6', ( #259, #164 ), #50 ) ;
#8 = LINE ( 'NONE', #10, #169 ) ;
#9 = ORIENTED_EDGE ( 'NONE', *, *, #194, .T. ) ;
#10 = CARTESIAN_POINT ( 'NONE',  ( 8.000000000000000000, 9.797174393178825657E-16, 5.000000000000000000 ) ) ;
#11 = ORIENTED_EDGE ( 'NONE', *, *, #162, .T. ) ;
#12 = CARTESIAN_POINT ( 'NONE',  ( 0.000000000000000000, 0.000000000000000000, 130.0000000000000000 ) ) ;
#13 = CARTESIAN_POINT ( 'NONE',  ( 5.000000000000000000, 6.123233995736766282E-16, 5.500000000000005329 ) ) ;
#14 = EDGE_CURVE ( 'NONE', #268, #267, #1, .T. ) ;
#15 = FACE_OUTER_BOUND ( 'NONE', #209, .T. ) ;
#16 = DIRECTION ( 'NONE',  ( 1.000000000000000000, 0.000000000000000000, 0.000000000000000000 ) ) ;
#17 = ORIENTED_EDGE ( 'NONE', *, *, #6, .F. ) ;
#18 = CC_DESIGN_PERSON_AND_ORGANIZATION_ASSIGNMENT ( #316, #234, ( #272 ) ) ;
#19 = DIRECTION ( 'NONE',  ( 1.000000000000000000, 0.000000000000000000, 0.000000000000000000 ) ) ;
#20 = CIRCLE ( 'NONE', #320, 5.500000000000000000 ) ;
#21 = DATE_AND_TIME ( #26, #46 ) ;
#22 = AXIS2_PLACEMENT_3D ( 'NONE', #304, #137, #82 ) ;
#23 = DIRECTION ( 'NONE',  ( 0.000000000000000000, 0.000000000000000000, 1.000000000000000000 ) ) ;
#24 =( NAMED_UNIT ( * ) SI_UNIT ( $, .STERADIAN. ) SOLID_ANGLE_UNIT ( ) );
#25 = DIRECTION ( 'NONE',  ( 0.000000000000000000, 0.000000000000000000, -1.000000000000000000 ) ) ;
#26 = CALENDAR_DATE ( 2022, 10, 7 ) ;
#27 = TOROIDAL_SURFACE ( 'NONE', #22, 5.500000000000000000, 0.5000000000000000000 ) ;
#28 = CC_DESIGN_APPROVAL ( #66, ( #186 ) ) ;
#29 = CARTESIAN_POINT ( 'NONE',  ( 0.000000000000000000, 0.000000000000000000, 5.000000000000000000 ) ) ;
#30 = EDGE_LOOP ( 'NONE', ( #315, #207, #9, #370 ) ) ;
#31 = CARTESIAN_POINT ( 'NONE',  ( 0.000000000000000000, 0.000000000000000000, 130.0000000000000000 ) ) ;
#32 = DATE_TIME_ROLE ( 'classification_date' ) ;
#33 = EDGE_CURVE ( 'NONE', #39, #35, #257, .T. ) ;
#34 = DIRECTION ( 'NONE',  ( 1.000000000000000000, 0.000000000000000000, 0.000000000000000000 ) ) ;
#35 = VERTEX_POINT ( 'NONE', #375 ) ;
#36 = FACE_OUTER_BOUND ( 'NONE', #200, .T. ) ;
#37 = AXIS2_PLACEMENT_3D ( 'NONE', #161, #187, #295 ) ;
#38 = APPROVAL_PERSON_ORGANIZATION ( #179, #273, #59 ) ;
#39 = VERTEX_POINT ( 'NONE', #94 ) ;
#40 = DIRECTION ( 'NONE',  ( 1.000000000000000000, 0.000000000000000000, 0.000000000000000000 ) ) ;
#41 = ADVANCED_FACE ( 'NONE', ( #347 ), #119, .F. ) ;
#42 = APPROVAL_STATUS ( 'not_yet_approved' ) ;
#43 = PLANE ( 'NONE',  #91 ) ;
#44 = CIRCLE ( 'NONE', #251, 3.000000000000000444 ) ;
#45 = EDGE_LOOP ( 'NONE', ( #332, #63, #307, #78 ) ) ;
#46 = LOCAL_TIME ( 11, 7, 18.00000000000000000, #149 ) ;
#47 = DIRECTION ( 'NONE',  ( 1.224646799147353207E-16, 1.000000000000000000, -0.000000000000000000 ) ) ;
#48 = PLANE ( 'NONE',  #215 ) ;
#49 = AXIS2_PLACEMENT_3D ( 'NONE', #342, #202, #174 ) ;
#50 =( GEOMETRIC_REPRESENTATION_CONTEXT ( 3 ) GLOBAL_UNCERTAINTY_ASSIGNED_CONTEXT ( ( #300 ) ) GLOBAL_UNIT_ASSIGNED_CONTEXT ( ( #226, #274, #24 ) ) REPRESENTATION_CONTEXT ( 'NONE', 'WORKASPACE' ) );
#51 = VERTEX_POINT ( 'NONE', #281 ) ;
#52 = EDGE_CURVE ( 'NONE', #95, #219, #58, .T. ) ;
#53 = PERSON_AND_ORGANIZATION ( #112, #211 ) ;
#54 = DIRECTION ( 'NONE',  ( 0.000000000000000000, 0.000000000000000000, 1.000000000000000000 ) ) ;
#55 = AXIS2_PLACEMENT_3D ( 'NONE', #256, #146, #123 ) ;
#56 = PERSON_AND_ORGANIZATION ( #112, #211 ) ;
#57 = ADVANCED_FACE ( 'NONE', ( #150 ), #232, .T. ) ;
#58 = LINE ( 'NONE', #93, #115 ) ;
#59 = APPROVAL_ROLE ( '' ) ;
#60 = DIRECTION ( 'NONE',  ( -1.000000000000000000, 0.000000000000000000, 0.000000000000000000 ) ) ;
#61 = ORIENTED_EDGE ( 'NONE', *, *, #362, .F. ) ;
#62 = DIRECTION ( 'NONE',  ( -0.000000000000000000, -0.000000000000000000, -1.000000000000000000 ) ) ;
#63 = ORIENTED_EDGE ( 'NONE', *, *, #157, .T. ) ;
#64 = AXIS2_PLACEMENT_3D ( 'NONE', #90, #117, #252 ) ;
#65 = CARTESIAN_POINT ( 'NONE',  ( 0.000000000000000000, 0.000000000000000000, 130.0000000000000000 ) ) ;
#66 = APPROVAL ( #42, 'NEURÈENÝ' ) ;
#67 = DIRECTION ( 'NONE',  ( -1.000000000000000000, 0.000000000000000000, 0.000000000000000000 ) ) ;
#68 = VERTEX_POINT ( 'NONE', #206 ) ;
#69 = DIRECTION ( 'NONE',  ( -0.000000000000000000, -0.000000000000000000, -1.000000000000000000 ) ) ;
#70 = SHAPE_DEFINITION_REPRESENTATION ( #340, #7 ) ;
#71 = CARTESIAN_POINT ( 'NONE',  ( -8.000000000000000000, 0.000000000000000000, 5.000000000000000000 ) ) ;
#72 = CIRCLE ( 'NONE', #354, 3.000000000000000444 ) ;
#73 = EDGE_CURVE ( 'NONE', #114, #160, #144, .T. ) ;
#74 = CIRCLE ( 'NONE', #258, 3.000000000000000444 ) ;
#75 = ORIENTED_EDGE ( 'NONE', *, *, #218, .T. ) ;
#76 = EDGE_LOOP ( 'NONE', ( #296, #228, #120, #275 ) ) ;
#77 = FACE_BOUND ( 'NONE', #97, .T. ) ;
#78 = ORIENTED_EDGE ( 'NONE', *, *, #362, .T. ) ;
#79 = DESIGN_CONTEXT ( 'detailed design', #282, 'design' ) ;
#80 = AXIS2_PLACEMENT_3D ( 'NONE', #31, #69, #155 ) ;
#81 = CC_DESIGN_DATE_AND_TIME_ASSIGNMENT ( #102, #32, ( #186 ) ) ;
#82 = DIRECTION ( 'NONE',  ( 1.000000000000000000, 0.000000000000000000, 0.000000000000000000 ) ) ;
#83 = CARTESIAN_POINT ( 'NONE',  ( -3.000000000000000444, 0.000000000000000000, 130.0000000000000000 ) ) ;
#84 = AXIS2_PLACEMENT_3D ( 'NONE', #208, #54, #279 ) ;
#85 = APPROVAL_DATE_TIME ( #21, #273 ) ;
#86 = EDGE_LOOP ( 'NONE', ( #288, #212, #325, #247 ) ) ;
#87 = DATE_TIME_ROLE ( 'creation_date' ) ;
#88 = DIRECTION ( 'NONE',  ( 0.000000000000000000, 0.000000000000000000, 1.000000000000000000 ) ) ;
#89 = EDGE_CURVE ( 'NONE', #35, #39, #20, .T. ) ;
#90 = CARTESIAN_POINT ( 'NONE',  ( 0.000000000000000000, 0.000000000000000000, 130.0000000000000000 ) ) ;
#91 = AXIS2_PLACEMENT_3D ( 'NONE', #12, #361, #183 ) ;
#92 = CC_DESIGN_APPROVAL ( #337, ( #378 ) ) ;
#93 = CARTESIAN_POINT ( 'NONE',  ( -5.000000000000000000, 0.000000000000000000, 130.0000000000000000 ) ) ;
#94 = CARTESIAN_POINT ( 'NONE',  ( -5.500000000000000000, 6.735557395310442023E-16, 5.000000000000002665 ) ) ;
#95 = VERTEX_POINT ( 'NONE', #379 ) ;
#96 = EDGE_CURVE ( 'NONE', #95, #268, #175, .T. ) ;
#97 = EDGE_LOOP ( 'NONE', ( #61, #192 ) ) ;
#98 = CARTESIAN_POINT ( 'NONE',  ( 0.000000000000000000, 0.000000000000000000, 5.500000000000005329 ) ) ;
#99 = CARTESIAN_POINT ( 'NONE',  ( 0.000000000000000000, 0.000000000000000000, 5.000000000000000000 ) ) ;
#100 = ORIENTED_EDGE ( 'NONE', *, *, #157, .F. ) ;
#101 = CC_DESIGN_DATE_AND_TIME_ASSIGNMENT ( #377, #87, ( #131 ) ) ;
#102 = DATE_AND_TIME ( #182, #305 ) ;
#103 = COORDINATED_UNIVERSAL_TIME_OFFSET ( 1, 0, .AHEAD. ) ;
#104 = FACE_OUTER_BOUND ( 'NONE', #76, .T. ) ;
#105 = AXIS2_PLACEMENT_3D ( 'NONE', #331, #189, #163 ) ;
#106 = ORIENTED_EDGE ( 'NONE', *, *, #73, .T. ) ;
#107 = CARTESIAN_POINT ( 'NONE',  ( 3.000000000000000444, 3.673940397442060361E-16, 0.000000000000000000 ) ) ;
#108 = CIRCLE ( 'NONE', #37, 0.5000000000000004441 ) ;
#109 = CARTESIAN_POINT ( 'NONE',  ( -5.500000000000000000, 6.735557395310442023E-16, 5.500000000000005329 ) ) ;
#110 = EDGE_CURVE ( 'NONE', #51, #380, #203, .T. ) ;
#111 = ORIENTED_EDGE ( 'NONE', *, *, #73, .F. ) ;
#112 = PERSON ( 'NEURÈENÝ', 'NEURÈENÝ', 'NEURÈENÝ', ('NEURÈENÝ'), ('NEURÈENÝ'), ('NEURÈENÝ') ) ;
#113 = CALENDAR_DATE ( 2022, 10, 7 ) ;
#114 = VERTEX_POINT ( 'NONE', #143 ) ;
#115 = VECTOR ( 'NONE', #314, 1000.000000000000000 ) ;
#116 = SECURITY_CLASSIFICATION_LEVEL ( 'unclassified' ) ;
#117 = DIRECTION ( 'NONE',  ( 0.000000000000000000, 0.000000000000000000, -1.000000000000000000 ) ) ;
#118 = PERSON_AND_ORGANIZATION_ROLE ( 'creator' ) ;
#119 = CYLINDRICAL_SURFACE ( 'NONE', #64, 3.000000000000000444 ) ;
#120 = ORIENTED_EDGE ( 'NONE', *, *, #135, .T. ) ;
#121 = AXIS2_PLACEMENT_3D ( 'NONE', #98, #265, #34 ) ;
#122 = AXIS2_PLACEMENT_3D ( 'NONE', #244, #367, #168 ) ;
#123 = DIRECTION ( 'NONE',  ( 1.000000000000000000, 0.000000000000000000, 0.000000000000000000 ) ) ;
#124 = EDGE_CURVE ( 'NONE', #380, #68, #224, .T. ) ;
#125 = CARTESIAN_POINT ( 'NONE',  ( 0.000000000000000000, 0.000000000000000000, 130.0000000000000000 ) ) ;
#126 = APPROVAL_ROLE ( '' ) ;
#127 = DIRECTION ( 'NONE',  ( -0.000000000000000000, -0.000000000000000000, -1.000000000000000000 ) ) ;
#128 = CLOSED_SHELL ( 'NONE', ( #376, #302, #57, #248, #178, #140, #286, #190, #222, #238, #41 ) ) ;
#129 = CIRCLE ( 'NONE', #366, 5.000000000000000000 ) ;
#130 = CYLINDRICAL_SURFACE ( 'NONE', #80, 5.000000000000000000 ) ;
#131 = PRODUCT_DEFINITION ( 'NEZNÁMÝ', '', #378, #79 ) ;
#132 = PERSON_AND_ORGANIZATION_ROLE ( 'classification_officer' ) ;
#133 = FACE_OUTER_BOUND ( 'NONE', #2, .T. ) ;
#134 = CARTESIAN_POINT ( 'NONE',  ( 0.000000000000000000, 0.000000000000000000, 0.000000000000000000 ) ) ;
#135 = EDGE_CURVE ( 'NONE', #191, #160, #235, .T. ) ;
#136 = DIRECTION ( 'NONE',  ( 1.000000000000000000, 0.000000000000000000, 0.000000000000000000 ) ) ;
#137 = DIRECTION ( 'NONE',  ( 0.000000000000000000, 0.000000000000000000, 1.000000000000000000 ) ) ;
#138 = VECTOR ( 'NONE', #351, 1000.000000000000000 ) ;
#139 = CIRCLE ( 'NONE', #240, 0.5000000000000004441 ) ;
#140 = ADVANCED_FACE ( 'NONE', ( #230, #283 ), #153, .T. ) ;
#141 = ORIENTED_EDGE ( 'NONE', *, *, #135, .F. ) ;
#142 = COORDINATED_UNIVERSAL_TIME_OFFSET ( 1, 0, .AHEAD. ) ;
#143 = CARTESIAN_POINT ( 'NONE',  ( 8.000000000000000000, 9.797174393178825657E-16, 0.000000000000000000 ) ) ;
#144 = CIRCLE ( 'NONE', #84, 8.000000000000000000 ) ;
#145 = PERSON_AND_ORGANIZATION_ROLE ( 'design_supplier' ) ;
#146 = DIRECTION ( 'NONE',  ( -0.000000000000000000, -0.000000000000000000, -1.000000000000000000 ) ) ;
#147 = MECHANICAL_CONTEXT ( 'NONE', #159, 'mechanical' ) ;
#148 = DIRECTION ( 'NONE',  ( 1.000000000000000000, 0.000000000000000000, 0.000000000000000000 ) ) ;
#149 = COORDINATED_UNIVERSAL_TIME_OFFSET ( 1, 0, .AHEAD. ) ;
#150 = FACE_OUTER_BOUND ( 'NONE', #86, .T. ) ;
#151 = VECTOR ( 'NONE', #62, 1000.000000000000000 ) ;
#152 = LOCAL_TIME ( 11, 7, 18.00000000000000000, #103 ) ;
#153 = PLANE ( 'NONE',  #49 ) ;
#154 = ORIENTED_EDGE ( 'NONE', *, *, #310, .T. ) ;
#155 = DIRECTION ( 'NONE',  ( -1.000000000000000000, 0.000000000000000000, 0.000000000000000000 ) ) ;
#156 = ORIENTED_EDGE ( 'NONE', *, *, #124, .T. ) ;
#157 = EDGE_CURVE ( 'NONE', #51, #349, #72, .T. ) ;
#158 = DIRECTION ( 'NONE',  ( 0.000000000000000000, 0.000000000000000000, 1.000000000000000000 ) ) ;
#159 = APPLICATION_CONTEXT ( 'configuration controlled 3d designs of mechanical parts and assemblies' ) ;
#160 = VERTEX_POINT ( 'NONE', #263 ) ;
#161 = CARTESIAN_POINT ( 'NONE',  ( 5.500000000000000000, 0.000000000000000000, 5.500000000000005329 ) ) ;
#162 = EDGE_CURVE ( 'NONE', #188, #191, #210, .T. ) ;
#163 = DIRECTION ( 'NONE',  ( -1.000000000000000000, 0.000000000000000000, 0.000000000000000000 ) ) ;
#164 = AXIS2_PLACEMENT_3D ( 'NONE', #341, #254, #280 ) ;
#165 = EDGE_LOOP ( 'NONE', ( #290, #198, #221, #227 ) ) ;
#166 = DIRECTION ( 'NONE',  ( 0.000000000000000000, 0.000000000000000000, 1.000000000000000000 ) ) ;
#167 = EDGE_CURVE ( 'NONE', #349, #51, #44, .T. ) ;
#168 = DIRECTION ( 'NONE',  ( 1.000000000000000000, 0.000000000000000000, 0.000000000000000000 ) ) ;
#169 = VECTOR ( 'NONE', #127, 1000.000000000000000 ) ;
#170 = APPROVAL_ROLE ( '' ) ;
#171 = CARTESIAN_POINT ( 'NONE',  ( 3.000000000000000444, 3.673940397442060361E-16, 130.0000000000000000 ) ) ;
#172 = PRODUCT_RELATED_PRODUCT_CATEGORY ( 'detail', '', ( #272 ) ) ;
#173 = APPLICATION_PROTOCOL_DEFINITION ( 'international standard', 'config_control_design', 1994, #282 ) ;
#174 = DIRECTION ( 'NONE',  ( 1.000000000000000000, 0.000000000000000000, -0.000000000000000000 ) ) ;
#175 = CIRCLE ( 'NONE', #303, 5.000000000000000000 ) ;
#176 = VECTOR ( 'NONE', #271, 1000.000000000000000 ) ;
#177 = DIRECTION ( 'NONE',  ( 1.000000000000000000, 0.000000000000000000, 0.000000000000000000 ) ) ;
#178 = ADVANCED_FACE ( 'NONE', ( #104 ), #287, .T. ) ;
#179 = PERSON_AND_ORGANIZATION ( #112, #211 ) ;
#180 = CARTESIAN_POINT ( 'NONE',  ( 0.000000000000000000, 0.000000000000000000, 5.000000000000000000 ) ) ;
#181 = ORIENTED_EDGE ( 'NONE', *, *, #14, .F. ) ;
#182 = CALENDAR_DATE ( 2022, 10, 7 ) ;
#183 = DIRECTION ( 'NONE',  ( 1.000000000000000000, 0.000000000000000000, -0.000000000000000000 ) ) ;
#184 = ORIENTED_EDGE ( 'NONE', *, *, #167, .T. ) ;
#185 = CALENDAR_DATE ( 2022, 10, 7 ) ;
#186 = SECURITY_CLASSIFICATION ( '', '', #116 ) ;
#187 = DIRECTION ( 'NONE',  ( 0.000000000000000000, -1.000000000000000000, 0.000000000000000000 ) ) ;
#188 = VERTEX_POINT ( 'NONE', #324 ) ;
#189 = DIRECTION ( 'NONE',  ( -0.000000000000000000, -0.000000000000000000, -1.000000000000000000 ) ) ;
#190 = ADVANCED_FACE ( 'NONE', ( #5 ), #130, .T. ) ;
#191 = VERTEX_POINT ( 'NONE', #71 ) ;
#192 = ORIENTED_EDGE ( 'NONE', *, *, #124, .F. ) ;
#193 = FACE_OUTER_BOUND ( 'NONE', #165, .T. ) ;
#194 = EDGE_CURVE ( 'NONE', #267, #35, #108, .T. ) ;
#195 = DIRECTION ( 'NONE',  ( 0.000000000000000000, 0.000000000000000000, -1.000000000000000000 ) ) ;
#196 = LINE ( 'NONE', #220, #176 ) ;
#197 = TOROIDAL_SURFACE ( 'NONE', #121, 5.500000000000000000, 0.5000000000000000000 ) ;
#198 = ORIENTED_EDGE ( 'NONE', *, *, #323, .T. ) ;
#199 = APPROVAL_STATUS ( 'not_yet_approved' ) ;
#200 = EDGE_LOOP ( 'NONE', ( #260, #154 ) ) ;
#201 = PERSON_AND_ORGANIZATION ( #112, #211 ) ;
#202 = DIRECTION ( 'NONE',  ( 0.000000000000000000, 0.000000000000000000, 1.000000000000000000 ) ) ;
#203 = LINE ( 'NONE', #171, #233 ) ;
#204 = AXIS2_PLACEMENT_3D ( 'NONE', #125, #312, #60 ) ;
#205 = CC_DESIGN_PERSON_AND_ORGANIZATION_ASSIGNMENT ( #201, #308, ( #378 ) ) ;
#206 = CARTESIAN_POINT ( 'NONE',  ( -3.000000000000000444, 0.000000000000000000, 0.000000000000000000 ) ) ;
#207 = ORIENTED_EDGE ( 'NONE', *, *, #229, .F. ) ;
#208 = CARTESIAN_POINT ( 'NONE',  ( 0.000000000000000000, 0.000000000000000000, 0.000000000000000000 ) ) ;
#209 = EDGE_LOOP ( 'NONE', ( #17, #111 ) ) ;
#210 = CIRCLE ( 'NONE', #371, 8.000000000000000000 ) ;
#211 = ORGANIZATION ( 'NEURÈENÝ', 'NEURÈENÝ', '' ) ;
#212 = ORIENTED_EDGE ( 'NONE', *, *, #14, .T. ) ;
#213 = DATE_AND_TIME ( #185, #152 ) ;
#214 = EDGE_LOOP ( 'NONE', ( #184, #306, #156, #318 ) ) ;
#215 = AXIS2_PLACEMENT_3D ( 'NONE', #134, #166, #335 ) ;
#216 = LOCAL_TIME ( 11, 7, 18.00000000000000000, #142 ) ;
#217 = CARTESIAN_POINT ( 'NONE',  ( 0.000000000000000000, 0.000000000000000000, 5.500000000000005329 ) ) ;
#218 = EDGE_CURVE ( 'NONE', #191, #188, #245, .T. ) ;
#219 = VERTEX_POINT ( 'NONE', #358 ) ;
#220 = CARTESIAN_POINT ( 'NONE',  ( -3.000000000000000444, 0.000000000000000000, 130.0000000000000000 ) ) ;
#221 = ORIENTED_EDGE ( 'NONE', *, *, #89, .F. ) ;
#222 = ADVANCED_FACE ( 'NONE', ( #3, #36 ), #43, .T. ) ;
#223 = CYLINDRICAL_SURFACE ( 'NONE', #355, 3.000000000000000444 ) ;
#224 = CIRCLE ( 'NONE', #55, 3.000000000000000444 ) ;
#225 = CARTESIAN_POINT ( 'NONE',  ( 0.000000000000000000, 0.000000000000000000, 5.500000000000005329 ) ) ;
#226 =( LENGTH_UNIT ( ) NAMED_UNIT ( * ) SI_UNIT ( .MILLI., .METRE. ) );
#227 = ORIENTED_EDGE ( 'NONE', *, *, #194, .F. ) ;
#228 = ORIENTED_EDGE ( 'NONE', *, *, #218, .F. ) ;
#229 = EDGE_CURVE ( 'NONE', #267, #219, #270, .T. ) ;
#230 = FACE_BOUND ( 'NONE', #357, .T. ) ;
#231 = COORDINATED_UNIVERSAL_TIME_OFFSET ( 1, 0, .AHEAD. ) ;
#232 = CYLINDRICAL_SURFACE ( 'NONE', #204, 5.000000000000000000 ) ;
#233 = VECTOR ( 'NONE', #25, 1000.000000000000000 ) ;
#234 = PERSON_AND_ORGANIZATION_ROLE ( 'design_owner' ) ;
#235 = LINE ( 'NONE', #317, #151 ) ;
#236 = COORDINATED_UNIVERSAL_TIME_OFFSET ( 1, 0, .AHEAD. ) ;
#237 = DIRECTION ( 'NONE',  ( -0.000000000000000000, -0.000000000000000000, -1.000000000000000000 ) ) ;
#238 = ADVANCED_FACE ( 'NONE', ( #353 ), #197, .F. ) ;
#239 = AXIS2_PLACEMENT_3D ( 'NONE', #99, #237, #67 ) ;
#240 = AXIS2_PLACEMENT_3D ( 'NONE', #109, #47, #336 ) ;
#241 = EDGE_CURVE ( 'NONE', #188, #114, #8, .T. ) ;
#242 = CYLINDRICAL_SURFACE ( 'NONE', #105, 8.000000000000000000 ) ;
#243 = DIRECTION ( 'NONE',  ( 0.000000000000000000, 0.000000000000000000, 1.000000000000000000 ) ) ;
#244 = CARTESIAN_POINT ( 'NONE',  ( 0.000000000000000000, 0.000000000000000000, 130.0000000000000000 ) ) ;
#245 = CIRCLE ( 'NONE', #328, 8.000000000000000000 ) ;
#246 = CARTESIAN_POINT ( 'NONE',  ( 0.000000000000000000, 0.000000000000000000, 130.0000000000000000 ) ) ;
#247 = ORIENTED_EDGE ( 'NONE', *, *, #52, .F. ) ;
#248 = ADVANCED_FACE ( 'NONE', ( #133 ), #242, .T. ) ;
#249 = CARTESIAN_POINT ( 'NONE',  ( 0.000000000000000000, 0.000000000000000000, 0.000000000000000000 ) ) ;
#250 = DATE_AND_TIME ( #344, #216 ) ;
#251 = AXIS2_PLACEMENT_3D ( 'NONE', #65, #322, #356 ) ;
#252 = DIRECTION ( 'NONE',  ( -1.000000000000000000, 0.000000000000000000, 0.000000000000000000 ) ) ;
#253 = DIRECTION ( 'NONE',  ( -0.000000000000000000, -0.000000000000000000, -1.000000000000000000 ) ) ;
#254 = DIRECTION ( 'NONE',  ( 0.000000000000000000, 0.000000000000000000, 1.000000000000000000 ) ) ;
#255 = PERSON_AND_ORGANIZATION ( #112, #211 ) ;
#256 = CARTESIAN_POINT ( 'NONE',  ( 0.000000000000000000, 0.000000000000000000, 0.000000000000000000 ) ) ;
#257 = CIRCLE ( 'NONE', #293, 5.500000000000000000 ) ;
#258 = AXIS2_PLACEMENT_3D ( 'NONE', #269, #364, #16 ) ;
#259 = MANIFOLD_SOLID_BREP ( 'Odebrat vysunutím3', #128 ) ;
#260 = ORIENTED_EDGE ( 'NONE', *, *, #96, .T. ) ;
#261 = CC_DESIGN_PERSON_AND_ORGANIZATION_ASSIGNMENT ( #381, #132, ( #186 ) ) ;
#262 = DIRECTION ( 'NONE',  ( 0.000000000000000000, 0.000000000000000000, 1.000000000000000000 ) ) ;
#263 = CARTESIAN_POINT ( 'NONE',  ( -8.000000000000000000, 0.000000000000000000, 0.000000000000000000 ) ) ;
#264 = CIRCLE ( 'NONE', #122, 5.000000000000000000 ) ;
#265 = DIRECTION ( 'NONE',  ( 0.000000000000000000, 0.000000000000000000, 1.000000000000000000 ) ) ;
#266 = ORIENTED_EDGE ( 'NONE', *, *, #33, .T. ) ;
#267 = VERTEX_POINT ( 'NONE', #13 ) ;
#268 = VERTEX_POINT ( 'NONE', #301 ) ;
#269 = CARTESIAN_POINT ( 'NONE',  ( 0.000000000000000000, 0.000000000000000000, 0.000000000000000000 ) ) ;
#270 = CIRCLE ( 'NONE', #294, 5.000000000000000000 ) ;
#271 = DIRECTION ( 'NONE',  ( 0.000000000000000000, 0.000000000000000000, -1.000000000000000000 ) ) ;
#272 = PRODUCT ( 'c3c6', 'c3c6', '', ( #147 ) ) ;
#273 = APPROVAL ( #277, 'NEURÈENÝ' ) ;
#274 =( NAMED_UNIT ( * ) PLANE_ANGLE_UNIT ( ) SI_UNIT ( $, .RADIAN. ) );
#275 = ORIENTED_EDGE ( 'NONE', *, *, #6, .T. ) ;
#276 = CARTESIAN_POINT ( 'NONE',  ( 0.000000000000000000, 0.000000000000000000, 130.0000000000000000 ) ) ;
#277 = APPROVAL_STATUS ( 'not_yet_approved' ) ;
#278 = CARTESIAN_POINT ( 'NONE',  ( 0.000000000000000000, 0.000000000000000000, 130.0000000000000000 ) ) ;
#279 = DIRECTION ( 'NONE',  ( 1.000000000000000000, 0.000000000000000000, 0.000000000000000000 ) ) ;
#280 = DIRECTION ( 'NONE',  ( 1.000000000000000000, 0.000000000000000000, 0.000000000000000000 ) ) ;
#281 = CARTESIAN_POINT ( 'NONE',  ( 3.000000000000000444, 3.673940397442060361E-16, 130.0000000000000000 ) ) ;
#282 = APPLICATION_CONTEXT ( 'configuration controlled 3d designs of mechanical parts and assemblies' ) ;
#283 = FACE_OUTER_BOUND ( 'NONE', #334, .T. ) ;
#284 = LOCAL_TIME ( 11, 7, 18.00000000000000000, #231 ) ;
#285 = ORIENTED_EDGE ( 'NONE', *, *, #89, .T. ) ;
#286 = ADVANCED_FACE ( 'NONE', ( #77, #15 ), #48, .F. ) ;
#287 = CYLINDRICAL_SURFACE ( 'NONE', #239, 8.000000000000000000 ) ;
#288 = ORIENTED_EDGE ( 'NONE', *, *, #310, .F. ) ;
#289 = DIRECTION ( 'NONE',  ( 1.000000000000000000, 0.000000000000000000, 0.000000000000000000 ) ) ;
#290 = ORIENTED_EDGE ( 'NONE', *, *, #343, .F. ) ;
#291 = PERSON_AND_ORGANIZATION ( #112, #211 ) ;
#292 = DIRECTION ( 'NONE',  ( 1.000000000000000000, 0.000000000000000000, 0.000000000000000000 ) ) ;
#293 = AXIS2_PLACEMENT_3D ( 'NONE', #29, #345, #148 ) ;
#294 = AXIS2_PLACEMENT_3D ( 'NONE', #217, #262, #40 ) ;
#295 = DIRECTION ( 'NONE',  ( 0.000000000000000000, 0.000000000000000000, -1.000000000000000000 ) ) ;
#296 = ORIENTED_EDGE ( 'NONE', *, *, #241, .F. ) ;
#297 = CARTESIAN_POINT ( 'NONE',  ( 0.000000000000000000, 0.000000000000000000, 5.000000000000000000 ) ) ;
#298 = EDGE_LOOP ( 'NONE', ( #339, #100 ) ) ;
#299 = DIRECTION ( 'NONE',  ( -1.000000000000000000, 0.000000000000000000, 0.000000000000000000 ) ) ;
#300 = UNCERTAINTY_MEASURE_WITH_UNIT (LENGTH_MEASURE( 1.000000000000000082E-05 ), #226, 'distance_accuracy_value', 'NONE');
#301 = CARTESIAN_POINT ( 'NONE',  ( 5.000000000000000000, 6.123233995736766282E-16, 130.0000000000000000 ) ) ;
#302 = ADVANCED_FACE ( 'NONE', ( #193 ), #27, .F. ) ;
#303 = AXIS2_PLACEMENT_3D ( 'NONE', #276, #88, #19 ) ;
#304 = CARTESIAN_POINT ( 'NONE',  ( 0.000000000000000000, 0.000000000000000000, 5.500000000000005329 ) ) ;
#305 = LOCAL_TIME ( 11, 7, 18.00000000000000000, #236 ) ;
#306 = ORIENTED_EDGE ( 'NONE', *, *, #110, .T. ) ;
#307 = ORIENTED_EDGE ( 'NONE', *, *, #350, .T. ) ;
#308 = PERSON_AND_ORGANIZATION_ROLE ( 'creator' ) ;
#309 = DIRECTION ( 'NONE',  ( 1.000000000000000000, 0.000000000000000000, 0.000000000000000000 ) ) ;
#310 = EDGE_CURVE ( 'NONE', #268, #95, #264, .T. ) ;
#311 = AXIS2_PLACEMENT_3D ( 'NONE', #249, #158, #309 ) ;
#312 = DIRECTION ( 'NONE',  ( -0.000000000000000000, -0.000000000000000000, -1.000000000000000000 ) ) ;
#313 = APPLICATION_PROTOCOL_DEFINITION ( 'international standard', 'config_control_design', 1994, #159 ) ;
#314 = DIRECTION ( 'NONE',  ( -0.000000000000000000, -0.000000000000000000, -1.000000000000000000 ) ) ;
#315 = ORIENTED_EDGE ( 'NONE', *, *, #323, .F. ) ;
#316 = PERSON_AND_ORGANIZATION ( #112, #211 ) ;
#317 = CARTESIAN_POINT ( 'NONE',  ( -8.000000000000000000, 0.000000000000000000, 5.000000000000000000 ) ) ;
#318 = ORIENTED_EDGE ( 'NONE', *, *, #350, .F. ) ;
#319 = DIRECTION ( 'NONE',  ( 1.000000000000000000, 0.000000000000000000, 0.000000000000000000 ) ) ;
#320 = AXIS2_PLACEMENT_3D ( 'NONE', #352, #253, #177 ) ;
#321 = ORIENTED_EDGE ( 'NONE', *, *, #162, .F. ) ;
#322 = DIRECTION ( 'NONE',  ( 0.000000000000000000, 0.000000000000000000, 1.000000000000000000 ) ) ;
#323 = EDGE_CURVE ( 'NONE', #219, #39, #139, .T. ) ;
#324 = CARTESIAN_POINT ( 'NONE',  ( 8.000000000000000000, 9.797174393178825657E-16, 5.000000000000000000 ) ) ;
#325 = ORIENTED_EDGE ( 'NONE', *, *, #229, .T. ) ;
#326 = APPROVAL_DATE_TIME ( #213, #66 ) ;
#327 = DIRECTION ( 'NONE',  ( 0.000000000000000000, 0.000000000000000000, 1.000000000000000000 ) ) ;
#328 = AXIS2_PLACEMENT_3D ( 'NONE', #297, #243, #292 ) ;
#329 = EDGE_LOOP ( 'NONE', ( #181, #360, #363, #4 ) ) ;
#330 = CC_DESIGN_APPROVAL ( #273, ( #131 ) ) ;
#331 = CARTESIAN_POINT ( 'NONE',  ( 0.000000000000000000, 0.000000000000000000, 5.000000000000000000 ) ) ;
#332 = ORIENTED_EDGE ( 'NONE', *, *, #110, .F. ) ;
#333 = CC_DESIGN_PERSON_AND_ORGANIZATION_ASSIGNMENT ( #53, #145, ( #378 ) ) ;
#334 = EDGE_LOOP ( 'NONE', ( #75, #11 ) ) ;
#335 = DIRECTION ( 'NONE',  ( 1.000000000000000000, 0.000000000000000000, -0.000000000000000000 ) ) ;
#336 = DIRECTION ( 'NONE',  ( -1.000000000000000000, 1.224646799147351482E-16, 0.000000000000000000 ) ) ;
#337 = APPROVAL ( #199, 'NEURÈENÝ' ) ;
#338 = ORIENTED_EDGE ( 'NONE', *, *, #241, .T. ) ;
#339 = ORIENTED_EDGE ( 'NONE', *, *, #167, .F. ) ;
#340 = PRODUCT_DEFINITION_SHAPE ( 'NONE', 'NONE',  #131 ) ;
#341 = CARTESIAN_POINT ( 'NONE',  ( 0.000000000000000000, 0.000000000000000000, 0.000000000000000000 ) ) ;
#342 = CARTESIAN_POINT ( 'NONE',  ( 0.000000000000000000, 0.000000000000000000, 5.000000000000000000 ) ) ;
#343 = EDGE_CURVE ( 'NONE', #219, #267, #129, .T. ) ;
#344 = CALENDAR_DATE ( 2022, 10, 7 ) ;
#345 = DIRECTION ( 'NONE',  ( -0.000000000000000000, -0.000000000000000000, -1.000000000000000000 ) ) ;
#346 = CC_DESIGN_SECURITY_CLASSIFICATION ( #186, ( #378 ) ) ;
#347 = FACE_OUTER_BOUND ( 'NONE', #45, .T. ) ;
#348 = APPROVAL_PERSON_ORGANIZATION ( #291, #66, #126 ) ;
#349 = VERTEX_POINT ( 'NONE', #83 ) ;
#350 = EDGE_CURVE ( 'NONE', #349, #68, #196, .T. ) ;
#351 = DIRECTION ( 'NONE',  ( -0.000000000000000000, -0.000000000000000000, -1.000000000000000000 ) ) ;
#352 = CARTESIAN_POINT ( 'NONE',  ( 0.000000000000000000, 0.000000000000000000, 5.000000000000000000 ) ) ;
#353 = FACE_OUTER_BOUND ( 'NONE', #30, .T. ) ;
#354 = AXIS2_PLACEMENT_3D ( 'NONE', #278, #23, #319 ) ;
#355 = AXIS2_PLACEMENT_3D ( 'NONE', #246, #195, #299 ) ;
#356 = DIRECTION ( 'NONE',  ( 1.000000000000000000, 0.000000000000000000, 0.000000000000000000 ) ) ;
#357 = EDGE_LOOP ( 'NONE', ( #285, #266 ) ) ;
#358 = CARTESIAN_POINT ( 'NONE',  ( -5.000000000000000000, 0.000000000000000000, 5.500000000000005329 ) ) ;
#359 = CIRCLE ( 'NONE', #311, 8.000000000000000000 ) ;
#360 = ORIENTED_EDGE ( 'NONE', *, *, #96, .F. ) ;
#361 = DIRECTION ( 'NONE',  ( 0.000000000000000000, 0.000000000000000000, 1.000000000000000000 ) ) ;
#362 = EDGE_CURVE ( 'NONE', #68, #380, #74, .T. ) ;
#363 = ORIENTED_EDGE ( 'NONE', *, *, #52, .T. ) ;
#364 = DIRECTION ( 'NONE',  ( -0.000000000000000000, -0.000000000000000000, -1.000000000000000000 ) ) ;
#365 = CC_DESIGN_PERSON_AND_ORGANIZATION_ASSIGNMENT ( #255, #118, ( #131 ) ) ;
#366 = AXIS2_PLACEMENT_3D ( 'NONE', #225, #369, #136 ) ;
#367 = DIRECTION ( 'NONE',  ( 0.000000000000000000, 0.000000000000000000, 1.000000000000000000 ) ) ;
#368 = FACE_OUTER_BOUND ( 'NONE', #214, .T. ) ;
#369 = DIRECTION ( 'NONE',  ( 0.000000000000000000, 0.000000000000000000, 1.000000000000000000 ) ) ;
#370 = ORIENTED_EDGE ( 'NONE', *, *, #33, .F. ) ;
#371 = AXIS2_PLACEMENT_3D ( 'NONE', #180, #327, #289 ) ;
#372 = APPROVAL_DATE_TIME ( #250, #337 ) ;
#373 = APPROVAL_PERSON_ORGANIZATION ( #56, #337, #170 ) ;
#374 = CARTESIAN_POINT ( 'NONE',  ( 5.000000000000000000, 6.123233995736766282E-16, 130.0000000000000000 ) ) ;
#375 = CARTESIAN_POINT ( 'NONE',  ( 5.500000000000000000, 0.000000000000000000, 5.000000000000002665 ) ) ;
#376 = ADVANCED_FACE ( 'NONE', ( #368 ), #223, .F. ) ;
#377 = DATE_AND_TIME ( #113, #284 ) ;
#378 = PRODUCT_DEFINITION_FORMATION_WITH_SPECIFIED_SOURCE ( 'LIBOVOLNÝ', '', #272, .NOT_KNOWN. ) ;
#379 = CARTESIAN_POINT ( 'NONE',  ( -5.000000000000000000, 0.000000000000000000, 130.0000000000000000 ) ) ;
#380 = VERTEX_POINT ( 'NONE', #107 ) ;
#381 = PERSON_AND_ORGANIZATION ( #112, #211 ) ;
ENDSEC;
END-ISO-10303-21;
