ISO-10303-21;
HEADER;
FILE_DESCRIPTION (( 'STEP AP203' ),
    '1' );
FILE_NAME ('d2bc.STEP',
    '2022-07-10T09:09:23',
    ( '' ),
    ( '' ),
    'SwSTEP 2.0',
    'SolidWorks 2019',
    '' );
FILE_SCHEMA (( 'CONFIG_CONTROL_DESIGN' ));
ENDSEC;

DATA;
#1 = CIRCLE ( 'NONE', #104, 7.000000000000000000 ) ;
#2 = ORIENTED_EDGE ( 'NONE', *, *, #98, .F. ) ;
#3 = DIRECTION ( 'NONE',  ( -0.000000000000000000, -0.000000000000000000, -1.000000000000000000 ) ) ;
#4 = VERTEX_POINT ( 'NONE', #111 ) ;
#5 = DIRECTION ( 'NONE',  ( -0.000000000000000000, -0.000000000000000000, -1.000000000000000000 ) ) ;
#6 = EDGE_LOOP ( 'NONE', ( #349, #373 ) ) ;
#7 = CARTESIAN_POINT ( 'NONE',  ( 0.000000000000000000, 0.000000000000000000, 5.500000000000005329 ) ) ;
#8 = AXIS2_PLACEMENT_3D ( 'NONE', #43, #226, #274 ) ;
#9 = TOROIDAL_SURFACE ( 'NONE', #336, 4.500000000000000888, 0.5000000000000000000 ) ;
#10 = ORIENTED_EDGE ( 'NONE', *, *, #357, .T. ) ;
#11 = PERSON_AND_ORGANIZATION ( #140, #150 ) ;
#12 = EDGE_LOOP ( 'NONE', ( #212, #214, #295, #10 ) ) ;
#13 = PERSON_AND_ORGANIZATION_ROLE ( 'classification_officer' ) ;
#14 = CARTESIAN_POINT ( 'NONE',  ( 0.000000000000000000, 0.000000000000000000, 180.0000000000000000 ) ) ;
#15 = APPROVAL_DATE_TIME ( #42, #217 ) ;
#16 = ORIENTED_EDGE ( 'NONE', *, *, #155, .T. ) ;
#17 = DATE_TIME_ROLE ( 'creation_date' ) ;
#18 = EDGE_CURVE ( 'NONE', #263, #151, #251, .T. ) ;
#19 = PLANE ( 'NONE',  #321 ) ;
#20 = VECTOR ( 'NONE', #298, 1000.000000000000000 ) ;
#21 = DIRECTION ( 'NONE',  ( -0.000000000000000000, -0.000000000000000000, -1.000000000000000000 ) ) ;
#22 = EDGE_CURVE ( 'NONE', #224, #127, #311, .T. ) ;
#23 = LOCAL_TIME ( 11, 9, 23.00000000000000000, #164 ) ;
#24 = PERSON_AND_ORGANIZATION_ROLE ( 'design_supplier' ) ;
#25 = CARTESIAN_POINT ( 'NONE',  ( 2.500000000000000000, 3.061616997868382648E-16, 180.0000000000000000 ) ) ;
#26 = CC_DESIGN_PERSON_AND_ORGANIZATION_ASSIGNMENT ( #223, #13, ( #106 ) ) ;
#27 = LOCAL_TIME ( 11, 9, 23.00000000000000000, #200 ) ;
#28 = CC_DESIGN_DATE_AND_TIME_ASSIGNMENT ( #78, #17, ( #254 ) ) ;
#29 = FACE_BOUND ( 'NONE', #139, .T. ) ;
#30 = CIRCLE ( 'NONE', #362, 4.000000000000000000 ) ;
#31 = ORIENTED_EDGE ( 'NONE', *, *, #262, .F. ) ;
#32 = DIRECTION ( 'NONE',  ( 1.000000000000000000, 0.000000000000000000, 0.000000000000000000 ) ) ;
#33 = VERTEX_POINT ( 'NONE', #246 ) ;
#34 = APPLICATION_PROTOCOL_DEFINITION ( 'international standard', 'config_control_design', 1994, #342 ) ;
#35 = PERSON_AND_ORGANIZATION ( #140, #150 ) ;
#36 = ADVANCED_FACE ( 'NONE', ( #271 ), #113, .F. ) ;
#37 = DIRECTION ( 'NONE',  ( 1.224646799147353207E-16, 1.000000000000000000, -0.000000000000000000 ) ) ;
#38 = DIRECTION ( 'NONE',  ( 0.000000000000000000, 0.000000000000000000, 1.000000000000000000 ) ) ;
#39 = FACE_OUTER_BOUND ( 'NONE', #281, .T. ) ;
#40 = FACE_OUTER_BOUND ( 'NONE', #238, .T. ) ;
#41 = DIRECTION ( 'NONE',  ( -1.000000000000000000, 0.000000000000000000, 0.000000000000000000 ) ) ;
#42 = DATE_AND_TIME ( #48, #169 ) ;
#43 = CARTESIAN_POINT ( 'NONE',  ( 0.000000000000000000, 0.000000000000000000, 5.000000000000000000 ) ) ;
#44 = PERSON_AND_ORGANIZATION ( #140, #150 ) ;
#45 = DIRECTION ( 'NONE',  ( 1.000000000000000000, 0.000000000000000000, 0.000000000000000000 ) ) ;
#46 = EDGE_CURVE ( 'NONE', #183, #4, #30, .T. ) ;
#47 = DIRECTION ( 'NONE',  ( 1.000000000000000000, 0.000000000000000000, 0.000000000000000000 ) ) ;
#48 = CALENDAR_DATE ( 2022, 10, 7 ) ;
#49 = DIRECTION ( 'NONE',  ( 0.000000000000000000, 0.000000000000000000, 1.000000000000000000 ) ) ;
#50 = ORIENTED_EDGE ( 'NONE', *, *, #190, .F. ) ;
#51 = CARTESIAN_POINT ( 'NONE',  ( 0.000000000000000000, 0.000000000000000000, 180.0000000000000000 ) ) ;
#52 = CC_DESIGN_APPROVAL ( #217, ( #106 ) ) ;
#53 = ORIENTED_EDGE ( 'NONE', *, *, #22, .F. ) ;
#54 = CARTESIAN_POINT ( 'NONE',  ( 7.000000000000000000, 8.572527594031473190E-16, 5.000000000000000000 ) ) ;
#55 = CYLINDRICAL_SURFACE ( 'NONE', #255, 4.000000000000000000 ) ;
#56 = ORIENTED_EDGE ( 'NONE', *, *, #125, .F. ) ;
#57 = APPROVAL_PERSON_ORGANIZATION ( #277, #341, #174 ) ;
#58 = ORIENTED_EDGE ( 'NONE', *, *, #149, .T. ) ;
#59 = CARTESIAN_POINT ( 'NONE',  ( -2.500000000000000000, 0.000000000000000000, 0.000000000000000000 ) ) ;
#60 = CIRCLE ( 'NONE', #121, 7.000000000000000000 ) ;
#61 = ORIENTED_EDGE ( 'NONE', *, *, #283, .T. ) ;
#62 = EDGE_CURVE ( 'NONE', #4, #263, #290, .T. ) ;
#63 = APPROVAL_PERSON_ORGANIZATION ( #44, #217, #275 ) ;
#64 = EDGE_LOOP ( 'NONE', ( #56, #16, #61, #361 ) ) ;
#65 = CARTESIAN_POINT ( 'NONE',  ( 0.000000000000000000, 0.000000000000000000, 0.000000000000000000 ) ) ;
#66 = ORIENTED_EDGE ( 'NONE', *, *, #100, .T. ) ;
#67 = DIRECTION ( 'NONE',  ( 1.000000000000000000, 0.000000000000000000, -0.000000000000000000 ) ) ;
#68 = DIRECTION ( 'NONE',  ( 0.000000000000000000, 0.000000000000000000, 1.000000000000000000 ) ) ;
#69 = CLOSED_SHELL ( 'NONE', ( #112, #36, #86, #372, #260, #205, #346, #242, #201, #345, #198 ) ) ;
#70 = DIRECTION ( 'NONE',  ( 1.000000000000000000, 0.000000000000000000, 0.000000000000000000 ) ) ;
#71 = VECTOR ( 'NONE', #5, 1000.000000000000000 ) ;
#72 = LINE ( 'NONE', #138, #286 ) ;
#73 = DIRECTION ( 'NONE',  ( -1.000000000000000000, 0.000000000000000000, 0.000000000000000000 ) ) ;
#74 = APPROVAL_DATE_TIME ( #282, #166 ) ;
#75 = CARTESIAN_POINT ( 'NONE',  ( 0.000000000000000000, 0.000000000000000000, 5.000000000000000000 ) ) ;
#76 = DIRECTION ( 'NONE',  ( 1.000000000000000000, 0.000000000000000000, 0.000000000000000000 ) ) ;
#77 = COORDINATED_UNIVERSAL_TIME_OFFSET ( 1, 0, .AHEAD. ) ;
#78 = DATE_AND_TIME ( #141, #27 ) ;
#79 = CARTESIAN_POINT ( 'NONE',  ( 0.000000000000000000, 0.000000000000000000, 180.0000000000000000 ) ) ;
#80 = CC_DESIGN_PERSON_AND_ORGANIZATION_ASSIGNMENT ( #35, #159, ( #239 ) ) ;
#81 = DIRECTION ( 'NONE',  ( 1.000000000000000000, 0.000000000000000000, 0.000000000000000000 ) ) ;
#82 = CIRCLE ( 'NONE', #8, 7.000000000000000000 ) ;
#83 = VERTEX_POINT ( 'NONE', #248 ) ;
#84 = CARTESIAN_POINT ( 'NONE',  ( 0.000000000000000000, 0.000000000000000000, 180.0000000000000000 ) ) ;
#85 = EDGE_LOOP ( 'NONE', ( #288, #235 ) ) ;
#86 = ADVANCED_FACE ( 'NONE', ( #301 ), #225, .T. ) ;
#87 = AXIS2_PLACEMENT_3D ( 'NONE', #335, #91, #146 ) ;
#88 = AXIS2_PLACEMENT_3D ( 'NONE', #352, #171, #278 ) ;
#89 = EDGE_CURVE ( 'NONE', #183, #151, #120, .T. ) ;
#90 = VERTEX_POINT ( 'NONE', #219 ) ;
#91 = DIRECTION ( 'NONE',  ( 0.000000000000000000, 0.000000000000000000, 1.000000000000000000 ) ) ;
#92 = EDGE_CURVE ( 'NONE', #127, #316, #250, .T. ) ;
#93 = EDGE_LOOP ( 'NONE', ( #97, #2, #66, #203 ) ) ;
#94 =( NAMED_UNIT ( * ) PLANE_ANGLE_UNIT ( ) SI_UNIT ( $, .RADIAN. ) );
#95 = CC_DESIGN_PERSON_AND_ORGANIZATION_ASSIGNMENT ( #144, #24, ( #184 ) ) ;
#96 = ORIENTED_EDGE ( 'NONE', *, *, #92, .T. ) ;
#97 = ORIENTED_EDGE ( 'NONE', *, *, #155, .F. ) ;
#98 = EDGE_CURVE ( 'NONE', #90, #208, #60, .T. ) ;
#99 = CARTESIAN_POINT ( 'NONE',  ( 4.500000000000000888, 0.000000000000000000, 5.500000000000005329 ) ) ;
#100 = EDGE_CURVE ( 'NONE', #90, #234, #72, .T. ) ;
#101 = PRODUCT_DEFINITION_SHAPE ( 'NONE', 'NONE',  #254 ) ;
#102 = DIRECTION ( 'NONE',  ( 1.000000000000000000, 0.000000000000000000, 0.000000000000000000 ) ) ;
#103 = COORDINATED_UNIVERSAL_TIME_OFFSET ( 1, 0, .AHEAD. ) ;
#104 = AXIS2_PLACEMENT_3D ( 'NONE', #343, #115, #81 ) ;
#105 = DESIGN_CONTEXT ( 'detailed design', #253, 'design' ) ;
#106 = SECURITY_CLASSIFICATION ( '', '', #108 ) ;
#107 = DIRECTION ( 'NONE',  ( -0.000000000000000000, -0.000000000000000000, -1.000000000000000000 ) ) ;
#108 = SECURITY_CLASSIFICATION_LEVEL ( 'unclassified' ) ;
#109 = EDGE_CURVE ( 'NONE', #224, #179, #192, .T. ) ;
#110 = DIRECTION ( 'NONE',  ( 1.000000000000000000, 0.000000000000000000, 0.000000000000000000 ) ) ;
#111 = CARTESIAN_POINT ( 'NONE',  ( -4.000000000000000000, 0.000000000000000000, 5.500000000000005329 ) ) ;
#112 = ADVANCED_FACE ( 'NONE', ( #39 ), #194, .F. ) ;
#113 = TOROIDAL_SURFACE ( 'NONE', #153, 4.500000000000000888, 0.5000000000000000000 ) ;
#114 = APPROVAL_DATE_TIME ( #309, #341 ) ;
#115 = DIRECTION ( 'NONE',  ( 0.000000000000000000, 0.000000000000000000, 1.000000000000000000 ) ) ;
#116 = CARTESIAN_POINT ( 'NONE',  ( 2.500000000000000000, 3.061616997868382648E-16, 0.000000000000000000 ) ) ;
#117 = ORIENTED_EDGE ( 'NONE', *, *, #125, .T. ) ;
#118 = MANIFOLD_SOLID_BREP ( 'Odebrat vysunutím3', #69 ) ;
#119 = CARTESIAN_POINT ( 'NONE',  ( 0.000000000000000000, 0.000000000000000000, 0.000000000000000000 ) ) ;
#120 = CIRCLE ( 'NONE', #355, 0.5000000000000004441 ) ;
#121 = AXIS2_PLACEMENT_3D ( 'NONE', #75, #68, #187 ) ;
#122 = AXIS2_PLACEMENT_3D ( 'NONE', #119, #176, #47 ) ;
#123 = PRODUCT_RELATED_PRODUCT_CATEGORY ( 'detail', '', ( #239 ) ) ;
#124 = AXIS2_PLACEMENT_3D ( 'NONE', #315, #259, #175 ) ;
#125 = EDGE_CURVE ( 'NONE', #208, #90, #82, .T. ) ;
#126 = FACE_OUTER_BOUND ( 'NONE', #12, .T. ) ;
#127 = VERTEX_POINT ( 'NONE', #133 ) ;
#128 = DIRECTION ( 'NONE',  ( 0.000000000000000000, 0.000000000000000000, 1.000000000000000000 ) ) ;
#129 = EDGE_LOOP ( 'NONE', ( #289, #266, #157, #132 ) ) ;
#130 = DIRECTION ( 'NONE',  ( -0.000000000000000000, -0.000000000000000000, -1.000000000000000000 ) ) ;
#131 = DIRECTION ( 'NONE',  ( 1.000000000000000000, 0.000000000000000000, 0.000000000000000000 ) ) ;
#132 = ORIENTED_EDGE ( 'NONE', *, *, #89, .F. ) ;
#133 = CARTESIAN_POINT ( 'NONE',  ( -2.500000000000000000, 0.000000000000000000, 180.0000000000000000 ) ) ;
#134 = UNCERTAINTY_MEASURE_WITH_UNIT (LENGTH_MEASURE( 1.000000000000000082E-05 ), #272, 'distance_accuracy_value', 'NONE');
#135 = CARTESIAN_POINT ( 'NONE',  ( 0.000000000000000000, 0.000000000000000000, 5.500000000000005329 ) ) ;
#136 = AXIS2_PLACEMENT_3D ( 'NONE', #338, #49, #378 ) ;
#137 = EDGE_CURVE ( 'NONE', #83, #33, #227, .T. ) ;
#138 = CARTESIAN_POINT ( 'NONE',  ( -7.000000000000000000, 0.000000000000000000, 5.000000000000000000 ) ) ;
#139 = EDGE_LOOP ( 'NONE', ( #339, #53 ) ) ;
#140 = PERSON ( 'NEURÈENÝ', 'NEURÈENÝ', 'NEURÈENÝ', ('NEURÈENÝ'), ('NEURÈENÝ'), ('NEURÈENÝ') ) ;
#141 = CALENDAR_DATE ( 2022, 10, 7 ) ;
#142 = FACE_OUTER_BOUND ( 'NONE', #241, .T. ) ;
#143 = AXIS2_PLACEMENT_3D ( 'NONE', #249, #368, #76 ) ;
#144 = PERSON_AND_ORGANIZATION ( #140, #150 ) ;
#145 = CC_DESIGN_APPROVAL ( #166, ( #254 ) ) ;
#146 = DIRECTION ( 'NONE',  ( 1.000000000000000000, 0.000000000000000000, 0.000000000000000000 ) ) ;
#147 = CARTESIAN_POINT ( 'NONE',  ( 4.000000000000000000, 4.898587196589412829E-16, 5.500000000000005329 ) ) ;
#148 = DIRECTION ( 'NONE',  ( 1.000000000000000000, 0.000000000000000000, -0.000000000000000000 ) ) ;
#149 = EDGE_CURVE ( 'NONE', #316, #179, #161, .T. ) ;
#150 = ORGANIZATION ( 'NEURÈENÝ', 'NEURÈENÝ', '' ) ;
#151 = VERTEX_POINT ( 'NONE', #256 ) ;
#152 = ORIENTED_EDGE ( 'NONE', *, *, #283, .F. ) ;
#153 = AXIS2_PLACEMENT_3D ( 'NONE', #305, #196, #45 ) ;
#154 = CIRCLE ( 'NONE', #136, 2.500000000000000000 ) ;
#155 = EDGE_CURVE ( 'NONE', #208, #353, #258, .T. ) ;
#156 = FACE_BOUND ( 'NONE', #292, .T. ) ;
#157 = ORIENTED_EDGE ( 'NONE', *, *, #293, .F. ) ;
#158 = DIRECTION ( 'NONE',  ( 1.000000000000000000, 0.000000000000000000, 0.000000000000000000 ) ) ;
#159 = PERSON_AND_ORGANIZATION_ROLE ( 'design_owner' ) ;
#160 = CARTESIAN_POINT ( 'NONE',  ( -2.500000000000000000, 0.000000000000000000, 180.0000000000000000 ) ) ;
#161 = CIRCLE ( 'NONE', #322, 2.500000000000000000 ) ;
#162 = DIRECTION ( 'NONE',  ( 0.000000000000000000, 0.000000000000000000, 1.000000000000000000 ) ) ;
#163 = CARTESIAN_POINT ( 'NONE',  ( 0.000000000000000000, 0.000000000000000000, 180.0000000000000000 ) ) ;
#164 = COORDINATED_UNIVERSAL_TIME_OFFSET ( 1, 0, .AHEAD. ) ;
#165 = DIRECTION ( 'NONE',  ( 0.000000000000000000, 0.000000000000000000, -1.000000000000000000 ) ) ;
#166 = APPROVAL ( #337, 'NEURÈENÝ' ) ;
#167 = APPROVAL_STATUS ( 'not_yet_approved' ) ;
#168 = CIRCLE ( 'NONE', #314, 7.000000000000000000 ) ;
#169 = LOCAL_TIME ( 11, 9, 23.00000000000000000, #197 ) ;
#170 = DIRECTION ( 'NONE',  ( -1.000000000000000000, 1.224646799147351482E-16, 0.000000000000000000 ) ) ;
#171 = DIRECTION ( 'NONE',  ( -0.000000000000000000, -0.000000000000000000, -1.000000000000000000 ) ) ;
#172 = SHAPE_DEFINITION_REPRESENTATION ( #101, #287 ) ;
#173 = PLANE ( 'NONE',  #124 ) ;
#174 = APPROVAL_ROLE ( '' ) ;
#175 = DIRECTION ( 'NONE',  ( 1.000000000000000000, 0.000000000000000000, -0.000000000000000000 ) ) ;
#176 = DIRECTION ( 'NONE',  ( -0.000000000000000000, -0.000000000000000000, -1.000000000000000000 ) ) ;
#177 = CYLINDRICAL_SURFACE ( 'NONE', #88, 7.000000000000000000 ) ;
#178 = EDGE_CURVE ( 'NONE', #83, #4, #202, .T. ) ;
#179 = VERTEX_POINT ( 'NONE', #116 ) ;
#180 = AXIS2_PLACEMENT_3D ( 'NONE', #359, #37, #170 ) ;
#181 = DIRECTION ( 'NONE',  ( -1.000000000000000000, 0.000000000000000000, 0.000000000000000000 ) ) ;
#182 = VECTOR ( 'NONE', #331, 1000.000000000000000 ) ;
#183 = VERTEX_POINT ( 'NONE', #147 ) ;
#184 = PRODUCT_DEFINITION_FORMATION_WITH_SPECIFIED_SOURCE ( 'LIBOVOLNÝ', '', #239, .NOT_KNOWN. ) ;
#185 = EDGE_LOOP ( 'NONE', ( #31, #209, #347, #319 ) ) ;
#186 = CC_DESIGN_PERSON_AND_ORGANIZATION_ASSIGNMENT ( #369, #304, ( #254 ) ) ;
#187 = DIRECTION ( 'NONE',  ( 1.000000000000000000, 0.000000000000000000, 0.000000000000000000 ) ) ;
#188 = LOCAL_TIME ( 11, 9, 23.00000000000000000, #103 ) ;
#189 = PLANE ( 'NONE',  #323 ) ;
#190 = EDGE_CURVE ( 'NONE', #179, #316, #350, .T. ) ;
#191 = DIRECTION ( 'NONE',  ( -0.000000000000000000, -0.000000000000000000, -1.000000000000000000 ) ) ;
#192 = LINE ( 'NONE', #269, #20 ) ;
#193 = PERSON_AND_ORGANIZATION ( #140, #150 ) ;
#194 = CYLINDRICAL_SURFACE ( 'NONE', #236, 2.500000000000000000 ) ;
#195 = APPROVAL_PERSON_ORGANIZATION ( #11, #166, #333 ) ;
#196 = DIRECTION ( 'NONE',  ( 0.000000000000000000, 0.000000000000000000, 1.000000000000000000 ) ) ;
#197 = COORDINATED_UNIVERSAL_TIME_OFFSET ( 1, 0, .AHEAD. ) ;
#198 = ADVANCED_FACE ( 'NONE', ( #142 ), #233, .F. ) ;
#199 = CARTESIAN_POINT ( 'NONE',  ( -7.000000000000000000, 0.000000000000000000, 0.000000000000000000 ) ) ;
#200 = COORDINATED_UNIVERSAL_TIME_OFFSET ( 1, 0, .AHEAD. ) ;
#201 = ADVANCED_FACE ( 'NONE', ( #29, #204 ), #19, .T. ) ;
#202 = LINE ( 'NONE', #375, #371 ) ;
#203 = ORIENTED_EDGE ( 'NONE', *, *, #207, .T. ) ;
#204 = FACE_OUTER_BOUND ( 'NONE', #6, .T. ) ;
#205 = ADVANCED_FACE ( 'NONE', ( #370, #279 ), #173, .T. ) ;
#206 = DIRECTION ( 'NONE',  ( -1.000000000000000000, 0.000000000000000000, 0.000000000000000000 ) ) ;
#207 = EDGE_CURVE ( 'NONE', #234, #353, #1, .T. ) ;
#208 = VERTEX_POINT ( 'NONE', #54 ) ;
#209 = ORIENTED_EDGE ( 'NONE', *, *, #280, .T. ) ;
#210 = ORIENTED_EDGE ( 'NONE', *, *, #98, .T. ) ;
#211 = CARTESIAN_POINT ( 'NONE',  ( 0.000000000000000000, 0.000000000000000000, 5.000000000000000000 ) ) ;
#212 = ORIENTED_EDGE ( 'NONE', *, *, #280, .F. ) ;
#213 = FACE_OUTER_BOUND ( 'NONE', #216, .T. ) ;
#214 = ORIENTED_EDGE ( 'NONE', *, *, #137, .F. ) ;
#215 = AXIS2_PLACEMENT_3D ( 'NONE', #65, #360, #70 ) ;
#216 = EDGE_LOOP ( 'NONE', ( #294, #152 ) ) ;
#217 = APPROVAL ( #167, 'NEURÈENÝ' ) ;
#218 = CYLINDRICAL_SURFACE ( 'NONE', #299, 7.000000000000000000 ) ;
#219 = CARTESIAN_POINT ( 'NONE',  ( -7.000000000000000000, 0.000000000000000000, 5.000000000000000000 ) ) ;
#220 = CARTESIAN_POINT ( 'NONE',  ( -4.500000000000000888, 5.510910596163088569E-16, 5.000000000000002665 ) ) ;
#221 = DIRECTION ( 'NONE',  ( 0.000000000000000000, 0.000000000000000000, 1.000000000000000000 ) ) ;
#222 = CIRCLE ( 'NONE', #365, 4.000000000000000000 ) ;
#223 = PERSON_AND_ORGANIZATION ( #140, #150 ) ;
#224 = VERTEX_POINT ( 'NONE', #25 ) ;
#225 = CYLINDRICAL_SURFACE ( 'NONE', #328, 4.000000000000000000 ) ;
#226 = DIRECTION ( 'NONE',  ( 0.000000000000000000, 0.000000000000000000, 1.000000000000000000 ) ) ;
#227 = CIRCLE ( 'NONE', #87, 4.000000000000000000 ) ;
#228 = PERSON_AND_ORGANIZATION_ROLE ( 'creator' ) ;
#229 = CIRCLE ( 'NONE', #237, 4.500000000000000888 ) ;
#230 = CARTESIAN_POINT ( 'NONE',  ( 0.000000000000000000, 0.000000000000000000, 0.000000000000000000 ) ) ;
#231 = ORIENTED_EDGE ( 'NONE', *, *, #62, .F. ) ;
#232 = EDGE_CURVE ( 'NONE', #127, #224, #154, .T. ) ;
#233 = CYLINDRICAL_SURFACE ( 'NONE', #330, 2.500000000000000000 ) ;
#234 = VERTEX_POINT ( 'NONE', #199 ) ;
#235 = ORIENTED_EDGE ( 'NONE', *, *, #18, .T. ) ;
#236 = AXIS2_PLACEMENT_3D ( 'NONE', #163, #276, #41 ) ;
#237 = AXIS2_PLACEMENT_3D ( 'NONE', #326, #3, #102 ) ;
#238 = EDGE_LOOP ( 'NONE', ( #231, #243, #381, #380 ) ) ;
#239 = PRODUCT ( 'd2bc', 'd2bc', '', ( #267 ) ) ;
#240 = DIRECTION ( 'NONE',  ( -0.000000000000000000, -0.000000000000000000, -1.000000000000000000 ) ) ;
#241 = EDGE_LOOP ( 'NONE', ( #351, #364, #96, #58 ) ) ;
#242 = ADVANCED_FACE ( 'NONE', ( #126 ), #55, .T. ) ;
#243 = ORIENTED_EDGE ( 'NONE', *, *, #46, .F. ) ;
#244 = CC_DESIGN_APPROVAL ( #341, ( #184 ) ) ;
#245 = DIRECTION ( 'NONE',  ( 0.000000000000000000, 0.000000000000000000, 1.000000000000000000 ) ) ;
#246 = CARTESIAN_POINT ( 'NONE',  ( 4.000000000000000000, 4.898587196589412829E-16, 180.0000000000000000 ) ) ;
#247 = CARTESIAN_POINT ( 'NONE',  ( 7.000000000000000000, 8.572527594031473190E-16, 0.000000000000000000 ) ) ;
#248 = CARTESIAN_POINT ( 'NONE',  ( -4.000000000000000000, 0.000000000000000000, 180.0000000000000000 ) ) ;
#249 = CARTESIAN_POINT ( 'NONE',  ( 0.000000000000000000, 0.000000000000000000, 5.000000000000000000 ) ) ;
#250 = LINE ( 'NONE', #160, #182 ) ;
#251 = CIRCLE ( 'NONE', #143, 4.500000000000000888 ) ;
#252 = DIRECTION ( 'NONE',  ( -1.000000000000000000, 0.000000000000000000, 0.000000000000000000 ) ) ;
#253 = APPLICATION_CONTEXT ( 'configuration controlled 3d designs of mechanical parts and assemblies' ) ;
#254 = PRODUCT_DEFINITION ( 'NEZNÁMÝ', '', #184, #105 ) ;
#255 = AXIS2_PLACEMENT_3D ( 'NONE', #84, #240, #206 ) ;
#256 = CARTESIAN_POINT ( 'NONE',  ( 4.500000000000000888, 0.000000000000000000, 5.000000000000002665 ) ) ;
#257 = CALENDAR_DATE ( 2022, 10, 7 ) ;
#258 = LINE ( 'NONE', #284, #297 ) ;
#259 = DIRECTION ( 'NONE',  ( 0.000000000000000000, 0.000000000000000000, 1.000000000000000000 ) ) ;
#260 = ADVANCED_FACE ( 'NONE', ( #317 ), #177, .T. ) ;
#261 = ORIENTED_EDGE ( 'NONE', *, *, #149, .F. ) ;
#262 = EDGE_CURVE ( 'NONE', #33, #83, #222, .T. ) ;
#263 = VERTEX_POINT ( 'NONE', #220 ) ;
#264 = EDGE_LOOP ( 'NONE', ( #210, #117 ) ) ;
#265 = CARTESIAN_POINT ( 'NONE',  ( 0.000000000000000000, 0.000000000000000000, 0.000000000000000000 ) ) ;
#266 = ORIENTED_EDGE ( 'NONE', *, *, #62, .T. ) ;
#267 = MECHANICAL_CONTEXT ( 'NONE', #342, 'mechanical' ) ;
#268 = APPLICATION_PROTOCOL_DEFINITION ( 'international standard', 'config_control_design', 1994, #253 ) ;
#269 = CARTESIAN_POINT ( 'NONE',  ( 2.500000000000000000, 3.061616997868382648E-16, 180.0000000000000000 ) ) ;
#270 =( NAMED_UNIT ( * ) SI_UNIT ( $, .STERADIAN. ) SOLID_ANGLE_UNIT ( ) );
#271 = FACE_OUTER_BOUND ( 'NONE', #129, .T. ) ;
#272 =( LENGTH_UNIT ( ) NAMED_UNIT ( * ) SI_UNIT ( .MILLI., .METRE. ) );
#273 = CALENDAR_DATE ( 2022, 10, 7 ) ;
#274 = DIRECTION ( 'NONE',  ( 1.000000000000000000, 0.000000000000000000, 0.000000000000000000 ) ) ;
#275 = APPROVAL_ROLE ( '' ) ;
#276 = DIRECTION ( 'NONE',  ( 0.000000000000000000, 0.000000000000000000, -1.000000000000000000 ) ) ;
#277 = PERSON_AND_ORGANIZATION ( #140, #150 ) ;
#278 = DIRECTION ( 'NONE',  ( -1.000000000000000000, 0.000000000000000000, 0.000000000000000000 ) ) ;
#279 = FACE_OUTER_BOUND ( 'NONE', #264, .T. ) ;
#280 = EDGE_CURVE ( 'NONE', #33, #183, #358, .T. ) ;
#281 = EDGE_LOOP ( 'NONE', ( #324, #376, #313, #367 ) ) ;
#282 = DATE_AND_TIME ( #257, #23 ) ;
#283 = EDGE_CURVE ( 'NONE', #353, #234, #168, .T. ) ;
#284 = CARTESIAN_POINT ( 'NONE',  ( 7.000000000000000000, 8.572527594031473190E-16, 5.000000000000000000 ) ) ;
#285 = DIRECTION ( 'NONE',  ( 0.000000000000000000, 0.000000000000000000, -1.000000000000000000 ) ) ;
#286 = VECTOR ( 'NONE', #191, 1000.000000000000000 ) ;
#287 = ADVANCED_BREP_SHAPE_REPRESENTATION ( 'd2bc', ( #118, #215 ), #356 ) ;
#288 = ORIENTED_EDGE ( 'NONE', *, *, #293, .T. ) ;
#289 = ORIENTED_EDGE ( 'NONE', *, *, #357, .F. ) ;
#290 = CIRCLE ( 'NONE', #180, 0.5000000000000004441 ) ;
#291 = DIRECTION ( 'NONE',  ( 1.000000000000000000, 0.000000000000000000, 0.000000000000000000 ) ) ;
#292 = EDGE_LOOP ( 'NONE', ( #261, #50 ) ) ;
#293 = EDGE_CURVE ( 'NONE', #151, #263, #229, .T. ) ;
#294 = ORIENTED_EDGE ( 'NONE', *, *, #207, .F. ) ;
#295 = ORIENTED_EDGE ( 'NONE', *, *, #178, .T. ) ;
#296 = CARTESIAN_POINT ( 'NONE',  ( 4.000000000000000000, 4.898587196589412829E-16, 180.0000000000000000 ) ) ;
#297 = VECTOR ( 'NONE', #21, 1000.000000000000000 ) ;
#298 = DIRECTION ( 'NONE',  ( 0.000000000000000000, 0.000000000000000000, -1.000000000000000000 ) ) ;
#299 = AXIS2_PLACEMENT_3D ( 'NONE', #211, #130, #181 ) ;
#300 = CARTESIAN_POINT ( 'NONE',  ( 0.000000000000000000, 0.000000000000000000, 0.000000000000000000 ) ) ;
#301 = FACE_OUTER_BOUND ( 'NONE', #185, .T. ) ;
#302 = APPROVAL_STATUS ( 'not_yet_approved' ) ;
#303 = CARTESIAN_POINT ( 'NONE',  ( 0.000000000000000000, 0.000000000000000000, 180.0000000000000000 ) ) ;
#304 = PERSON_AND_ORGANIZATION_ROLE ( 'creator' ) ;
#305 = CARTESIAN_POINT ( 'NONE',  ( 0.000000000000000000, 0.000000000000000000, 5.500000000000005329 ) ) ;
#306 = CIRCLE ( 'NONE', #344, 4.000000000000000000 ) ;
#307 = CC_DESIGN_PERSON_AND_ORGANIZATION_ASSIGNMENT ( #193, #228, ( #184 ) ) ;
#308 = DIRECTION ( 'NONE',  ( 1.000000000000000000, 0.000000000000000000, 0.000000000000000000 ) ) ;
#309 = DATE_AND_TIME ( #340, #188 ) ;
#310 = DIRECTION ( 'NONE',  ( -0.000000000000000000, -0.000000000000000000, -1.000000000000000000 ) ) ;
#311 = CIRCLE ( 'NONE', #348, 2.500000000000000000 ) ;
#312 = DIRECTION ( 'NONE',  ( -0.000000000000000000, -0.000000000000000000, -1.000000000000000000 ) ) ;
#313 = ORIENTED_EDGE ( 'NONE', *, *, #190, .T. ) ;
#314 = AXIS2_PLACEMENT_3D ( 'NONE', #300, #245, #131 ) ;
#315 = CARTESIAN_POINT ( 'NONE',  ( 0.000000000000000000, 0.000000000000000000, 5.000000000000000000 ) ) ;
#316 = VERTEX_POINT ( 'NONE', #59 ) ;
#317 = FACE_OUTER_BOUND ( 'NONE', #93, .T. ) ;
#318 = LOCAL_TIME ( 11, 9, 23.00000000000000000, #77 ) ;
#319 = ORIENTED_EDGE ( 'NONE', *, *, #178, .F. ) ;
#320 = CARTESIAN_POINT ( 'NONE',  ( 0.000000000000000000, 0.000000000000000000, 180.0000000000000000 ) ) ;
#321 = AXIS2_PLACEMENT_3D ( 'NONE', #79, #377, #148 ) ;
#322 = AXIS2_PLACEMENT_3D ( 'NONE', #230, #310, #308 ) ;
#323 = AXIS2_PLACEMENT_3D ( 'NONE', #265, #38, #67 ) ;
#324 = ORIENTED_EDGE ( 'NONE', *, *, #232, .T. ) ;
#325 = FACE_OUTER_BOUND ( 'NONE', #64, .T. ) ;
#326 = CARTESIAN_POINT ( 'NONE',  ( 0.000000000000000000, 0.000000000000000000, 5.000000000000000000 ) ) ;
#327 = DIRECTION ( 'NONE',  ( 0.000000000000000000, 0.000000000000000000, 1.000000000000000000 ) ) ;
#328 = AXIS2_PLACEMENT_3D ( 'NONE', #14, #107, #73 ) ;
#329 = CC_DESIGN_DATE_AND_TIME_ASSIGNMENT ( #366, #374, ( #106 ) ) ;
#330 = AXIS2_PLACEMENT_3D ( 'NONE', #51, #285, #252 ) ;
#331 = DIRECTION ( 'NONE',  ( 0.000000000000000000, 0.000000000000000000, -1.000000000000000000 ) ) ;
#332 = DIRECTION ( 'NONE',  ( 1.000000000000000000, 0.000000000000000000, 0.000000000000000000 ) ) ;
#333 = APPROVAL_ROLE ( '' ) ;
#334 = DIRECTION ( 'NONE',  ( 0.000000000000000000, -1.000000000000000000, 0.000000000000000000 ) ) ;
#335 = CARTESIAN_POINT ( 'NONE',  ( 0.000000000000000000, 0.000000000000000000, 180.0000000000000000 ) ) ;
#336 = AXIS2_PLACEMENT_3D ( 'NONE', #354, #363, #32 ) ;
#337 = APPROVAL_STATUS ( 'not_yet_approved' ) ;
#338 = CARTESIAN_POINT ( 'NONE',  ( 0.000000000000000000, 0.000000000000000000, 180.0000000000000000 ) ) ;
#339 = ORIENTED_EDGE ( 'NONE', *, *, #232, .F. ) ;
#340 = CALENDAR_DATE ( 2022, 10, 7 ) ;
#341 = APPROVAL ( #302, 'NEURÈENÝ' ) ;
#342 = APPLICATION_CONTEXT ( 'configuration controlled 3d designs of mechanical parts and assemblies' ) ;
#343 = CARTESIAN_POINT ( 'NONE',  ( 0.000000000000000000, 0.000000000000000000, 0.000000000000000000 ) ) ;
#344 = AXIS2_PLACEMENT_3D ( 'NONE', #7, #128, #158 ) ;
#345 = ADVANCED_FACE ( 'NONE', ( #40 ), #9, .F. ) ;
#346 = ADVANCED_FACE ( 'NONE', ( #156, #213 ), #189, .F. ) ;
#347 = ORIENTED_EDGE ( 'NONE', *, *, #46, .T. ) ;
#348 = AXIS2_PLACEMENT_3D ( 'NONE', #303, #327, #332 ) ;
#349 = ORIENTED_EDGE ( 'NONE', *, *, #137, .T. ) ;
#350 = CIRCLE ( 'NONE', #122, 2.500000000000000000 ) ;
#351 = ORIENTED_EDGE ( 'NONE', *, *, #109, .F. ) ;
#352 = CARTESIAN_POINT ( 'NONE',  ( 0.000000000000000000, 0.000000000000000000, 5.000000000000000000 ) ) ;
#353 = VERTEX_POINT ( 'NONE', #247 ) ;
#354 = CARTESIAN_POINT ( 'NONE',  ( 0.000000000000000000, 0.000000000000000000, 5.500000000000005329 ) ) ;
#355 = AXIS2_PLACEMENT_3D ( 'NONE', #99, #334, #165 ) ;
#356 =( GEOMETRIC_REPRESENTATION_CONTEXT ( 3 ) GLOBAL_UNCERTAINTY_ASSIGNED_CONTEXT ( ( #134 ) ) GLOBAL_UNIT_ASSIGNED_CONTEXT ( ( #272, #94, #270 ) ) REPRESENTATION_CONTEXT ( 'NONE', 'WORKASPACE' ) );
#357 = EDGE_CURVE ( 'NONE', #4, #183, #306, .T. ) ;
#358 = LINE ( 'NONE', #296, #71 ) ;
#359 = CARTESIAN_POINT ( 'NONE',  ( -4.500000000000000888, 5.510910596163089556E-16, 5.500000000000005329 ) ) ;
#360 = DIRECTION ( 'NONE',  ( 0.000000000000000000, 0.000000000000000000, 1.000000000000000000 ) ) ;
#361 = ORIENTED_EDGE ( 'NONE', *, *, #100, .F. ) ;
#362 = AXIS2_PLACEMENT_3D ( 'NONE', #135, #221, #110 ) ;
#363 = DIRECTION ( 'NONE',  ( 0.000000000000000000, 0.000000000000000000, 1.000000000000000000 ) ) ;
#364 = ORIENTED_EDGE ( 'NONE', *, *, #22, .T. ) ;
#365 = AXIS2_PLACEMENT_3D ( 'NONE', #320, #162, #291 ) ;
#366 = DATE_AND_TIME ( #273, #318 ) ;
#367 = ORIENTED_EDGE ( 'NONE', *, *, #92, .F. ) ;
#368 = DIRECTION ( 'NONE',  ( -0.000000000000000000, -0.000000000000000000, -1.000000000000000000 ) ) ;
#369 = PERSON_AND_ORGANIZATION ( #140, #150 ) ;
#370 = FACE_BOUND ( 'NONE', #85, .T. ) ;
#371 = VECTOR ( 'NONE', #312, 1000.000000000000000 ) ;
#372 = ADVANCED_FACE ( 'NONE', ( #325 ), #218, .T. ) ;
#373 = ORIENTED_EDGE ( 'NONE', *, *, #262, .T. ) ;
#374 = DATE_TIME_ROLE ( 'classification_date' ) ;
#375 = CARTESIAN_POINT ( 'NONE',  ( -4.000000000000000000, 0.000000000000000000, 180.0000000000000000 ) ) ;
#376 = ORIENTED_EDGE ( 'NONE', *, *, #109, .T. ) ;
#377 = DIRECTION ( 'NONE',  ( 0.000000000000000000, 0.000000000000000000, 1.000000000000000000 ) ) ;
#378 = DIRECTION ( 'NONE',  ( 1.000000000000000000, 0.000000000000000000, 0.000000000000000000 ) ) ;
#379 = CC_DESIGN_SECURITY_CLASSIFICATION ( #106, ( #184 ) ) ;
#380 = ORIENTED_EDGE ( 'NONE', *, *, #18, .F. ) ;
#381 = ORIENTED_EDGE ( 'NONE', *, *, #89, .T. ) ;
ENDSEC;
END-ISO-10303-21;
