ISO-10303-21;
HEADER;
FILE_DESCRIPTION (( 'STEP AP203' ),
    '1' );
FILE_NAME ('e824.STEP',
    '2022-07-10T09:11:17',
    ( '' ),
    ( '' ),
    'SwSTEP 2.0',
    'SolidWorks 2019',
    '' );
FILE_SCHEMA (( 'CONFIG_CONTROL_DESIGN' ));
ENDSEC;

DATA;
#1 = CARTESIAN_POINT ( 'NONE',  ( 0.000000000000000000, 0.000000000000000000, 155.0000000000000000 ) ) ;
#2 = DIRECTION ( 'NONE',  ( -0.000000000000000000, -0.000000000000000000, -1.000000000000000000 ) ) ;
#3 = PERSON ( 'NEURÈENÝ', 'NEURÈENÝ', 'NEURÈENÝ', ('NEURÈENÝ'), ('NEURÈENÝ'), ('NEURÈENÝ') ) ;
#4 = APPROVAL_DATE_TIME ( #47, #101 ) ;
#5 = APPROVAL_PERSON_ORGANIZATION ( #182, #101, #334 ) ;
#6 = SECURITY_CLASSIFICATION ( '', '', #237 ) ;
#7 = CC_DESIGN_PERSON_AND_ORGANIZATION_ASSIGNMENT ( #153, #119, ( #80 ) ) ;
#8 = PERSON_AND_ORGANIZATION_ROLE ( 'classification_officer' ) ;
#9 = DIRECTION ( 'NONE',  ( 1.000000000000000000, 0.000000000000000000, 0.000000000000000000 ) ) ;
#10 = PLANE ( 'NONE',  #243 ) ;
#11 = CARTESIAN_POINT ( 'NONE',  ( 0.000000000000000000, 0.000000000000000000, 0.000000000000000000 ) ) ;
#12 = CARTESIAN_POINT ( 'NONE',  ( 4.000000000000000000, 4.898587196589412829E-16, 155.0000000000000000 ) ) ;
#13 = APPROVAL ( #207, 'NEURÈENÝ' ) ;
#14 = FACE_OUTER_BOUND ( 'NONE', #194, .T. ) ;
#15 = CARTESIAN_POINT ( 'NONE',  ( 0.000000000000000000, 0.000000000000000000, 155.0000000000000000 ) ) ;
#16 = TOROIDAL_SURFACE ( 'NONE', #258, 4.500000000000000888, 0.5000000000000000000 ) ;
#17 = VERTEX_POINT ( 'NONE', #257 ) ;
#18 = FACE_BOUND ( 'NONE', #91, .T. ) ;
#19 = DIRECTION ( 'NONE',  ( -0.000000000000000000, -0.000000000000000000, -1.000000000000000000 ) ) ;
#20 = ORIENTED_EDGE ( 'NONE', *, *, #53, .F. ) ;
#21 = APPLICATION_CONTEXT ( 'configuration controlled 3d designs of mechanical parts and assemblies' ) ;
#22 = DIRECTION ( 'NONE',  ( -0.000000000000000000, -0.000000000000000000, -1.000000000000000000 ) ) ;
#23 = DIRECTION ( 'NONE',  ( -0.000000000000000000, -0.000000000000000000, -1.000000000000000000 ) ) ;
#24 = DIRECTION ( 'NONE',  ( -0.000000000000000000, -0.000000000000000000, -1.000000000000000000 ) ) ;
#25 = CIRCLE ( 'NONE', #125, 4.000000000000000000 ) ;
#26 = ORIENTED_EDGE ( 'NONE', *, *, #272, .T. ) ;
#27 = DIRECTION ( 'NONE',  ( 0.000000000000000000, 0.000000000000000000, 1.000000000000000000 ) ) ;
#28 = EDGE_LOOP ( 'NONE', ( #320, #342, #131, #372 ) ) ;
#29 = ADVANCED_FACE ( 'NONE', ( #83 ), #103, .T. ) ;
#30 = CARTESIAN_POINT ( 'NONE',  ( 0.000000000000000000, 0.000000000000000000, 0.000000000000000000 ) ) ;
#31 = CIRCLE ( 'NONE', #365, 7.000000000000000000 ) ;
#32 = CARTESIAN_POINT ( 'NONE',  ( 0.000000000000000000, 0.000000000000000000, 0.000000000000000000 ) ) ;
#33 = CIRCLE ( 'NONE', #357, 0.5000000000000004441 ) ;
#34 = DIRECTION ( 'NONE',  ( 0.000000000000000000, 0.000000000000000000, -1.000000000000000000 ) ) ;
#35 = EDGE_LOOP ( 'NONE', ( #82, #116 ) ) ;
#36 = DATE_AND_TIME ( #205, #63 ) ;
#37 = PRODUCT_RELATED_PRODUCT_CATEGORY ( 'detail', '', ( #339 ) ) ;
#38 = ORIENTED_EDGE ( 'NONE', *, *, #64, .T. ) ;
#39 = DIRECTION ( 'NONE',  ( 1.000000000000000000, 0.000000000000000000, 0.000000000000000000 ) ) ;
#40 = CARTESIAN_POINT ( 'NONE',  ( -4.000000000000000000, 0.000000000000000000, 155.0000000000000000 ) ) ;
#41 = APPROVAL_STATUS ( 'not_yet_approved' ) ;
#42 = FACE_BOUND ( 'NONE', #204, .T. ) ;
#43 = CARTESIAN_POINT ( 'NONE',  ( 4.000000000000000000, 4.898587196589412829E-16, 5.500000000000005329 ) ) ;
#44 = CC_DESIGN_DATE_AND_TIME_ASSIGNMENT ( #36, #72, ( #80 ) ) ;
#45 = EDGE_LOOP ( 'NONE', ( #186, #337, #310, #88 ) ) ;
#46 = CARTESIAN_POINT ( 'NONE',  ( 7.000000000000000000, 8.572527594031473190E-16, 5.000000000000000000 ) ) ;
#47 = DATE_AND_TIME ( #358, #215 ) ;
#48 = AXIS2_PLACEMENT_3D ( 'NONE', #298, #308, #151 ) ;
#49 = LOCAL_TIME ( 11, 11, 17.00000000000000000, #122 ) ;
#50 = VERTEX_POINT ( 'NONE', #286 ) ;
#51 = ORIENTED_EDGE ( 'NONE', *, *, #64, .F. ) ;
#52 = CARTESIAN_POINT ( 'NONE',  ( -7.000000000000000000, 0.000000000000000000, 0.000000000000000000 ) ) ;
#53 = EDGE_CURVE ( 'NONE', #248, #107, #168, .T. ) ;
#54 = DIRECTION ( 'NONE',  ( 1.000000000000000000, 0.000000000000000000, 0.000000000000000000 ) ) ;
#55 = VERTEX_POINT ( 'NONE', #52 ) ;
#56 = CARTESIAN_POINT ( 'NONE',  ( -4.500000000000000888, 5.510910596163089556E-16, 5.500000000000005329 ) ) ;
#57 = EDGE_LOOP ( 'NONE', ( #313, #317 ) ) ;
#58 = DATE_AND_TIME ( #77, #279 ) ;
#59 = FACE_OUTER_BOUND ( 'NONE', #281, .T. ) ;
#60 = VERTEX_POINT ( 'NONE', #161 ) ;
#61 = MANIFOLD_SOLID_BREP ( 'Odebrat vysunutím3', #65 ) ;
#62 = DIRECTION ( 'NONE',  ( 1.000000000000000000, 0.000000000000000000, 0.000000000000000000 ) ) ;
#63 = LOCAL_TIME ( 11, 11, 17.00000000000000000, #183 ) ;
#64 = EDGE_CURVE ( 'NONE', #17, #55, #191, .T. ) ;
#65 = CLOSED_SHELL ( 'NONE', ( #199, #329, #351, #29, #218, #380, #250, #167, #86, #302, #195 ) ) ;
#66 = CIRCLE ( 'NONE', #370, 2.250000000000000000 ) ;
#67 = AXIS2_PLACEMENT_3D ( 'NONE', #265, #2, #356 ) ;
#68 = APPROVAL_PERSON_ORGANIZATION ( #304, #13, #331 ) ;
#69 = DIRECTION ( 'NONE',  ( 1.000000000000000000, 0.000000000000000000, 0.000000000000000000 ) ) ;
#70 = CC_DESIGN_PERSON_AND_ORGANIZATION_ASSIGNMENT ( #149, #8, ( #6 ) ) ;
#71 = CARTESIAN_POINT ( 'NONE',  ( 0.000000000000000000, 0.000000000000000000, 5.000000000000000000 ) ) ;
#72 = DATE_TIME_ROLE ( 'creation_date' ) ;
#73 = COORDINATED_UNIVERSAL_TIME_OFFSET ( 1, 0, .AHEAD. ) ;
#74 = AXIS2_PLACEMENT_3D ( 'NONE', #288, #27, #133 ) ;
#75 = APPLICATION_PROTOCOL_DEFINITION ( 'international standard', 'config_control_design', 1994, #21 ) ;
#76 = ORIENTED_EDGE ( 'NONE', *, *, #312, .F. ) ;
#77 = CALENDAR_DATE ( 2022, 10, 7 ) ;
#78 = CIRCLE ( 'NONE', #193, 7.000000000000000000 ) ;
#79 = VERTEX_POINT ( 'NONE', #315 ) ;
#80 = PRODUCT_DEFINITION ( 'NEZNÁMÝ', '', #197, #284 ) ;
#81 = DIRECTION ( 'NONE',  ( -1.000000000000000000, 0.000000000000000000, 0.000000000000000000 ) ) ;
#82 = ORIENTED_EDGE ( 'NONE', *, *, #343, .F. ) ;
#83 = FACE_OUTER_BOUND ( 'NONE', #328, .T. ) ;
#84 = ORIENTED_EDGE ( 'NONE', *, *, #227, .T. ) ;
#85 = CARTESIAN_POINT ( 'NONE',  ( 0.000000000000000000, 0.000000000000000000, 155.0000000000000000 ) ) ;
#86 = ADVANCED_FACE ( 'NONE', ( #253, #192 ), #163, .T. ) ;
#87 = AXIS2_PLACEMENT_3D ( 'NONE', #142, #323, #293 ) ;
#88 = ORIENTED_EDGE ( 'NONE', *, *, #172, .F. ) ;
#89 = CIRCLE ( 'NONE', #111, 0.5000000000000004441 ) ;
#90 = DIRECTION ( 'NONE',  ( 1.000000000000000000, 0.000000000000000000, 0.000000000000000000 ) ) ;
#91 = EDGE_LOOP ( 'NONE', ( #158, #252 ) ) ;
#92 = CARTESIAN_POINT ( 'NONE',  ( 0.000000000000000000, 0.000000000000000000, 5.500000000000005329 ) ) ;
#93 = CALENDAR_DATE ( 2022, 10, 7 ) ;
#94 = DIRECTION ( 'NONE',  ( 1.000000000000000000, 0.000000000000000000, 0.000000000000000000 ) ) ;
#95 = EDGE_CURVE ( 'NONE', #102, #145, #33, .T. ) ;
#96 = DIRECTION ( 'NONE',  ( 1.000000000000000000, 0.000000000000000000, 0.000000000000000000 ) ) ;
#97 = CIRCLE ( 'NONE', #87, 4.500000000000000888 ) ;
#98 = CARTESIAN_POINT ( 'NONE',  ( 0.000000000000000000, 0.000000000000000000, 0.000000000000000000 ) ) ;
#99 = VERTEX_POINT ( 'NONE', #223 ) ;
#100 = FACE_OUTER_BOUND ( 'NONE', #283, .T. ) ;
#101 = APPROVAL ( #41, 'NEURÈENÝ' ) ;
#102 = VERTEX_POINT ( 'NONE', #346 ) ;
#103 = CYLINDRICAL_SURFACE ( 'NONE', #311, 7.000000000000000000 ) ;
#104 = AXIS2_PLACEMENT_3D ( 'NONE', #309, #208, #305 ) ;
#105 = APPROVAL_PERSON_ORGANIZATION ( #278, #259, #150 ) ;
#106 = DIRECTION ( 'NONE',  ( 0.000000000000000000, 0.000000000000000000, 1.000000000000000000 ) ) ;
#107 = VERTEX_POINT ( 'NONE', #375 ) ;
#108 = EDGE_CURVE ( 'NONE', #341, #79, #225, .T. ) ;
#109 = DIRECTION ( 'NONE',  ( 1.000000000000000000, 0.000000000000000000, -0.000000000000000000 ) ) ;
#110 = DIRECTION ( 'NONE',  ( -0.000000000000000000, -0.000000000000000000, -1.000000000000000000 ) ) ;
#111 = AXIS2_PLACEMENT_3D ( 'NONE', #294, #117, #34 ) ;
#112 = CARTESIAN_POINT ( 'NONE',  ( 0.000000000000000000, 0.000000000000000000, 5.500000000000005329 ) ) ;
#113 = EDGE_CURVE ( 'NONE', #322, #345, #89, .T. ) ;
#114 = VECTOR ( 'NONE', #173, 1000.000000000000000 ) ;
#115 = DIRECTION ( 'NONE',  ( 0.000000000000000000, 0.000000000000000000, 1.000000000000000000 ) ) ;
#116 = ORIENTED_EDGE ( 'NONE', *, *, #336, .F. ) ;
#117 = DIRECTION ( 'NONE',  ( 0.000000000000000000, -1.000000000000000000, 0.000000000000000000 ) ) ;
#118 = ORIENTED_EDGE ( 'NONE', *, *, #236, .T. ) ;
#119 = PERSON_AND_ORGANIZATION_ROLE ( 'creator' ) ;
#120 = CC_DESIGN_APPROVAL ( #259, ( #197 ) ) ;
#121 = DIRECTION ( 'NONE',  ( -0.000000000000000000, -0.000000000000000000, -1.000000000000000000 ) ) ;
#122 = COORDINATED_UNIVERSAL_TIME_OFFSET ( 1, 0, .AHEAD. ) ;
#123 = DIRECTION ( 'NONE',  ( -0.000000000000000000, -0.000000000000000000, -1.000000000000000000 ) ) ;
#124 = PERSON_AND_ORGANIZATION_ROLE ( 'design_owner' ) ;
#125 = AXIS2_PLACEMENT_3D ( 'NONE', #112, #171, #169 ) ;
#126 = ORIENTED_EDGE ( 'NONE', *, *, #371, .F. ) ;
#127 = EDGE_CURVE ( 'NONE', #107, #248, #154, .T. ) ;
#128 = ORIENTED_EDGE ( 'NONE', *, *, #336, .T. ) ;
#129 = CIRCLE ( 'NONE', #74, 7.000000000000000000 ) ;
#130 = DIRECTION ( 'NONE',  ( -1.000000000000000000, 1.224646799147351482E-16, 0.000000000000000000 ) ) ;
#131 = ORIENTED_EDGE ( 'NONE', *, *, #256, .F. ) ;
#132 = ORIENTED_EDGE ( 'NONE', *, *, #272, .F. ) ;
#133 = DIRECTION ( 'NONE',  ( 1.000000000000000000, 0.000000000000000000, 0.000000000000000000 ) ) ;
#134 = DIRECTION ( 'NONE',  ( -1.000000000000000000, 0.000000000000000000, 0.000000000000000000 ) ) ;
#135 = VECTOR ( 'NONE', #24, 1000.000000000000000 ) ;
#136 = AXIS2_PLACEMENT_3D ( 'NONE', #373, #219, #297 ) ;
#137 = ORIENTED_EDGE ( 'NONE', *, *, #108, .F. ) ;
#138 = DIRECTION ( 'NONE',  ( -0.000000000000000000, -0.000000000000000000, -1.000000000000000000 ) ) ;
#139 = AXIS2_PLACEMENT_3D ( 'NONE', #71, #147, #378 ) ;
#140 = EDGE_CURVE ( 'NONE', #248, #322, #271, .T. ) ;
#141 = CARTESIAN_POINT ( 'NONE',  ( 0.000000000000000000, 0.000000000000000000, 155.0000000000000000 ) ) ;
#142 = CARTESIAN_POINT ( 'NONE',  ( 0.000000000000000000, 0.000000000000000000, 5.000000000000000000 ) ) ;
#143 = FACE_OUTER_BOUND ( 'NONE', #28, .T. ) ;
#144 = CARTESIAN_POINT ( 'NONE',  ( 0.000000000000000000, 0.000000000000000000, 155.0000000000000000 ) ) ;
#145 = VERTEX_POINT ( 'NONE', #239 ) ;
#146 = MECHANICAL_CONTEXT ( 'NONE', #21, 'mechanical' ) ;
#147 = DIRECTION ( 'NONE',  ( -0.000000000000000000, -0.000000000000000000, -1.000000000000000000 ) ) ;
#148 = AXIS2_PLACEMENT_3D ( 'NONE', #15, #245, #81 ) ;
#149 = PERSON_AND_ORGANIZATION ( #3, #326 ) ;
#150 = APPROVAL_ROLE ( '' ) ;
#151 = DIRECTION ( 'NONE',  ( 1.000000000000000000, 0.000000000000000000, -0.000000000000000000 ) ) ;
#152 = ORIENTED_EDGE ( 'NONE', *, *, #354, .F. ) ;
#153 = PERSON_AND_ORGANIZATION ( #3, #326 ) ;
#154 = CIRCLE ( 'NONE', #235, 4.000000000000000000 ) ;
#155 = ORIENTED_EDGE ( 'NONE', *, *, #376, .F. ) ;
#156 = CARTESIAN_POINT ( 'NONE',  ( 0.000000000000000000, 0.000000000000000000, 0.000000000000000000 ) ) ;
#157 = CARTESIAN_POINT ( 'NONE',  ( 0.000000000000000000, 0.000000000000000000, 155.0000000000000000 ) ) ;
#158 = ORIENTED_EDGE ( 'NONE', *, *, #256, .T. ) ;
#159 = DIRECTION ( 'NONE',  ( 1.000000000000000000, 0.000000000000000000, 0.000000000000000000 ) ) ;
#160 = APPROVAL_DATE_TIME ( #58, #13 ) ;
#161 = CARTESIAN_POINT ( 'NONE',  ( 7.000000000000000000, 8.572527594031473190E-16, 5.000000000000000000 ) ) ;
#162 = CC_DESIGN_DATE_AND_TIME_ASSIGNMENT ( #238, #273, ( #6 ) ) ;
#163 = PLANE ( 'NONE',  #175 ) ;
#164 = AXIS2_PLACEMENT_3D ( 'NONE', #156, #19, #9 ) ;
#165 = ORIENTED_EDGE ( 'NONE', *, *, #316, .F. ) ;
#166 = ORIENTED_EDGE ( 'NONE', *, *, #127, .F. ) ;
#167 = ADVANCED_FACE ( 'NONE', ( #14 ), #364, .T. ) ;
#168 = CIRCLE ( 'NONE', #325, 4.000000000000000000 ) ;
#169 = DIRECTION ( 'NONE',  ( 1.000000000000000000, 0.000000000000000000, 0.000000000000000000 ) ) ;
#170 = DIRECTION ( 'NONE',  ( 0.000000000000000000, 0.000000000000000000, 1.000000000000000000 ) ) ;
#171 = DIRECTION ( 'NONE',  ( 0.000000000000000000, 0.000000000000000000, 1.000000000000000000 ) ) ;
#172 = EDGE_CURVE ( 'NONE', #145, #345, #318, .T. ) ;
#173 = DIRECTION ( 'NONE',  ( 0.000000000000000000, 0.000000000000000000, -1.000000000000000000 ) ) ;
#174 = VERTEX_POINT ( 'NONE', #262 ) ;
#175 = AXIS2_PLACEMENT_3D ( 'NONE', #85, #106, #109 ) ;
#176 = APPROVAL_STATUS ( 'not_yet_approved' ) ;
#177 = PERSON_AND_ORGANIZATION ( #3, #326 ) ;
#178 = DIRECTION ( 'NONE',  ( 1.000000000000000000, 0.000000000000000000, 0.000000000000000000 ) ) ;
#179 = FACE_OUTER_BOUND ( 'NONE', #233, .T. ) ;
#180 = EDGE_CURVE ( 'NONE', #322, #102, #25, .T. ) ;
#181 = CC_DESIGN_APPROVAL ( #101, ( #80 ) ) ;
#182 = PERSON_AND_ORGANIZATION ( #3, #326 ) ;
#183 = COORDINATED_UNIVERSAL_TIME_OFFSET ( 1, 0, .AHEAD. ) ;
#184 = COORDINATED_UNIVERSAL_TIME_OFFSET ( 1, 0, .AHEAD. ) ;
#185 = DIRECTION ( 'NONE',  ( 0.000000000000000000, 0.000000000000000000, 1.000000000000000000 ) ) ;
#186 = ORIENTED_EDGE ( 'NONE', *, *, #95, .F. ) ;
#187 = CIRCLE ( 'NONE', #104, 4.000000000000000000 ) ;
#188 = DIRECTION ( 'NONE',  ( 0.000000000000000000, 0.000000000000000000, 1.000000000000000000 ) ) ;
#189 = ORIENTED_EDGE ( 'NONE', *, *, #312, .T. ) ;
#190 = ORIENTED_EDGE ( 'NONE', *, *, #354, .T. ) ;
#191 = LINE ( 'NONE', #282, #135 ) ;
#192 = FACE_OUTER_BOUND ( 'NONE', #57, .T. ) ;
#193 = AXIS2_PLACEMENT_3D ( 'NONE', #30, #377, #62 ) ;
#194 = EDGE_LOOP ( 'NONE', ( #379, #166, #189, #289 ) ) ;
#195 = ADVANCED_FACE ( 'NONE', ( #353 ), #230, .F. ) ;
#196 = ORIENTED_EDGE ( 'NONE', *, *, #316, .T. ) ;
#197 = PRODUCT_DEFINITION_FORMATION_WITH_SPECIFIED_SOURCE ( 'LIBOVOLNÝ', '', #339, .NOT_KNOWN. ) ;
#198 = CC_DESIGN_SECURITY_CLASSIFICATION ( #6, ( #197 ) ) ;
#199 = ADVANCED_FACE ( 'NONE', ( #179 ), #242, .F. ) ;
#200 = CARTESIAN_POINT ( 'NONE',  ( 0.000000000000000000, 0.000000000000000000, 5.000000000000000000 ) ) ;
#201 = DIRECTION ( 'NONE',  ( 0.000000000000000000, 0.000000000000000000, -1.000000000000000000 ) ) ;
#202 = VECTOR ( 'NONE', #123, 1000.000000000000000 ) ;
#203 = CYLINDRICAL_SURFACE ( 'NONE', #67, 4.000000000000000000 ) ;
#204 = EDGE_LOOP ( 'NONE', ( #132, #369 ) ) ;
#205 = CALENDAR_DATE ( 2022, 10, 7 ) ;
#206 = DIRECTION ( 'NONE',  ( 0.000000000000000000, 0.000000000000000000, 1.000000000000000000 ) ) ;
#207 = APPROVAL_STATUS ( 'not_yet_approved' ) ;
#208 = DIRECTION ( 'NONE',  ( 0.000000000000000000, 0.000000000000000000, 1.000000000000000000 ) ) ;
#209 = COORDINATED_UNIVERSAL_TIME_OFFSET ( 1, 0, .AHEAD. ) ;
#210 = LOCAL_TIME ( 11, 11, 17.00000000000000000, #209 ) ;
#211 = CC_DESIGN_PERSON_AND_ORGANIZATION_ASSIGNMENT ( #269, #360, ( #197 ) ) ;
#212 = DIRECTION ( 'NONE',  ( 0.000000000000000000, 0.000000000000000000, 1.000000000000000000 ) ) ;
#213 = DIRECTION ( 'NONE',  ( 0.000000000000000000, 0.000000000000000000, 1.000000000000000000 ) ) ;
#214 =( NAMED_UNIT ( * ) SI_UNIT ( $, .STERADIAN. ) SOLID_ANGLE_UNIT ( ) );
#215 = LOCAL_TIME ( 11, 11, 17.00000000000000000, #184 ) ;
#216 = CARTESIAN_POINT ( 'NONE',  ( 0.000000000000000000, 0.000000000000000000, 5.000000000000000000 ) ) ;
#217 = ORIENTED_EDGE ( 'NONE', *, *, #108, .T. ) ;
#218 = ADVANCED_FACE ( 'NONE', ( #59 ), #247, .T. ) ;
#219 = DIRECTION ( 'NONE',  ( -0.000000000000000000, -0.000000000000000000, -1.000000000000000000 ) ) ;
#220 = ORIENTED_EDGE ( 'NONE', *, *, #343, .T. ) ;
#221 = DIRECTION ( 'NONE',  ( 1.224646799147353207E-16, 1.000000000000000000, -0.000000000000000000 ) ) ;
#222 = ORIENTED_EDGE ( 'NONE', *, *, #241, .T. ) ;
#223 = CARTESIAN_POINT ( 'NONE',  ( 2.250000000000000000, 2.755455298081544285E-16, 155.0000000000000000 ) ) ;
#224 =( GEOMETRIC_REPRESENTATION_CONTEXT ( 3 ) GLOBAL_UNCERTAINTY_ASSIGNED_CONTEXT ( ( #338 ) ) GLOBAL_UNIT_ASSIGNED_CONTEXT ( ( #363, #244, #214 ) ) REPRESENTATION_CONTEXT ( 'NONE', 'WORKASPACE' ) );
#225 = LINE ( 'NONE', #327, #114 ) ;
#226 = CIRCLE ( 'NONE', #303, 7.000000000000000000 ) ;
#227 = EDGE_CURVE ( 'NONE', #99, #50, #234, .T. ) ;
#228 = CARTESIAN_POINT ( 'NONE',  ( 0.000000000000000000, 0.000000000000000000, 5.500000000000005329 ) ) ;
#229 = EDGE_CURVE ( 'NONE', #102, #322, #187, .T. ) ;
#230 = CYLINDRICAL_SURFACE ( 'NONE', #285, 2.250000000000000000 ) ;
#231 = CIRCLE ( 'NONE', #164, 2.250000000000000000 ) ;
#232 = FACE_OUTER_BOUND ( 'NONE', #45, .T. ) ;
#233 = EDGE_LOOP ( 'NONE', ( #118, #84, #222, #137 ) ) ;
#234 = LINE ( 'NONE', #361, #340 ) ;
#235 = AXIS2_PLACEMENT_3D ( 'NONE', #141, #264, #178 ) ;
#236 = EDGE_CURVE ( 'NONE', #341, #99, #263, .T. ) ;
#237 = SECURITY_CLASSIFICATION_LEVEL ( 'unclassified' ) ;
#238 = DATE_AND_TIME ( #93, #49 ) ;
#239 = CARTESIAN_POINT ( 'NONE',  ( -4.500000000000000888, 5.510910596163088569E-16, 5.000000000000002665 ) ) ;
#240 = APPLICATION_PROTOCOL_DEFINITION ( 'international standard', 'config_control_design', 1994, #349 ) ;
#241 = EDGE_CURVE ( 'NONE', #50, #79, #231, .T. ) ;
#242 = CYLINDRICAL_SURFACE ( 'NONE', #148, 2.250000000000000000 ) ;
#243 = AXIS2_PLACEMENT_3D ( 'NONE', #98, #213, #335 ) ;
#244 =( NAMED_UNIT ( * ) PLANE_ANGLE_UNIT ( ) SI_UNIT ( $, .RADIAN. ) );
#245 = DIRECTION ( 'NONE',  ( 0.000000000000000000, 0.000000000000000000, -1.000000000000000000 ) ) ;
#246 = EDGE_LOOP ( 'NONE', ( #333, #190, #217, #26 ) ) ;
#247 = CYLINDRICAL_SURFACE ( 'NONE', #136, 7.000000000000000000 ) ;
#248 = VERTEX_POINT ( 'NONE', #12 ) ;
#249 = DIRECTION ( 'NONE',  ( -1.000000000000000000, 0.000000000000000000, 0.000000000000000000 ) ) ;
#250 = ADVANCED_FACE ( 'NONE', ( #42, #274 ), #10, .F. ) ;
#251 = AXIS2_PLACEMENT_3D ( 'NONE', #157, #110, #134 ) ;
#252 = ORIENTED_EDGE ( 'NONE', *, *, #172, .T. ) ;
#253 = FACE_BOUND ( 'NONE', #344, .T. ) ;
#254 = ORIENTED_EDGE ( 'NONE', *, *, #140, .T. ) ;
#255 = PLANE ( 'NONE',  #48 ) ;
#256 = EDGE_CURVE ( 'NONE', #345, #145, #97, .T. ) ;
#257 = CARTESIAN_POINT ( 'NONE',  ( -7.000000000000000000, 0.000000000000000000, 5.000000000000000000 ) ) ;
#258 = AXIS2_PLACEMENT_3D ( 'NONE', #228, #350, #290 ) ;
#259 = APPROVAL ( #176, 'NEURÈENÝ' ) ;
#260 = ORIENTED_EDGE ( 'NONE', *, *, #376, .T. ) ;
#261 = DIRECTION ( 'NONE',  ( -1.000000000000000000, 0.000000000000000000, 0.000000000000000000 ) ) ;
#262 = CARTESIAN_POINT ( 'NONE',  ( 7.000000000000000000, 8.572527594031473190E-16, 0.000000000000000000 ) ) ;
#263 = CIRCLE ( 'NONE', #332, 2.250000000000000000 ) ;
#264 = DIRECTION ( 'NONE',  ( 0.000000000000000000, 0.000000000000000000, 1.000000000000000000 ) ) ;
#265 = CARTESIAN_POINT ( 'NONE',  ( 0.000000000000000000, 0.000000000000000000, 155.0000000000000000 ) ) ;
#266 = PERSON_AND_ORGANIZATION ( #3, #326 ) ;
#267 = TOROIDAL_SURFACE ( 'NONE', #347, 4.500000000000000888, 0.5000000000000000000 ) ;
#268 = CC_DESIGN_APPROVAL ( #13, ( #6 ) ) ;
#269 = PERSON_AND_ORGANIZATION ( #3, #326 ) ;
#270 = DIRECTION ( 'NONE',  ( 0.000000000000000000, 0.000000000000000000, -1.000000000000000000 ) ) ;
#271 = LINE ( 'NONE', #301, #202 ) ;
#272 = EDGE_CURVE ( 'NONE', #79, #50, #381, .T. ) ;
#273 = DATE_TIME_ROLE ( 'classification_date' ) ;
#274 = FACE_OUTER_BOUND ( 'NONE', #35, .T. ) ;
#275 = ADVANCED_BREP_SHAPE_REPRESENTATION ( 'e824', ( #61, #277 ), #224 ) ;
#276 = APPROVAL_DATE_TIME ( #306, #259 ) ;
#277 = AXIS2_PLACEMENT_3D ( 'NONE', #11, #212, #39 ) ;
#278 = PERSON_AND_ORGANIZATION ( #3, #326 ) ;
#279 = LOCAL_TIME ( 11, 11, 17.00000000000000000, #73 ) ;
#280 = ORIENTED_EDGE ( 'NONE', *, *, #180, .T. ) ;
#281 = EDGE_LOOP ( 'NONE', ( #155, #126, #38, #220 ) ) ;
#282 = CARTESIAN_POINT ( 'NONE',  ( -7.000000000000000000, 0.000000000000000000, 5.000000000000000000 ) ) ;
#283 = EDGE_LOOP ( 'NONE', ( #368, #196 ) ) ;
#284 = DESIGN_CONTEXT ( 'detailed design', #349, 'design' ) ;
#285 = AXIS2_PLACEMENT_3D ( 'NONE', #144, #201, #261 ) ;
#286 = CARTESIAN_POINT ( 'NONE',  ( 2.250000000000000000, 2.755455298081544285E-16, 0.000000000000000000 ) ) ;
#287 = CC_DESIGN_PERSON_AND_ORGANIZATION_ASSIGNMENT ( #177, #300, ( #197 ) ) ;
#288 = CARTESIAN_POINT ( 'NONE',  ( 0.000000000000000000, 0.000000000000000000, 0.000000000000000000 ) ) ;
#289 = ORIENTED_EDGE ( 'NONE', *, *, #229, .T. ) ;
#290 = DIRECTION ( 'NONE',  ( 1.000000000000000000, 0.000000000000000000, 0.000000000000000000 ) ) ;
#291 = VECTOR ( 'NONE', #121, 1000.000000000000000 ) ;
#292 = CARTESIAN_POINT ( 'NONE',  ( -2.250000000000000000, 0.000000000000000000, 155.0000000000000000 ) ) ;
#293 = DIRECTION ( 'NONE',  ( 1.000000000000000000, 0.000000000000000000, 0.000000000000000000 ) ) ;
#294 = CARTESIAN_POINT ( 'NONE',  ( 4.500000000000000888, 0.000000000000000000, 5.500000000000005329 ) ) ;
#295 = AXIS2_PLACEMENT_3D ( 'NONE', #32, #138, #69 ) ;
#296 = CARTESIAN_POINT ( 'NONE',  ( 4.500000000000000888, 0.000000000000000000, 5.000000000000002665 ) ) ;
#297 = DIRECTION ( 'NONE',  ( -1.000000000000000000, 0.000000000000000000, 0.000000000000000000 ) ) ;
#298 = CARTESIAN_POINT ( 'NONE',  ( 0.000000000000000000, 0.000000000000000000, 5.000000000000000000 ) ) ;
#299 = CALENDAR_DATE ( 2022, 10, 7 ) ;
#300 = PERSON_AND_ORGANIZATION_ROLE ( 'creator' ) ;
#301 = CARTESIAN_POINT ( 'NONE',  ( 4.000000000000000000, 4.898587196589412829E-16, 155.0000000000000000 ) ) ;
#302 = ADVANCED_FACE ( 'NONE', ( #232 ), #267, .F. ) ;
#303 = AXIS2_PLACEMENT_3D ( 'NONE', #200, #115, #54 ) ;
#304 = PERSON_AND_ORGANIZATION ( #3, #326 ) ;
#305 = DIRECTION ( 'NONE',  ( 1.000000000000000000, 0.000000000000000000, 0.000000000000000000 ) ) ;
#306 = DATE_AND_TIME ( #299, #210 ) ;
#307 = CARTESIAN_POINT ( 'NONE',  ( 0.000000000000000000, 0.000000000000000000, 155.0000000000000000 ) ) ;
#308 = DIRECTION ( 'NONE',  ( 0.000000000000000000, 0.000000000000000000, 1.000000000000000000 ) ) ;
#309 = CARTESIAN_POINT ( 'NONE',  ( 0.000000000000000000, 0.000000000000000000, 5.500000000000005329 ) ) ;
#310 = ORIENTED_EDGE ( 'NONE', *, *, #113, .T. ) ;
#311 = AXIS2_PLACEMENT_3D ( 'NONE', #216, #22, #249 ) ;
#312 = EDGE_CURVE ( 'NONE', #107, #102, #355, .T. ) ;
#313 = ORIENTED_EDGE ( 'NONE', *, *, #127, .T. ) ;
#314 = ORIENTED_EDGE ( 'NONE', *, *, #236, .F. ) ;
#315 = CARTESIAN_POINT ( 'NONE',  ( -2.250000000000000000, 0.000000000000000000, 0.000000000000000000 ) ) ;
#316 = EDGE_CURVE ( 'NONE', #60, #17, #31, .T. ) ;
#317 = ORIENTED_EDGE ( 'NONE', *, *, #53, .T. ) ;
#318 = CIRCLE ( 'NONE', #139, 4.500000000000000888 ) ;
#319 = SHAPE_DEFINITION_REPRESENTATION ( #330, #275 ) ;
#320 = ORIENTED_EDGE ( 'NONE', *, *, #229, .F. ) ;
#321 = EDGE_LOOP ( 'NONE', ( #20, #254, #280, #76 ) ) ;
#322 = VERTEX_POINT ( 'NONE', #43 ) ;
#323 = DIRECTION ( 'NONE',  ( -0.000000000000000000, -0.000000000000000000, -1.000000000000000000 ) ) ;
#324 = FACE_OUTER_BOUND ( 'NONE', #321, .T. ) ;
#325 = AXIS2_PLACEMENT_3D ( 'NONE', #374, #188, #348 ) ;
#326 = ORGANIZATION ( 'NEURÈENÝ', 'NEURÈENÝ', '' ) ;
#327 = CARTESIAN_POINT ( 'NONE',  ( -2.250000000000000000, 0.000000000000000000, 155.0000000000000000 ) ) ;
#328 = EDGE_LOOP ( 'NONE', ( #165, #260, #128, #51 ) ) ;
#329 = ADVANCED_FACE ( 'NONE', ( #143 ), #16, .F. ) ;
#330 = PRODUCT_DEFINITION_SHAPE ( 'NONE', 'NONE',  #80 ) ;
#331 = APPROVAL_ROLE ( '' ) ;
#332 = AXIS2_PLACEMENT_3D ( 'NONE', #307, #185, #94 ) ;
#333 = ORIENTED_EDGE ( 'NONE', *, *, #227, .F. ) ;
#334 = APPROVAL_ROLE ( '' ) ;
#335 = DIRECTION ( 'NONE',  ( 1.000000000000000000, 0.000000000000000000, -0.000000000000000000 ) ) ;
#336 = EDGE_CURVE ( 'NONE', #174, #55, #78, .T. ) ;
#337 = ORIENTED_EDGE ( 'NONE', *, *, #180, .F. ) ;
#338 = UNCERTAINTY_MEASURE_WITH_UNIT (LENGTH_MEASURE( 1.000000000000000082E-05 ), #363, 'distance_accuracy_value', 'NONE');
#339 = PRODUCT ( 'e824', 'e824', '', ( #146 ) ) ;
#340 = VECTOR ( 'NONE', #270, 1000.000000000000000 ) ;
#341 = VERTEX_POINT ( 'NONE', #292 ) ;
#342 = ORIENTED_EDGE ( 'NONE', *, *, #95, .T. ) ;
#343 = EDGE_CURVE ( 'NONE', #55, #174, #129, .T. ) ;
#344 = EDGE_LOOP ( 'NONE', ( #314, #152 ) ) ;
#345 = VERTEX_POINT ( 'NONE', #296 ) ;
#346 = CARTESIAN_POINT ( 'NONE',  ( -4.000000000000000000, 0.000000000000000000, 5.500000000000005329 ) ) ;
#347 = AXIS2_PLACEMENT_3D ( 'NONE', #92, #367, #159 ) ;
#348 = DIRECTION ( 'NONE',  ( 1.000000000000000000, 0.000000000000000000, 0.000000000000000000 ) ) ;
#349 = APPLICATION_CONTEXT ( 'configuration controlled 3d designs of mechanical parts and assemblies' ) ;
#350 = DIRECTION ( 'NONE',  ( 0.000000000000000000, 0.000000000000000000, 1.000000000000000000 ) ) ;
#351 = ADVANCED_FACE ( 'NONE', ( #324 ), #203, .T. ) ;
#352 = VECTOR ( 'NONE', #23, 1000.000000000000000 ) ;
#353 = FACE_OUTER_BOUND ( 'NONE', #246, .T. ) ;
#354 = EDGE_CURVE ( 'NONE', #99, #341, #66, .T. ) ;
#355 = LINE ( 'NONE', #40, #352 ) ;
#356 = DIRECTION ( 'NONE',  ( -1.000000000000000000, 0.000000000000000000, 0.000000000000000000 ) ) ;
#357 = AXIS2_PLACEMENT_3D ( 'NONE', #56, #221, #130 ) ;
#358 = CALENDAR_DATE ( 2022, 10, 7 ) ;
#359 = CC_DESIGN_PERSON_AND_ORGANIZATION_ASSIGNMENT ( #266, #124, ( #339 ) ) ;
#360 = PERSON_AND_ORGANIZATION_ROLE ( 'design_supplier' ) ;
#361 = CARTESIAN_POINT ( 'NONE',  ( 2.250000000000000000, 2.755455298081544285E-16, 155.0000000000000000 ) ) ;
#362 = CARTESIAN_POINT ( 'NONE',  ( 0.000000000000000000, 0.000000000000000000, 5.000000000000000000 ) ) ;
#363 =( LENGTH_UNIT ( ) NAMED_UNIT ( * ) SI_UNIT ( .MILLI., .METRE. ) );
#364 = CYLINDRICAL_SURFACE ( 'NONE', #251, 4.000000000000000000 ) ;
#365 = AXIS2_PLACEMENT_3D ( 'NONE', #362, #206, #96 ) ;
#366 = LINE ( 'NONE', #46, #291 ) ;
#367 = DIRECTION ( 'NONE',  ( 0.000000000000000000, 0.000000000000000000, 1.000000000000000000 ) ) ;
#368 = ORIENTED_EDGE ( 'NONE', *, *, #371, .T. ) ;
#369 = ORIENTED_EDGE ( 'NONE', *, *, #241, .F. ) ;
#370 = AXIS2_PLACEMENT_3D ( 'NONE', #1, #170, #90 ) ;
#371 = EDGE_CURVE ( 'NONE', #17, #60, #226, .T. ) ;
#372 = ORIENTED_EDGE ( 'NONE', *, *, #113, .F. ) ;
#373 = CARTESIAN_POINT ( 'NONE',  ( 0.000000000000000000, 0.000000000000000000, 5.000000000000000000 ) ) ;
#374 = CARTESIAN_POINT ( 'NONE',  ( 0.000000000000000000, 0.000000000000000000, 155.0000000000000000 ) ) ;
#375 = CARTESIAN_POINT ( 'NONE',  ( -4.000000000000000000, 0.000000000000000000, 155.0000000000000000 ) ) ;
#376 = EDGE_CURVE ( 'NONE', #60, #174, #366, .T. ) ;
#377 = DIRECTION ( 'NONE',  ( 0.000000000000000000, 0.000000000000000000, 1.000000000000000000 ) ) ;
#378 = DIRECTION ( 'NONE',  ( 1.000000000000000000, 0.000000000000000000, 0.000000000000000000 ) ) ;
#379 = ORIENTED_EDGE ( 'NONE', *, *, #140, .F. ) ;
#380 = ADVANCED_FACE ( 'NONE', ( #18, #100 ), #255, .T. ) ;
#381 = CIRCLE ( 'NONE', #295, 2.250000000000000000 ) ;
ENDSEC;
END-ISO-10303-21;
