ISO-10303-21;
HEADER;
FILE_DESCRIPTION (( 'STEP AP203' ),
    '1' );
FILE_NAME ('1e84.STEP',
    '2022-07-10T09:06:50',
    ( '' ),
    ( '' ),
    'SwSTEP 2.0',
    'SolidWorks 2019',
    '' );
FILE_SCHEMA (( 'CONFIG_CONTROL_DESIGN' ));
ENDSEC;

DATA;
#1 = VERTEX_POINT ( 'NONE', #160 ) ;
#2 = VERTEX_POINT ( 'NONE', #101 ) ;
#3 = EDGE_CURVE ( 'NONE', #1, #291, #132, .T. ) ;
#4 = EDGE_LOOP ( 'NONE', ( #242, #164, #378, #29 ) ) ;
#5 = EDGE_LOOP ( 'NONE', ( #96, #239 ) ) ;
#6 = ORIENTED_EDGE ( 'NONE', *, *, #131, .F. ) ;
#7 = PERSON_AND_ORGANIZATION_ROLE ( 'creator' ) ;
#8 = DIRECTION ( 'NONE',  ( -0.000000000000000000, -0.000000000000000000, -1.000000000000000000 ) ) ;
#9 = CC_DESIGN_APPROVAL ( #49, ( #292 ) ) ;
#10 = CC_DESIGN_PERSON_AND_ORGANIZATION_ASSIGNMENT ( #166, #278, ( #201 ) ) ;
#11 = APPLICATION_CONTEXT ( 'configuration controlled 3d designs of mechanical parts and assemblies' ) ;
#12 = PLANE ( 'NONE',  #46 ) ;
#13 = CALENDAR_DATE ( 2022, 10, 7 ) ;
#14 = LINE ( 'NONE', #228, #265 ) ;
#15 = PERSON_AND_ORGANIZATION_ROLE ( 'design_supplier' ) ;
#16 = ADVANCED_FACE ( 'NONE', ( #270 ), #124, .T. ) ;
#17 = SECURITY_CLASSIFICATION_LEVEL ( 'unclassified' ) ;
#18 = LINE ( 'NONE', #226, #254 ) ;
#19 = CARTESIAN_POINT ( 'NONE',  ( 0.000000000000000000, 0.000000000000000000, 5.500000000000005329 ) ) ;
#20 = VECTOR ( 'NONE', #362, 1000.000000000000000 ) ;
#21 = FACE_OUTER_BOUND ( 'NONE', #332, .T. ) ;
#22 = COORDINATED_UNIVERSAL_TIME_OFFSET ( 1, 0, .AHEAD. ) ;
#23 = CARTESIAN_POINT ( 'NONE',  ( 0.000000000000000000, 0.000000000000000000, 165.0000000000000000 ) ) ;
#24 = DIRECTION ( 'NONE',  ( 0.000000000000000000, 0.000000000000000000, 1.000000000000000000 ) ) ;
#25 = ORIENTED_EDGE ( 'NONE', *, *, #162, .T. ) ;
#26 = EDGE_CURVE ( 'NONE', #187, #62, #216, .T. ) ;
#27 = CIRCLE ( 'NONE', #316, 0.5000000000000004441 ) ;
#28 = APPROVAL_PERSON_ORGANIZATION ( #103, #243, #223 ) ;
#29 = ORIENTED_EDGE ( 'NONE', *, *, #82, .T. ) ;
#30 = APPLICATION_CONTEXT ( 'configuration controlled 3d designs of mechanical parts and assemblies' ) ;
#31 = ORIENTED_EDGE ( 'NONE', *, *, #178, .F. ) ;
#32 = DIRECTION ( 'NONE',  ( -1.000000000000000000, 1.224646799147351482E-16, 0.000000000000000000 ) ) ;
#33 = ORIENTED_EDGE ( 'NONE', *, *, #70, .T. ) ;
#34 = PRODUCT_DEFINITION ( 'NEZNÁMÝ', '', #141, #253 ) ;
#35 = EDGE_LOOP ( 'NONE', ( #237, #217, #33, #184 ) ) ;
#36 =( NAMED_UNIT ( * ) PLANE_ANGLE_UNIT ( ) SI_UNIT ( $, .RADIAN. ) );
#37 = VERTEX_POINT ( 'NONE', #139 ) ;
#38 = PERSON ( 'NEURÈENÝ', 'NEURÈENÝ', 'NEURÈENÝ', ('NEURÈENÝ'), ('NEURÈENÝ'), ('NEURÈENÝ') ) ;
#39 = DIRECTION ( 'NONE',  ( 1.000000000000000000, 0.000000000000000000, 0.000000000000000000 ) ) ;
#40 = EDGE_CURVE ( 'NONE', #153, #187, #76, .T. ) ;
#41 = COORDINATED_UNIVERSAL_TIME_OFFSET ( 1, 0, .AHEAD. ) ;
#42 = FACE_BOUND ( 'NONE', #356, .T. ) ;
#43 = CIRCLE ( 'NONE', #188, 5.000000000000000000 ) ;
#44 = CARTESIAN_POINT ( 'NONE',  ( 8.000000000000000000, 9.797174393178825657E-16, 5.000000000000000000 ) ) ;
#45 = DIRECTION ( 'NONE',  ( 1.000000000000000000, 0.000000000000000000, -0.000000000000000000 ) ) ;
#46 = AXIS2_PLACEMENT_3D ( 'NONE', #136, #371, #45 ) ;
#47 = AXIS2_PLACEMENT_3D ( 'NONE', #350, #194, #369 ) ;
#48 = CARTESIAN_POINT ( 'NONE',  ( 0.000000000000000000, 0.000000000000000000, 165.0000000000000000 ) ) ;
#49 = APPROVAL ( #336, 'NEURÈENÝ' ) ;
#50 = DIRECTION ( 'NONE',  ( -0.000000000000000000, -0.000000000000000000, -1.000000000000000000 ) ) ;
#51 = EDGE_CURVE ( 'NONE', #363, #366, #238, .T. ) ;
#52 = CARTESIAN_POINT ( 'NONE',  ( 0.000000000000000000, 0.000000000000000000, 0.000000000000000000 ) ) ;
#53 = CIRCLE ( 'NONE', #329, 8.000000000000000000 ) ;
#54 = DIRECTION ( 'NONE',  ( 0.000000000000000000, 0.000000000000000000, 1.000000000000000000 ) ) ;
#55 = APPROVAL_DATE_TIME ( #154, #49 ) ;
#56 = CARTESIAN_POINT ( 'NONE',  ( 0.000000000000000000, 0.000000000000000000, 5.000000000000000000 ) ) ;
#57 = CARTESIAN_POINT ( 'NONE',  ( 0.000000000000000000, 0.000000000000000000, 165.0000000000000000 ) ) ;
#58 = VERTEX_POINT ( 'NONE', #339 ) ;
#59 =( LENGTH_UNIT ( ) NAMED_UNIT ( * ) SI_UNIT ( .MILLI., .METRE. ) );
#60 = VERTEX_POINT ( 'NONE', #306 ) ;
#61 = FACE_BOUND ( 'NONE', #215, .T. ) ;
#62 = VERTEX_POINT ( 'NONE', #71 ) ;
#63 = CC_DESIGN_PERSON_AND_ORGANIZATION_ASSIGNMENT ( #338, #7, ( #34 ) ) ;
#64 = DIRECTION ( 'NONE',  ( 1.000000000000000000, 0.000000000000000000, -0.000000000000000000 ) ) ;
#65 = ORIENTED_EDGE ( 'NONE', *, *, #108, .T. ) ;
#66 = MANIFOLD_SOLID_BREP ( 'Odebrat vysunutím3', #341 ) ;
#67 = DIRECTION ( 'NONE',  ( -0.000000000000000000, -0.000000000000000000, -1.000000000000000000 ) ) ;
#68 = ORIENTED_EDGE ( 'NONE', *, *, #186, .F. ) ;
#69 = VERTEX_POINT ( 'NONE', #249 ) ;
#70 = EDGE_CURVE ( 'NONE', #128, #62, #135, .T. ) ;
#71 = CARTESIAN_POINT ( 'NONE',  ( -8.000000000000000000, 0.000000000000000000, 0.000000000000000000 ) ) ;
#72 = CARTESIAN_POINT ( 'NONE',  ( -8.000000000000000000, 0.000000000000000000, 5.000000000000000000 ) ) ;
#73 = CIRCLE ( 'NONE', #140, 8.000000000000000000 ) ;
#74 = PERSON_AND_ORGANIZATION ( #38, #78 ) ;
#75 = DIRECTION ( 'NONE',  ( 0.000000000000000000, 0.000000000000000000, -1.000000000000000000 ) ) ;
#76 = LINE ( 'NONE', #347, #171 ) ;
#77 = DIRECTION ( 'NONE',  ( 0.000000000000000000, 0.000000000000000000, 1.000000000000000000 ) ) ;
#78 = ORGANIZATION ( 'NEURÈENÝ', 'NEURÈENÝ', '' ) ;
#79 = CARTESIAN_POINT ( 'NONE',  ( 3.000000000000000444, 3.673940397442060361E-16, 0.000000000000000000 ) ) ;
#80 = CYLINDRICAL_SURFACE ( 'NONE', #148, 8.000000000000000000 ) ;
#81 = EDGE_LOOP ( 'NONE', ( #185, #236, #219, #328 ) ) ;
#82 = EDGE_CURVE ( 'NONE', #58, #60, #146, .T. ) ;
#83 = AXIS2_PLACEMENT_3D ( 'NONE', #142, #77, #165 ) ;
#84 = FACE_OUTER_BOUND ( 'NONE', #274, .T. ) ;
#85 = CARTESIAN_POINT ( 'NONE',  ( -5.000000000000000000, 0.000000000000000000, 165.0000000000000000 ) ) ;
#86 = EDGE_LOOP ( 'NONE', ( #320, #207, #151, #367 ) ) ;
#87 = ADVANCED_BREP_SHAPE_REPRESENTATION ( '1e84', ( #66, #213 ), #285 ) ;
#88 = CARTESIAN_POINT ( 'NONE',  ( 5.500000000000000000, 0.000000000000000000, 5.000000000000002665 ) ) ;
#89 = ORIENTED_EDGE ( 'NONE', *, *, #349, .F. ) ;
#90 = CARTESIAN_POINT ( 'NONE',  ( 0.000000000000000000, 0.000000000000000000, 0.000000000000000000 ) ) ;
#91 = CIRCLE ( 'NONE', #235, 3.000000000000000444 ) ;
#92 = CC_DESIGN_SECURITY_CLASSIFICATION ( #292, ( #141 ) ) ;
#93 = ORIENTED_EDGE ( 'NONE', *, *, #174, .T. ) ;
#94 = ADVANCED_FACE ( 'NONE', ( #248 ), #360, .F. ) ;
#95 = PRODUCT_DEFINITION_SHAPE ( 'NONE', 'NONE',  #34 ) ;
#96 = ORIENTED_EDGE ( 'NONE', *, *, #117, .F. ) ;
#97 = CIRCLE ( 'NONE', #354, 3.000000000000000444 ) ;
#98 = ORIENTED_EDGE ( 'NONE', *, *, #321, .T. ) ;
#99 = ADVANCED_FACE ( 'NONE', ( #42, #168 ), #12, .T. ) ;
#100 = DATE_TIME_ROLE ( 'classification_date' ) ;
#101 = CARTESIAN_POINT ( 'NONE',  ( -3.000000000000000444, 0.000000000000000000, 0.000000000000000000 ) ) ;
#102 = DIRECTION ( 'NONE',  ( 1.000000000000000000, 0.000000000000000000, 0.000000000000000000 ) ) ;
#103 = PERSON_AND_ORGANIZATION ( #38, #78 ) ;
#104 = VECTOR ( 'NONE', #8, 1000.000000000000000 ) ;
#105 = DIRECTION ( 'NONE',  ( -0.000000000000000000, -0.000000000000000000, -1.000000000000000000 ) ) ;
#106 = COORDINATED_UNIVERSAL_TIME_OFFSET ( 1, 0, .AHEAD. ) ;
#107 = FACE_OUTER_BOUND ( 'NONE', #86, .T. ) ;
#108 = EDGE_CURVE ( 'NONE', #291, #60, #14, .T. ) ;
#109 = APPLICATION_PROTOCOL_DEFINITION ( 'international standard', 'config_control_design', 1994, #30 ) ;
#110 = DIRECTION ( 'NONE',  ( -0.000000000000000000, -0.000000000000000000, -1.000000000000000000 ) ) ;
#111 = AXIS2_PLACEMENT_3D ( 'NONE', #304, #337, #158 ) ;
#112 = LINE ( 'NONE', #85, #373 ) ;
#113 = ORIENTED_EDGE ( 'NONE', *, *, #295, .T. ) ;
#114 = AXIS2_PLACEMENT_3D ( 'NONE', #200, #314, #173 ) ;
#115 = LOCAL_TIME ( 11, 6, 50.00000000000000000, #106 ) ;
#116 = DIRECTION ( 'NONE',  ( 1.000000000000000000, 0.000000000000000000, 0.000000000000000000 ) ) ;
#117 = EDGE_CURVE ( 'NONE', #69, #37, #97, .T. ) ;
#118 = ORIENTED_EDGE ( 'NONE', *, *, #368, .F. ) ;
#119 = CARTESIAN_POINT ( 'NONE',  ( 0.000000000000000000, 0.000000000000000000, 165.0000000000000000 ) ) ;
#120 = CC_DESIGN_PERSON_AND_ORGANIZATION_ASSIGNMENT ( #74, #197, ( #141 ) ) ;
#121 = AXIS2_PLACEMENT_3D ( 'NONE', #57, #159, #327 ) ;
#122 = FACE_OUTER_BOUND ( 'NONE', #81, .T. ) ;
#123 = LINE ( 'NONE', #293, #20 ) ;
#124 = CYLINDRICAL_SURFACE ( 'NONE', #177, 8.000000000000000000 ) ;
#125 = DIRECTION ( 'NONE',  ( 1.000000000000000000, 0.000000000000000000, 0.000000000000000000 ) ) ;
#126 = ORIENTED_EDGE ( 'NONE', *, *, #321, .F. ) ;
#127 = AXIS2_PLACEMENT_3D ( 'NONE', #326, #67, #125 ) ;
#128 = VERTEX_POINT ( 'NONE', #196 ) ;
#129 = APPLICATION_PROTOCOL_DEFINITION ( 'international standard', 'config_control_design', 1994, #11 ) ;
#130 = ORIENTED_EDGE ( 'NONE', *, *, #149, .T. ) ;
#131 = EDGE_CURVE ( 'NONE', #366, #363, #342, .T. ) ;
#132 = CIRCLE ( 'NONE', #111, 5.000000000000000000 ) ;
#133 = ORIENTED_EDGE ( 'NONE', *, *, #174, .F. ) ;
#134 = CALENDAR_DATE ( 2022, 10, 7 ) ;
#135 = LINE ( 'NONE', #72, #104 ) ;
#136 = CARTESIAN_POINT ( 'NONE',  ( 0.000000000000000000, 0.000000000000000000, 5.000000000000000000 ) ) ;
#137 = DATE_AND_TIME ( #308, #240 ) ;
#138 = DIRECTION ( 'NONE',  ( 0.000000000000000000, 0.000000000000000000, -1.000000000000000000 ) ) ;
#139 = CARTESIAN_POINT ( 'NONE',  ( 3.000000000000000444, 3.673940397442060361E-16, 165.0000000000000000 ) ) ;
#140 = AXIS2_PLACEMENT_3D ( 'NONE', #56, #266, #204 ) ;
#141 = PRODUCT_DEFINITION_FORMATION_WITH_SPECIFIED_SOURCE ( 'LIBOVOLNÝ', '', #201, .NOT_KNOWN. ) ;
#142 = CARTESIAN_POINT ( 'NONE',  ( 0.000000000000000000, 0.000000000000000000, 165.0000000000000000 ) ) ;
#143 = ADVANCED_FACE ( 'NONE', ( #107 ), #284, .F. ) ;
#144 = APPROVAL_ROLE ( '' ) ;
#145 = DIRECTION ( 'NONE',  ( 1.000000000000000000, 0.000000000000000000, 0.000000000000000000 ) ) ;
#146 = CIRCLE ( 'NONE', #47, 5.000000000000000000 ) ;
#147 = CARTESIAN_POINT ( 'NONE',  ( 8.000000000000000000, 9.797174393178825657E-16, 0.000000000000000000 ) ) ;
#148 = AXIS2_PLACEMENT_3D ( 'NONE', #268, #286, #157 ) ;
#149 = EDGE_CURVE ( 'NONE', #60, #363, #27, .T. ) ;
#150 = CYLINDRICAL_SURFACE ( 'NONE', #300, 5.000000000000000000 ) ;
#151 = ORIENTED_EDGE ( 'NONE', *, *, #361, .T. ) ;
#152 = CARTESIAN_POINT ( 'NONE',  ( 0.000000000000000000, 0.000000000000000000, 165.0000000000000000 ) ) ;
#153 = VERTEX_POINT ( 'NONE', #44 ) ;
#154 = DATE_AND_TIME ( #206, #381 ) ;
#155 = DIRECTION ( 'NONE',  ( 0.000000000000000000, 0.000000000000000000, 1.000000000000000000 ) ) ;
#156 = LOCAL_TIME ( 11, 6, 50.00000000000000000, #282 ) ;
#157 = DIRECTION ( 'NONE',  ( -1.000000000000000000, 0.000000000000000000, 0.000000000000000000 ) ) ;
#158 = DIRECTION ( 'NONE',  ( 1.000000000000000000, 0.000000000000000000, 0.000000000000000000 ) ) ;
#159 = DIRECTION ( 'NONE',  ( -0.000000000000000000, -0.000000000000000000, -1.000000000000000000 ) ) ;
#160 = CARTESIAN_POINT ( 'NONE',  ( -5.000000000000000000, 0.000000000000000000, 165.0000000000000000 ) ) ;
#161 = CARTESIAN_POINT ( 'NONE',  ( 0.000000000000000000, 0.000000000000000000, 5.000000000000000000 ) ) ;
#162 = EDGE_CURVE ( 'NONE', #69, #2, #18, .T. ) ;
#163 = CARTESIAN_POINT ( 'NONE',  ( 0.000000000000000000, 0.000000000000000000, 0.000000000000000000 ) ) ;
#164 = ORIENTED_EDGE ( 'NONE', *, *, #3, .F. ) ;
#165 = DIRECTION ( 'NONE',  ( 1.000000000000000000, 0.000000000000000000, 0.000000000000000000 ) ) ;
#166 = PERSON_AND_ORGANIZATION ( #38, #78 ) ;
#167 = AXIS2_PLACEMENT_3D ( 'NONE', #119, #205, #380 ) ;
#168 = FACE_OUTER_BOUND ( 'NONE', #212, .T. ) ;
#169 = DIRECTION ( 'NONE',  ( 0.000000000000000000, 0.000000000000000000, 1.000000000000000000 ) ) ;
#170 = PERSON_AND_ORGANIZATION ( #38, #78 ) ;
#171 = VECTOR ( 'NONE', #110, 1000.000000000000000 ) ;
#172 = DIRECTION ( 'NONE',  ( -0.000000000000000000, -0.000000000000000000, -1.000000000000000000 ) ) ;
#173 = DIRECTION ( 'NONE',  ( 1.000000000000000000, 0.000000000000000000, 0.000000000000000000 ) ) ;
#174 = EDGE_CURVE ( 'NONE', #291, #1, #277, .T. ) ;
#175 = CARTESIAN_POINT ( 'NONE',  ( 0.000000000000000000, 0.000000000000000000, 5.500000000000005329 ) ) ;
#176 = FACE_BOUND ( 'NONE', #5, .T. ) ;
#177 = AXIS2_PLACEMENT_3D ( 'NONE', #161, #202, #374 ) ;
#178 = EDGE_CURVE ( 'NONE', #1, #58, #112, .T. ) ;
#179 = ORIENTED_EDGE ( 'NONE', *, *, #3, .T. ) ;
#180 = APPROVAL_PERSON_ORGANIZATION ( #218, #49, #144 ) ;
#181 = DIRECTION ( 'NONE',  ( 1.000000000000000000, 0.000000000000000000, 0.000000000000000000 ) ) ;
#182 = PLANE ( 'NONE',  #335 ) ;
#183 = CC_DESIGN_APPROVAL ( #243, ( #141 ) ) ;
#184 = ORIENTED_EDGE ( 'NONE', *, *, #340, .T. ) ;
#185 = ORIENTED_EDGE ( 'NONE', *, *, #82, .F. ) ;
#186 = EDGE_CURVE ( 'NONE', #153, #128, #53, .T. ) ;
#187 = VERTEX_POINT ( 'NONE', #147 ) ;
#188 = AXIS2_PLACEMENT_3D ( 'NONE', #19, #208, #145 ) ;
#189 = CC_DESIGN_DATE_AND_TIME_ASSIGNMENT ( #220, #303, ( #34 ) ) ;
#190 = ORIENTED_EDGE ( 'NONE', *, *, #26, .T. ) ;
#191 = PERSON_AND_ORGANIZATION ( #38, #78 ) ;
#192 = ORIENTED_EDGE ( 'NONE', *, *, #186, .T. ) ;
#193 = CALENDAR_DATE ( 2022, 10, 7 ) ;
#194 = DIRECTION ( 'NONE',  ( 0.000000000000000000, 0.000000000000000000, 1.000000000000000000 ) ) ;
#195 = APPROVAL_ROLE ( '' ) ;
#196 = CARTESIAN_POINT ( 'NONE',  ( -8.000000000000000000, 0.000000000000000000, 5.000000000000000000 ) ) ;
#197 = PERSON_AND_ORGANIZATION_ROLE ( 'creator' ) ;
#198 = DIRECTION ( 'NONE',  ( -1.000000000000000000, 0.000000000000000000, 0.000000000000000000 ) ) ;
#199 = APPROVAL_STATUS ( 'not_yet_approved' ) ;
#200 = CARTESIAN_POINT ( 'NONE',  ( 0.000000000000000000, 0.000000000000000000, 5.000000000000000000 ) ) ;
#201 = PRODUCT ( '1e84', '1e84', '', ( #305 ) ) ;
#202 = DIRECTION ( 'NONE',  ( -0.000000000000000000, -0.000000000000000000, -1.000000000000000000 ) ) ;
#203 = AXIS2_PLACEMENT_3D ( 'NONE', #175, #24, #351 ) ;
#204 = DIRECTION ( 'NONE',  ( 1.000000000000000000, 0.000000000000000000, 0.000000000000000000 ) ) ;
#205 = DIRECTION ( 'NONE',  ( 0.000000000000000000, 0.000000000000000000, -1.000000000000000000 ) ) ;
#206 = CALENDAR_DATE ( 2022, 10, 7 ) ;
#207 = ORIENTED_EDGE ( 'NONE', *, *, #349, .T. ) ;
#208 = DIRECTION ( 'NONE',  ( 0.000000000000000000, 0.000000000000000000, 1.000000000000000000 ) ) ;
#209 = FACE_OUTER_BOUND ( 'NONE', #4, .T. ) ;
#210 = ORIENTED_EDGE ( 'NONE', *, *, #26, .F. ) ;
#211 = CARTESIAN_POINT ( 'NONE',  ( -5.500000000000000000, 6.735557395310442023E-16, 5.500000000000005329 ) ) ;
#212 = EDGE_LOOP ( 'NONE', ( #113, #192 ) ) ;
#213 = AXIS2_PLACEMENT_3D ( 'NONE', #163, #370, #222 ) ;
#214 = EDGE_LOOP ( 'NONE', ( #68, #245, #190, #297 ) ) ;
#215 = EDGE_LOOP ( 'NONE', ( #126, #334 ) ) ;
#216 = CIRCLE ( 'NONE', #271, 8.000000000000000000 ) ;
#217 = ORIENTED_EDGE ( 'NONE', *, *, #295, .F. ) ;
#218 = PERSON_AND_ORGANIZATION ( #38, #78 ) ;
#219 = ORIENTED_EDGE ( 'NONE', *, *, #51, .F. ) ;
#220 = DATE_AND_TIME ( #13, #115 ) ;
#221 = DIRECTION ( 'NONE',  ( 0.000000000000000000, 0.000000000000000000, 1.000000000000000000 ) ) ;
#222 = DIRECTION ( 'NONE',  ( 1.000000000000000000, 0.000000000000000000, 0.000000000000000000 ) ) ;
#223 = APPROVAL_ROLE ( '' ) ;
#224 = UNCERTAINTY_MEASURE_WITH_UNIT (LENGTH_MEASURE( 1.000000000000000082E-05 ), #59, 'distance_accuracy_value', 'NONE');
#225 = AXIS2_PLACEMENT_3D ( 'NONE', #280, #138, #198 ) ;
#226 = CARTESIAN_POINT ( 'NONE',  ( -3.000000000000000444, 0.000000000000000000, 165.0000000000000000 ) ) ;
#227 = PERSON_AND_ORGANIZATION_ROLE ( 'classification_officer' ) ;
#228 = CARTESIAN_POINT ( 'NONE',  ( 5.000000000000000000, 6.123233995736766282E-16, 165.0000000000000000 ) ) ;
#229 = CARTESIAN_POINT ( 'NONE',  ( 0.000000000000000000, 0.000000000000000000, 5.000000000000000000 ) ) ;
#230 = PLANE ( 'NONE',  #323 ) ;
#231 = FACE_OUTER_BOUND ( 'NONE', #272, .T. ) ;
#232 = DIRECTION ( 'NONE',  ( 1.000000000000000000, 0.000000000000000000, 0.000000000000000000 ) ) ;
#233 = ORIENTED_EDGE ( 'NONE', *, *, #340, .F. ) ;
#234 = CARTESIAN_POINT ( 'NONE',  ( 0.000000000000000000, 0.000000000000000000, 165.0000000000000000 ) ) ;
#235 = AXIS2_PLACEMENT_3D ( 'NONE', #234, #263, #379 ) ;
#236 = ORIENTED_EDGE ( 'NONE', *, *, #368, .T. ) ;
#237 = ORIENTED_EDGE ( 'NONE', *, *, #40, .F. ) ;
#238 = CIRCLE ( 'NONE', #325, 5.500000000000000000 ) ;
#239 = ORIENTED_EDGE ( 'NONE', *, *, #310, .F. ) ;
#240 = LOCAL_TIME ( 11, 6, 50.00000000000000000, #41 ) ;
#241 =( NAMED_UNIT ( * ) SI_UNIT ( $, .STERADIAN. ) SOLID_ANGLE_UNIT ( ) );
#242 = ORIENTED_EDGE ( 'NONE', *, *, #108, .F. ) ;
#243 = APPROVAL ( #199, 'NEURÈENÝ' ) ;
#244 = ORIENTED_EDGE ( 'NONE', *, *, #131, .T. ) ;
#245 = ORIENTED_EDGE ( 'NONE', *, *, #40, .T. ) ;
#246 = DATE_AND_TIME ( #134, #156 ) ;
#247 = APPROVAL_PERSON_ORGANIZATION ( #191, #357, #195 ) ;
#248 = FACE_OUTER_BOUND ( 'NONE', #273, .T. ) ;
#249 = CARTESIAN_POINT ( 'NONE',  ( -3.000000000000000444, 0.000000000000000000, 165.0000000000000000 ) ) ;
#250 = DIRECTION ( 'NONE',  ( 0.000000000000000000, 0.000000000000000000, -1.000000000000000000 ) ) ;
#251 = ADVANCED_FACE ( 'NONE', ( #176, #84 ), #230, .T. ) ;
#252 = PERSON_AND_ORGANIZATION ( #38, #78 ) ;
#253 = DESIGN_CONTEXT ( 'detailed design', #30, 'design' ) ;
#254 = VECTOR ( 'NONE', #75, 1000.000000000000000 ) ;
#255 = DIRECTION ( 'NONE',  ( 0.000000000000000000, 0.000000000000000000, 1.000000000000000000 ) ) ;
#256 = CC_DESIGN_DATE_AND_TIME_ASSIGNMENT ( #257, #100, ( #292 ) ) ;
#257 = DATE_AND_TIME ( #193, #331 ) ;
#258 = PRODUCT_RELATED_PRODUCT_CATEGORY ( 'detail', '', ( #201 ) ) ;
#259 = SHAPE_DEFINITION_REPRESENTATION ( #95, #87 ) ;
#260 = EDGE_CURVE ( 'NONE', #60, #58, #43, .T. ) ;
#261 = DIRECTION ( 'NONE',  ( 1.000000000000000000, 0.000000000000000000, -0.000000000000000000 ) ) ;
#262 = TOROIDAL_SURFACE ( 'NONE', #203, 5.500000000000000000, 0.5000000000000000000 ) ;
#263 = DIRECTION ( 'NONE',  ( 0.000000000000000000, 0.000000000000000000, 1.000000000000000000 ) ) ;
#264 = VERTEX_POINT ( 'NONE', #79 ) ;
#265 = VECTOR ( 'NONE', #172, 1000.000000000000000 ) ;
#266 = DIRECTION ( 'NONE',  ( 0.000000000000000000, 0.000000000000000000, 1.000000000000000000 ) ) ;
#267 = ADVANCED_FACE ( 'NONE', ( #231 ), #150, .T. ) ;
#268 = CARTESIAN_POINT ( 'NONE',  ( 0.000000000000000000, 0.000000000000000000, 5.000000000000000000 ) ) ;
#269 = DIRECTION ( 'NONE',  ( 0.000000000000000000, 0.000000000000000000, 1.000000000000000000 ) ) ;
#270 = FACE_OUTER_BOUND ( 'NONE', #214, .T. ) ;
#271 = AXIS2_PLACEMENT_3D ( 'NONE', #279, #221, #375 ) ;
#272 = EDGE_LOOP ( 'NONE', ( #133, #65, #364, #31 ) ) ;
#273 = EDGE_LOOP ( 'NONE', ( #118, #294, #130, #6 ) ) ;
#274 = EDGE_LOOP ( 'NONE', ( #179, #93 ) ) ;
#275 = ADVANCED_FACE ( 'NONE', ( #21 ), #322, .F. ) ;
#276 = APPROVAL_DATE_TIME ( #137, #357 ) ;
#277 = CIRCLE ( 'NONE', #83, 5.000000000000000000 ) ;
#278 = PERSON_AND_ORGANIZATION_ROLE ( 'design_owner' ) ;
#279 = CARTESIAN_POINT ( 'NONE',  ( 0.000000000000000000, 0.000000000000000000, 0.000000000000000000 ) ) ;
#280 = CARTESIAN_POINT ( 'NONE',  ( 0.000000000000000000, 0.000000000000000000, 165.0000000000000000 ) ) ;
#281 = CC_DESIGN_PERSON_AND_ORGANIZATION_ASSIGNMENT ( #170, #15, ( #141 ) ) ;
#282 = COORDINATED_UNIVERSAL_TIME_OFFSET ( 1, 0, .AHEAD. ) ;
#283 = AXIS2_PLACEMENT_3D ( 'NONE', #318, #155, #232 ) ;
#284 = CYLINDRICAL_SURFACE ( 'NONE', #225, 3.000000000000000444 ) ;
#285 =( GEOMETRIC_REPRESENTATION_CONTEXT ( 3 ) GLOBAL_UNCERTAINTY_ASSIGNED_CONTEXT ( ( #224 ) ) GLOBAL_UNIT_ASSIGNED_CONTEXT ( ( #59, #36, #241 ) ) REPRESENTATION_CONTEXT ( 'NONE', 'WORKASPACE' ) );
#286 = DIRECTION ( 'NONE',  ( -0.000000000000000000, -0.000000000000000000, -1.000000000000000000 ) ) ;
#287 = AXIS2_PLACEMENT_3D ( 'NONE', #312, #169, #102 ) ;
#288 = DIRECTION ( 'NONE',  ( 0.000000000000000000, 0.000000000000000000, 1.000000000000000000 ) ) ;
#289 = CIRCLE ( 'NONE', #127, 3.000000000000000444 ) ;
#290 = CC_DESIGN_PERSON_AND_ORGANIZATION_ASSIGNMENT ( #252, #227, ( #292 ) ) ;
#291 = VERTEX_POINT ( 'NONE', #324 ) ;
#292 = SECURITY_CLASSIFICATION ( '', '', #17 ) ;
#293 = CARTESIAN_POINT ( 'NONE',  ( 3.000000000000000444, 3.673940397442060361E-16, 165.0000000000000000 ) ) ;
#294 = ORIENTED_EDGE ( 'NONE', *, *, #260, .F. ) ;
#295 = EDGE_CURVE ( 'NONE', #128, #153, #73, .T. ) ;
#296 = DIRECTION ( 'NONE',  ( 1.224646799147353207E-16, 1.000000000000000000, -0.000000000000000000 ) ) ;
#297 = ORIENTED_EDGE ( 'NONE', *, *, #70, .F. ) ;
#298 = CARTESIAN_POINT ( 'NONE',  ( -5.500000000000000000, 6.735557395310442023E-16, 5.000000000000002665 ) ) ;
#299 = ORIENTED_EDGE ( 'NONE', *, *, #51, .T. ) ;
#300 = AXIS2_PLACEMENT_3D ( 'NONE', #23, #319, #376 ) ;
#301 = FACE_OUTER_BOUND ( 'NONE', #302, .T. ) ;
#302 = EDGE_LOOP ( 'NONE', ( #233, #210 ) ) ;
#303 = DATE_TIME_ROLE ( 'creation_date' ) ;
#304 = CARTESIAN_POINT ( 'NONE',  ( 0.000000000000000000, 0.000000000000000000, 165.0000000000000000 ) ) ;
#305 = MECHANICAL_CONTEXT ( 'NONE', #11, 'mechanical' ) ;
#306 = CARTESIAN_POINT ( 'NONE',  ( 5.000000000000000000, 6.123233995736766282E-16, 5.500000000000005329 ) ) ;
#307 = CIRCLE ( 'NONE', #283, 8.000000000000000000 ) ;
#308 = CALENDAR_DATE ( 2022, 10, 7 ) ;
#309 = CARTESIAN_POINT ( 'NONE',  ( 5.500000000000000000, 0.000000000000000000, 5.500000000000005329 ) ) ;
#310 = EDGE_CURVE ( 'NONE', #37, #69, #91, .T. ) ;
#311 = APPROVAL_DATE_TIME ( #246, #243 ) ;
#312 = CARTESIAN_POINT ( 'NONE',  ( 0.000000000000000000, 0.000000000000000000, 5.500000000000005329 ) ) ;
#313 = COORDINATED_UNIVERSAL_TIME_OFFSET ( 1, 0, .AHEAD. ) ;
#314 = DIRECTION ( 'NONE',  ( -0.000000000000000000, -0.000000000000000000, -1.000000000000000000 ) ) ;
#315 = CIRCLE ( 'NONE', #344, 0.5000000000000004441 ) ;
#316 = AXIS2_PLACEMENT_3D ( 'NONE', #309, #372, #250 ) ;
#317 = DIRECTION ( 'NONE',  ( -0.000000000000000000, -0.000000000000000000, -1.000000000000000000 ) ) ;
#318 = CARTESIAN_POINT ( 'NONE',  ( 0.000000000000000000, 0.000000000000000000, 0.000000000000000000 ) ) ;
#319 = DIRECTION ( 'NONE',  ( -0.000000000000000000, -0.000000000000000000, -1.000000000000000000 ) ) ;
#320 = ORIENTED_EDGE ( 'NONE', *, *, #117, .T. ) ;
#321 = EDGE_CURVE ( 'NONE', #2, #264, #359, .T. ) ;
#322 = CYLINDRICAL_SURFACE ( 'NONE', #167, 3.000000000000000444 ) ;
#323 = AXIS2_PLACEMENT_3D ( 'NONE', #152, #288, #261 ) ;
#324 = CARTESIAN_POINT ( 'NONE',  ( 5.000000000000000000, 6.123233995736766282E-16, 165.0000000000000000 ) ) ;
#325 = AXIS2_PLACEMENT_3D ( 'NONE', #229, #105, #39 ) ;
#326 = CARTESIAN_POINT ( 'NONE',  ( 0.000000000000000000, 0.000000000000000000, 0.000000000000000000 ) ) ;
#327 = DIRECTION ( 'NONE',  ( -1.000000000000000000, 0.000000000000000000, 0.000000000000000000 ) ) ;
#328 = ORIENTED_EDGE ( 'NONE', *, *, #149, .F. ) ;
#329 = AXIS2_PLACEMENT_3D ( 'NONE', #358, #54, #116 ) ;
#330 = ADVANCED_FACE ( 'NONE', ( #122 ), #262, .F. ) ;
#331 = LOCAL_TIME ( 11, 6, 50.00000000000000000, #313 ) ;
#332 = EDGE_LOOP ( 'NONE', ( #89, #353, #25, #98 ) ) ;
#333 = CYLINDRICAL_SURFACE ( 'NONE', #121, 5.000000000000000000 ) ;
#334 = ORIENTED_EDGE ( 'NONE', *, *, #361, .F. ) ;
#335 = AXIS2_PLACEMENT_3D ( 'NONE', #90, #269, #64 ) ;
#336 = APPROVAL_STATUS ( 'not_yet_approved' ) ;
#337 = DIRECTION ( 'NONE',  ( 0.000000000000000000, 0.000000000000000000, 1.000000000000000000 ) ) ;
#338 = PERSON_AND_ORGANIZATION ( #38, #78 ) ;
#339 = CARTESIAN_POINT ( 'NONE',  ( -5.000000000000000000, 0.000000000000000000, 5.500000000000005329 ) ) ;
#340 = EDGE_CURVE ( 'NONE', #62, #187, #307, .T. ) ;
#341 = CLOSED_SHELL ( 'NONE', ( #143, #330, #267, #16, #348, #99, #365, #352, #251, #94, #275 ) ) ;
#342 = CIRCLE ( 'NONE', #114, 5.500000000000000000 ) ;
#343 = DIRECTION ( 'NONE',  ( 1.000000000000000000, 0.000000000000000000, 0.000000000000000000 ) ) ;
#344 = AXIS2_PLACEMENT_3D ( 'NONE', #211, #296, #32 ) ;
#345 = APPROVAL_STATUS ( 'not_yet_approved' ) ;
#346 = CC_DESIGN_APPROVAL ( #357, ( #34 ) ) ;
#347 = CARTESIAN_POINT ( 'NONE',  ( 8.000000000000000000, 9.797174393178825657E-16, 5.000000000000000000 ) ) ;
#348 = ADVANCED_FACE ( 'NONE', ( #355 ), #80, .T. ) ;
#349 = EDGE_CURVE ( 'NONE', #37, #264, #123, .T. ) ;
#350 = CARTESIAN_POINT ( 'NONE',  ( 0.000000000000000000, 0.000000000000000000, 5.500000000000005329 ) ) ;
#351 = DIRECTION ( 'NONE',  ( 1.000000000000000000, 0.000000000000000000, 0.000000000000000000 ) ) ;
#352 = ADVANCED_FACE ( 'NONE', ( #209 ), #333, .T. ) ;
#353 = ORIENTED_EDGE ( 'NONE', *, *, #310, .T. ) ;
#354 = AXIS2_PLACEMENT_3D ( 'NONE', #48, #255, #343 ) ;
#355 = FACE_OUTER_BOUND ( 'NONE', #35, .T. ) ;
#356 = EDGE_LOOP ( 'NONE', ( #299, #244 ) ) ;
#357 = APPROVAL ( #345, 'NEURÈENÝ' ) ;
#358 = CARTESIAN_POINT ( 'NONE',  ( 0.000000000000000000, 0.000000000000000000, 5.000000000000000000 ) ) ;
#359 = CIRCLE ( 'NONE', #377, 3.000000000000000444 ) ;
#360 = TOROIDAL_SURFACE ( 'NONE', #287, 5.500000000000000000, 0.5000000000000000000 ) ;
#361 = EDGE_CURVE ( 'NONE', #264, #2, #289, .T. ) ;
#362 = DIRECTION ( 'NONE',  ( 0.000000000000000000, 0.000000000000000000, -1.000000000000000000 ) ) ;
#363 = VERTEX_POINT ( 'NONE', #88 ) ;
#364 = ORIENTED_EDGE ( 'NONE', *, *, #260, .T. ) ;
#365 = ADVANCED_FACE ( 'NONE', ( #61, #301 ), #182, .F. ) ;
#366 = VERTEX_POINT ( 'NONE', #298 ) ;
#367 = ORIENTED_EDGE ( 'NONE', *, *, #162, .F. ) ;
#368 = EDGE_CURVE ( 'NONE', #58, #366, #315, .T. ) ;
#369 = DIRECTION ( 'NONE',  ( 1.000000000000000000, 0.000000000000000000, 0.000000000000000000 ) ) ;
#370 = DIRECTION ( 'NONE',  ( 0.000000000000000000, 0.000000000000000000, 1.000000000000000000 ) ) ;
#371 = DIRECTION ( 'NONE',  ( 0.000000000000000000, 0.000000000000000000, 1.000000000000000000 ) ) ;
#372 = DIRECTION ( 'NONE',  ( 0.000000000000000000, -1.000000000000000000, 0.000000000000000000 ) ) ;
#373 = VECTOR ( 'NONE', #317, 1000.000000000000000 ) ;
#374 = DIRECTION ( 'NONE',  ( -1.000000000000000000, 0.000000000000000000, 0.000000000000000000 ) ) ;
#375 = DIRECTION ( 'NONE',  ( 1.000000000000000000, 0.000000000000000000, 0.000000000000000000 ) ) ;
#376 = DIRECTION ( 'NONE',  ( -1.000000000000000000, 0.000000000000000000, 0.000000000000000000 ) ) ;
#377 = AXIS2_PLACEMENT_3D ( 'NONE', #52, #50, #181 ) ;
#378 = ORIENTED_EDGE ( 'NONE', *, *, #178, .T. ) ;
#379 = DIRECTION ( 'NONE',  ( 1.000000000000000000, 0.000000000000000000, 0.000000000000000000 ) ) ;
#380 = DIRECTION ( 'NONE',  ( -1.000000000000000000, 0.000000000000000000, 0.000000000000000000 ) ) ;
#381 = LOCAL_TIME ( 11, 6, 50.00000000000000000, #22 ) ;
ENDSEC;
END-ISO-10303-21;
