ISO-10303-21;
HEADER;
FILE_DESCRIPTION (( 'STEP AP203' ),
    '1' );
FILE_NAME ('caa1.STEP',
    '2022-07-10T09:18:56',
    ( '' ),
    ( '' ),
    'SwSTEP 2.0',
    'SolidWorks 2019',
    '' );
FILE_SCHEMA (( 'CONFIG_CONTROL_DESIGN' ));
ENDSEC;

DATA;
#1 = ORIENTED_EDGE ( 'NONE', *, *, #138, .T. ) ;
#2 = CIRCLE ( 'NONE', #242, 5.000000000000000000 ) ;
#3 = CARTESIAN_POINT ( 'NONE',  ( 0.000000000000000000, 0.000000000000000000, 3.299999999999997158 ) ) ;
#4 = FACE_BOUND ( 'NONE', #90, .T. ) ;
#5 = DIRECTION ( 'NONE',  ( 0.000000000000000000, 0.000000000000000000, -1.000000000000000000 ) ) ;
#6 = EDGE_LOOP ( 'NONE', ( #353, #336 ) ) ;
#7 = CIRCLE ( 'NONE', #350, 1.250000000000000000 ) ;
#8 = DIRECTION ( 'NONE',  ( -0.000000000000000000, -0.000000000000000000, -1.000000000000000000 ) ) ;
#9 = EDGE_CURVE ( 'NONE', #128, #299, #288, .T. ) ;
#10 = APPROVAL_STATUS ( 'not_yet_approved' ) ;
#11 = ORIENTED_EDGE ( 'NONE', *, *, #342, .T. ) ;
#12 = APPLICATION_PROTOCOL_DEFINITION ( 'international standard', 'config_control_design', 1994, #305 ) ;
#13 = TOROIDAL_SURFACE ( 'NONE', #68, 2.799999999999999822, 0.2999999999999999889 ) ;
#14 = ORIENTED_EDGE ( 'NONE', *, *, #177, .F. ) ;
#15 = CC_DESIGN_APPROVAL ( #316, ( #135 ) ) ;
#16 = APPROVAL_DATE_TIME ( #368, #96 ) ;
#17 = DIRECTION ( 'NONE',  ( 0.000000000000000000, 0.000000000000000000, -1.000000000000000000 ) ) ;
#18 = PERSON_AND_ORGANIZATION ( #309, #360 ) ;
#19 = CARTESIAN_POINT ( 'NONE',  ( -2.500000000000000000, 0.000000000000000000, 3.299999999999997158 ) ) ;
#20 = CARTESIAN_POINT ( 'NONE',  ( 2.500000000000000000, 3.061616997868383141E-16, 3.299999999999997158 ) ) ;
#21 = VECTOR ( 'NONE', #8, 1000.000000000000000 ) ;
#22 = CARTESIAN_POINT ( 'NONE',  ( 0.000000000000000000, 0.000000000000000000, 3.000000000000000000 ) ) ;
#23 = ORIENTED_EDGE ( 'NONE', *, *, #297, .T. ) ;
#24 = EDGE_CURVE ( 'NONE', #29, #153, #212, .T. ) ;
#25 = CIRCLE ( 'NONE', #207, 2.799999999999999822 ) ;
#26 = LOCAL_TIME ( 11, 18, 56.00000000000000000, #52 ) ;
#27 = DIRECTION ( 'NONE',  ( -0.000000000000000000, -0.000000000000000000, -1.000000000000000000 ) ) ;
#28 = EDGE_CURVE ( 'NONE', #60, #304, #341, .T. ) ;
#29 = VERTEX_POINT ( 'NONE', #19 ) ;
#30 = CC_DESIGN_PERSON_AND_ORGANIZATION_ASSIGNMENT ( #169, #48, ( #284 ) ) ;
#31 = DESIGN_CONTEXT ( 'detailed design', #62, 'design' ) ;
#32 = DIRECTION ( 'NONE',  ( 1.000000000000000000, 0.000000000000000000, 0.000000000000000000 ) ) ;
#33 = PLANE ( 'NONE',  #282 ) ;
#34 = EDGE_CURVE ( 'NONE', #274, #53, #7, .T. ) ;
#35 = VECTOR ( 'NONE', #39, 1000.000000000000000 ) ;
#36 = EDGE_LOOP ( 'NONE', ( #260, #61, #339, #210 ) ) ;
#37 = CARTESIAN_POINT ( 'NONE',  ( -2.799999999999999822, 3.429011037612588783E-16, 3.299999999999997158 ) ) ;
#38 = CC_DESIGN_PERSON_AND_ORGANIZATION_ASSIGNMENT ( #139, #343, ( #226 ) ) ;
#39 = DIRECTION ( 'NONE',  ( -0.000000000000000000, -0.000000000000000000, -1.000000000000000000 ) ) ;
#40 = AXIS2_PLACEMENT_3D ( 'NONE', #348, #320, #324 ) ;
#41 = SHAPE_DEFINITION_REPRESENTATION ( #51, #175 ) ;
#42 = EDGE_LOOP ( 'NONE', ( #328, #290 ) ) ;
#43 = ADVANCED_FACE ( 'NONE', ( #277 ), #285, .F. ) ;
#44 = DATE_TIME_ROLE ( 'creation_date' ) ;
#45 = DIRECTION ( 'NONE',  ( -0.000000000000000000, -0.000000000000000000, -1.000000000000000000 ) ) ;
#46 = APPROVAL_DATE_TIME ( #333, #316 ) ;
#47 = ORIENTED_EDGE ( 'NONE', *, *, #141, .F. ) ;
#48 = PERSON_AND_ORGANIZATION_ROLE ( 'design_owner' ) ;
#49 = AXIS2_PLACEMENT_3D ( 'NONE', #63, #261, #87 ) ;
#50 = VERTEX_POINT ( 'NONE', #347 ) ;
#51 = PRODUCT_DEFINITION_SHAPE ( 'NONE', 'NONE',  #300 ) ;
#52 = COORDINATED_UNIVERSAL_TIME_OFFSET ( 1, 0, .AHEAD. ) ;
#53 = VERTEX_POINT ( 'NONE', #249 ) ;
#54 = DIRECTION ( 'NONE',  ( 1.000000000000000000, 0.000000000000000000, 0.000000000000000000 ) ) ;
#55 = EDGE_CURVE ( 'NONE', #53, #274, #231, .T. ) ;
#56 = DIRECTION ( 'NONE',  ( 0.000000000000000000, 0.000000000000000000, 1.000000000000000000 ) ) ;
#57 = CLOSED_SHELL ( 'NONE', ( #43, #120, #192, #161, #102, #329, #349, #188, #233, #322, #380 ) ) ;
#58 = ORIENTED_EDGE ( 'NONE', *, *, #275, .F. ) ;
#59 = EDGE_CURVE ( 'NONE', #53, #128, #315, .T. ) ;
#60 = VERTEX_POINT ( 'NONE', #225 ) ;
#61 = ORIENTED_EDGE ( 'NONE', *, *, #126, .F. ) ;
#62 = APPLICATION_CONTEXT ( 'configuration controlled 3d designs of mechanical parts and assemblies' ) ;
#63 = CARTESIAN_POINT ( 'NONE',  ( 0.000000000000000000, 0.000000000000000000, 0.000000000000000000 ) ) ;
#64 = CC_DESIGN_PERSON_AND_ORGANIZATION_ASSIGNMENT ( #18, #366, ( #135 ) ) ;
#65 = VERTEX_POINT ( 'NONE', #77 ) ;
#66 = CARTESIAN_POINT ( 'NONE',  ( 0.000000000000000000, 0.000000000000000000, 0.000000000000000000 ) ) ;
#67 = FACE_BOUND ( 'NONE', #215, .T. ) ;
#68 = AXIS2_PLACEMENT_3D ( 'NONE', #149, #56, #209 ) ;
#69 = PLANE ( 'NONE',  #221 ) ;
#70 = DIRECTION ( 'NONE',  ( 0.000000000000000000, 0.000000000000000000, 1.000000000000000000 ) ) ;
#71 = ORIENTED_EDGE ( 'NONE', *, *, #59, .T. ) ;
#72 = CALENDAR_DATE ( 2022, 10, 7 ) ;
#73 = CC_DESIGN_PERSON_AND_ORGANIZATION_ASSIGNMENT ( #81, #250, ( #226 ) ) ;
#74 = AXIS2_PLACEMENT_3D ( 'NONE', #280, #80, #86 ) ;
#75 = LOCAL_TIME ( 11, 18, 56.00000000000000000, #196 ) ;
#76 = MECHANICAL_CONTEXT ( 'NONE', #305, 'mechanical' ) ;
#77 = CARTESIAN_POINT ( 'NONE',  ( 5.000000000000000000, 6.123233995736766282E-16, 0.000000000000000000 ) ) ;
#78 = DIRECTION ( 'NONE',  ( 1.000000000000000000, 0.000000000000000000, 0.000000000000000000 ) ) ;
#79 =( NAMED_UNIT ( * ) PLANE_ANGLE_UNIT ( ) SI_UNIT ( $, .RADIAN. ) );
#80 = DIRECTION ( 'NONE',  ( 0.000000000000000000, 0.000000000000000000, 1.000000000000000000 ) ) ;
#81 = PERSON_AND_ORGANIZATION ( #309, #360 ) ;
#82 = AXIS2_PLACEMENT_3D ( 'NONE', #137, #84, #202 ) ;
#83 = TOROIDAL_SURFACE ( 'NONE', #312, 2.799999999999999822, 0.2999999999999999889 ) ;
#84 = DIRECTION ( 'NONE',  ( 0.000000000000000000, 0.000000000000000000, 1.000000000000000000 ) ) ;
#85 = CC_DESIGN_APPROVAL ( #96, ( #226 ) ) ;
#86 = DIRECTION ( 'NONE',  ( 1.000000000000000000, 0.000000000000000000, 0.000000000000000000 ) ) ;
#87 = DIRECTION ( 'NONE',  ( 1.000000000000000000, 0.000000000000000000, 0.000000000000000000 ) ) ;
#88 = CARTESIAN_POINT ( 'NONE',  ( 5.000000000000000000, 6.123233995736766282E-16, 3.000000000000000000 ) ) ;
#89 = DIRECTION ( 'NONE',  ( -1.000000000000000000, 0.000000000000000000, 0.000000000000000000 ) ) ;
#90 = EDGE_LOOP ( 'NONE', ( #172, #107 ) ) ;
#91 = DIRECTION ( 'NONE',  ( -1.000000000000000000, 0.000000000000000000, 0.000000000000000000 ) ) ;
#92 = CARTESIAN_POINT ( 'NONE',  ( 0.000000000000000000, 0.000000000000000000, 3.000000000000000000 ) ) ;
#93 = EDGE_LOOP ( 'NONE', ( #58, #186, #258, #111 ) ) ;
#94 = CARTESIAN_POINT ( 'NONE',  ( 0.000000000000000000, 0.000000000000000000, 3.000000000000000000 ) ) ;
#95 = DIRECTION ( 'NONE',  ( -1.000000000000000000, 0.000000000000000000, 0.000000000000000000 ) ) ;
#96 = APPROVAL ( #10, 'NEURÈENÝ' ) ;
#97 = CARTESIAN_POINT ( 'NONE',  ( 0.000000000000000000, 0.000000000000000000, 3.000000000000000000 ) ) ;
#98 = EDGE_CURVE ( 'NONE', #150, #29, #197, .T. ) ;
#99 = AXIS2_PLACEMENT_3D ( 'NONE', #37, #219, #122 ) ;
#100 = DIRECTION ( 'NONE',  ( -1.000000000000000000, 0.000000000000000000, 0.000000000000000000 ) ) ;
#101 = ORIENTED_EDGE ( 'NONE', *, *, #141, .T. ) ;
#102 = ADVANCED_FACE ( 'NONE', ( #162 ), #279, .T. ) ;
#103 = CARTESIAN_POINT ( 'NONE',  ( -5.000000000000000000, 0.000000000000000000, 0.000000000000000000 ) ) ;
#104 = PERSON_AND_ORGANIZATION ( #309, #360 ) ;
#105 = DIRECTION ( 'NONE',  ( 0.000000000000000000, 0.000000000000000000, -1.000000000000000000 ) ) ;
#106 = PERSON_AND_ORGANIZATION ( #309, #360 ) ;
#107 = ORIENTED_EDGE ( 'NONE', *, *, #55, .F. ) ;
#108 = APPROVAL_STATUS ( 'not_yet_approved' ) ;
#109 = APPROVAL ( #338, 'NEURÈENÝ' ) ;
#110 = CALENDAR_DATE ( 2022, 10, 7 ) ;
#111 = ORIENTED_EDGE ( 'NONE', *, *, #28, .F. ) ;
#112 = PERSON_AND_ORGANIZATION ( #309, #360 ) ;
#113 = ORIENTED_EDGE ( 'NONE', *, *, #59, .F. ) ;
#114 = DIRECTION ( 'NONE',  ( 1.000000000000000000, 0.000000000000000000, 0.000000000000000000 ) ) ;
#115 = ORIENTED_EDGE ( 'NONE', *, *, #168, .F. ) ;
#116 = MANIFOLD_SOLID_BREP ( 'Odebrat vysunutím3', #57 ) ;
#117 = DIRECTION ( 'NONE',  ( -0.000000000000000000, -0.000000000000000000, -1.000000000000000000 ) ) ;
#118 = CARTESIAN_POINT ( 'NONE',  ( 0.000000000000000000, 0.000000000000000000, 3.000000000000000000 ) ) ;
#119 = AXIS2_PLACEMENT_3D ( 'NONE', #92, #147, #373 ) ;
#120 = ADVANCED_FACE ( 'NONE', ( #372 ), #13, .F. ) ;
#121 = CYLINDRICAL_SURFACE ( 'NONE', #154, 2.500000000000000000 ) ;
#122 = DIRECTION ( 'NONE',  ( -1.000000000000000000, 1.224646799147353207E-16, 0.000000000000000000 ) ) ;
#123 = CIRCLE ( 'NONE', #119, 2.799999999999999822 ) ;
#124 = FACE_OUTER_BOUND ( 'NONE', #178, .T. ) ;
#125 = CARTESIAN_POINT ( 'NONE',  ( 0.000000000000000000, 0.000000000000000000, 0.000000000000000000 ) ) ;
#126 = EDGE_CURVE ( 'NONE', #150, #310, #281, .T. ) ;
#127 = FACE_OUTER_BOUND ( 'NONE', #199, .T. ) ;
#128 = VERTEX_POINT ( 'NONE', #317 ) ;
#129 = CIRCLE ( 'NONE', #358, 1.250000000000000000 ) ;
#130 = CC_DESIGN_DATE_AND_TIME_ASSIGNMENT ( #248, #170, ( #135 ) ) ;
#131 = LINE ( 'NONE', #272, #179 ) ;
#132 = COORDINATED_UNIVERSAL_TIME_OFFSET ( 1, 0, .AHEAD. ) ;
#133 = APPROVAL_ROLE ( '' ) ;
#134 = ORIENTED_EDGE ( 'NONE', *, *, #98, .F. ) ;
#135 = SECURITY_CLASSIFICATION ( '', '', #136 ) ;
#136 = SECURITY_CLASSIFICATION_LEVEL ( 'unclassified' ) ;
#137 = CARTESIAN_POINT ( 'NONE',  ( 0.000000000000000000, 0.000000000000000000, 3.299999999999997158 ) ) ;
#138 = EDGE_CURVE ( 'NONE', #299, #128, #129, .T. ) ;
#139 = PERSON_AND_ORGANIZATION ( #309, #360 ) ;
#140 = ORIENTED_EDGE ( 'NONE', *, *, #334, .T. ) ;
#141 = EDGE_CURVE ( 'NONE', #153, #374, #319, .T. ) ;
#142 = CARTESIAN_POINT ( 'NONE',  ( 0.000000000000000000, 0.000000000000000000, 78.00000000000000000 ) ) ;
#143 = EDGE_CURVE ( 'NONE', #50, #374, #123, .T. ) ;
#144 = CIRCLE ( 'NONE', #49, 5.000000000000000000 ) ;
#145 = DIRECTION ( 'NONE',  ( -1.000000000000000000, 0.000000000000000000, 0.000000000000000000 ) ) ;
#146 = DIRECTION ( 'NONE',  ( 0.000000000000000000, 0.000000000000000000, 1.000000000000000000 ) ) ;
#147 = DIRECTION ( 'NONE',  ( -0.000000000000000000, -0.000000000000000000, -1.000000000000000000 ) ) ;
#148 = VECTOR ( 'NONE', #286, 1000.000000000000000 ) ;
#149 = CARTESIAN_POINT ( 'NONE',  ( 0.000000000000000000, 0.000000000000000000, 3.299999999999997158 ) ) ;
#150 = VERTEX_POINT ( 'NONE', #287 ) ;
#151 = CARTESIAN_POINT ( 'NONE',  ( 2.799999999999999822, 0.000000000000000000, 2.999999999999998668 ) ) ;
#152 = DIRECTION ( 'NONE',  ( 0.000000000000000000, 0.000000000000000000, 1.000000000000000000 ) ) ;
#153 = VERTEX_POINT ( 'NONE', #20 ) ;
#154 = AXIS2_PLACEMENT_3D ( 'NONE', #240, #213, #145 ) ;
#155 = AXIS2_PLACEMENT_3D ( 'NONE', #66, #296, #216 ) ;
#156 = DIRECTION ( 'NONE',  ( 0.000000000000000000, 0.000000000000000000, 1.000000000000000000 ) ) ;
#157 = CARTESIAN_POINT ( 'NONE',  ( 0.000000000000000000, 0.000000000000000000, 3.299999999999997158 ) ) ;
#158 = ORIENTED_EDGE ( 'NONE', *, *, #28, .T. ) ;
#159 = VECTOR ( 'NONE', #45, 1000.000000000000000 ) ;
#160 = CALENDAR_DATE ( 2022, 10, 7 ) ;
#161 = ADVANCED_FACE ( 'NONE', ( #238 ), #351, .T. ) ;
#162 = FACE_OUTER_BOUND ( 'NONE', #326, .T. ) ;
#163 = CC_DESIGN_DATE_AND_TIME_ASSIGNMENT ( #364, #44, ( #300 ) ) ;
#164 = APPROVAL_DATE_TIME ( #254, #109 ) ;
#165 = CARTESIAN_POINT ( 'NONE',  ( -5.000000000000000000, 0.000000000000000000, 3.000000000000000000 ) ) ;
#166 = CIRCLE ( 'NONE', #335, 5.000000000000000000 ) ;
#167 = CC_DESIGN_APPROVAL ( #109, ( #300 ) ) ;
#168 = EDGE_CURVE ( 'NONE', #374, #50, #25, .T. ) ;
#169 = PERSON_AND_ORGANIZATION ( #309, #360 ) ;
#170 = DATE_TIME_ROLE ( 'classification_date' ) ;
#171 = EDGE_CURVE ( 'NONE', #310, #150, #344, .T. ) ;
#172 = ORIENTED_EDGE ( 'NONE', *, *, #34, .F. ) ;
#173 = DIRECTION ( 'NONE',  ( -0.000000000000000000, -0.000000000000000000, -1.000000000000000000 ) ) ;
#174 = AXIS2_PLACEMENT_3D ( 'NONE', #125, #244, #303 ) ;
#175 = ADVANCED_BREP_SHAPE_REPRESENTATION ( 'caa1', ( #116, #276 ), #180 ) ;
#176 = CARTESIAN_POINT ( 'NONE',  ( 0.000000000000000000, 0.000000000000000000, 3.000000000000000000 ) ) ;
#177 = EDGE_CURVE ( 'NONE', #304, #65, #144, .T. ) ;
#178 = EDGE_LOOP ( 'NONE', ( #14, #232 ) ) ;
#179 = VECTOR ( 'NONE', #5, 1000.000000000000000 ) ;
#180 =( GEOMETRIC_REPRESENTATION_CONTEXT ( 3 ) GLOBAL_UNCERTAINTY_ASSIGNED_CONTEXT ( ( #239 ) ) GLOBAL_UNIT_ASSIGNED_CONTEXT ( ( #340, #79, #201 ) ) REPRESENTATION_CONTEXT ( 'NONE', 'WORKASPACE' ) );
#181 = VERTEX_POINT ( 'NONE', #88 ) ;
#182 = CARTESIAN_POINT ( 'NONE',  ( 0.000000000000000000, 0.000000000000000000, 3.000000000000000000 ) ) ;
#183 = PRODUCT_RELATED_PRODUCT_CATEGORY ( 'detail', '', ( #284 ) ) ;
#184 = CARTESIAN_POINT ( 'NONE',  ( -1.250000000000000000, 0.000000000000000000, 0.000000000000000000 ) ) ;
#185 = DIRECTION ( 'NONE',  ( 1.000000000000000000, 0.000000000000000000, 0.000000000000000000 ) ) ;
#186 = ORIENTED_EDGE ( 'NONE', *, *, #205, .T. ) ;
#187 = LOCAL_TIME ( 11, 18, 56.00000000000000000, #229 ) ;
#188 = ADVANCED_FACE ( 'NONE', ( #378 ), #121, .T. ) ;
#189 = DIRECTION ( 'NONE',  ( 0.000000000000000000, 0.000000000000000000, 1.000000000000000000 ) ) ;
#190 = ORIENTED_EDGE ( 'NONE', *, *, #55, .T. ) ;
#191 = DIRECTION ( 'NONE',  ( 1.000000000000000000, 0.000000000000000000, 0.000000000000000000 ) ) ;
#192 = ADVANCED_FACE ( 'NONE', ( #256 ), #234, .T. ) ;
#193 = CALENDAR_DATE ( 2022, 10, 7 ) ;
#194 = AXIS2_PLACEMENT_3D ( 'NONE', #176, #27, #89 ) ;
#195 = APPROVAL_PERSON_ORGANIZATION ( #104, #316, #227 ) ;
#196 = COORDINATED_UNIVERSAL_TIME_OFFSET ( 1, 0, .AHEAD. ) ;
#197 = LINE ( 'NONE', #307, #159 ) ;
#198 = DIRECTION ( 'NONE',  ( 1.000000000000000000, 0.000000000000000000, 0.000000000000000000 ) ) ;
#199 = EDGE_LOOP ( 'NONE', ( #271, #253, #101, #264 ) ) ;
#200 = AXIS2_PLACEMENT_3D ( 'NONE', #323, #146, #257 ) ;
#201 =( NAMED_UNIT ( * ) SI_UNIT ( $, .STERADIAN. ) SOLID_ANGLE_UNIT ( ) );
#202 = DIRECTION ( 'NONE',  ( 1.000000000000000000, 0.000000000000000000, 0.000000000000000000 ) ) ;
#203 = CARTESIAN_POINT ( 'NONE',  ( 0.000000000000000000, 0.000000000000000000, 0.000000000000000000 ) ) ;
#204 = CARTESIAN_POINT ( 'NONE',  ( 0.000000000000000000, 0.000000000000000000, 78.00000000000000000 ) ) ;
#205 = EDGE_CURVE ( 'NONE', #181, #65, #330, .T. ) ;
#206 = ORIENTED_EDGE ( 'NONE', *, *, #205, .F. ) ;
#207 = AXIS2_PLACEMENT_3D ( 'NONE', #22, #211, #114 ) ;
#208 = EDGE_CURVE ( 'NONE', #60, #181, #166, .T. ) ;
#209 = DIRECTION ( 'NONE',  ( 1.000000000000000000, 0.000000000000000000, 0.000000000000000000 ) ) ;
#210 = ORIENTED_EDGE ( 'NONE', *, *, #24, .T. ) ;
#211 = DIRECTION ( 'NONE',  ( -0.000000000000000000, -0.000000000000000000, -1.000000000000000000 ) ) ;
#212 = CIRCLE ( 'NONE', #82, 2.500000000000000000 ) ;
#213 = DIRECTION ( 'NONE',  ( -0.000000000000000000, -0.000000000000000000, -1.000000000000000000 ) ) ;
#214 = APPROVAL_PERSON_ORGANIZATION ( #224, #96, #308 ) ;
#215 = EDGE_LOOP ( 'NONE', ( #295, #318 ) ) ;
#216 = DIRECTION ( 'NONE',  ( 1.000000000000000000, 0.000000000000000000, -0.000000000000000000 ) ) ;
#217 = DIRECTION ( 'NONE',  ( 1.000000000000000000, 0.000000000000000000, 0.000000000000000000 ) ) ;
#218 = ORIENTED_EDGE ( 'NONE', *, *, #34, .T. ) ;
#219 = DIRECTION ( 'NONE',  ( 1.224646799147353207E-16, 1.000000000000000000, -0.000000000000000000 ) ) ;
#220 = EDGE_LOOP ( 'NONE', ( #113, #190, #379, #1 ) ) ;
#221 = AXIS2_PLACEMENT_3D ( 'NONE', #327, #189, #270 ) ;
#222 = FACE_OUTER_BOUND ( 'NONE', #42, .T. ) ;
#223 = DIRECTION ( 'NONE',  ( 0.000000000000000000, 0.000000000000000000, 1.000000000000000000 ) ) ;
#224 = PERSON_AND_ORGANIZATION ( #309, #360 ) ;
#225 = CARTESIAN_POINT ( 'NONE',  ( -5.000000000000000000, 0.000000000000000000, 3.000000000000000000 ) ) ;
#226 = PRODUCT_DEFINITION_FORMATION_WITH_SPECIFIED_SOURCE ( 'LIBOVOLNÝ', '', #284, .NOT_KNOWN. ) ;
#227 = APPROVAL_ROLE ( '' ) ;
#228 = ORIENTED_EDGE ( 'NONE', *, *, #177, .T. ) ;
#229 = COORDINATED_UNIVERSAL_TIME_OFFSET ( 1, 0, .AHEAD. ) ;
#230 = DIRECTION ( 'NONE',  ( -0.000000000000000000, -0.000000000000000000, -1.000000000000000000 ) ) ;
#231 = CIRCLE ( 'NONE', #74, 1.250000000000000000 ) ;
#232 = ORIENTED_EDGE ( 'NONE', *, *, #265, .F. ) ;
#233 = ADVANCED_FACE ( 'NONE', ( #4, #357 ), #69, .T. ) ;
#234 = CYLINDRICAL_SURFACE ( 'NONE', #375, 2.500000000000000000 ) ;
#235 = EDGE_LOOP ( 'NONE', ( #247, #11, #140, #134 ) ) ;
#236 = AXIS2_PLACEMENT_3D ( 'NONE', #203, #230, #78 ) ;
#237 = CC_DESIGN_SECURITY_CLASSIFICATION ( #135, ( #226 ) ) ;
#238 = FACE_OUTER_BOUND ( 'NONE', #93, .T. ) ;
#239 = UNCERTAINTY_MEASURE_WITH_UNIT (LENGTH_MEASURE( 1.000000000000000082E-05 ), #340, 'distance_accuracy_value', 'NONE');
#240 = CARTESIAN_POINT ( 'NONE',  ( 0.000000000000000000, 0.000000000000000000, 78.00000000000000000 ) ) ;
#241 = ORIENTED_EDGE ( 'NONE', *, *, #208, .F. ) ;
#242 = AXIS2_PLACEMENT_3D ( 'NONE', #97, #156, #185 ) ;
#243 = CARTESIAN_POINT ( 'NONE',  ( 2.500000000000000000, 3.061616997868383141E-16, 78.00000000000000000 ) ) ;
#244 = DIRECTION ( 'NONE',  ( 0.000000000000000000, 0.000000000000000000, 1.000000000000000000 ) ) ;
#245 = FACE_BOUND ( 'NONE', #293, .T. ) ;
#246 = DIRECTION ( 'NONE',  ( 0.000000000000000000, 0.000000000000000000, 1.000000000000000000 ) ) ;
#247 = ORIENTED_EDGE ( 'NONE', *, *, #171, .F. ) ;
#248 = DATE_AND_TIME ( #193, #376 ) ;
#249 = CARTESIAN_POINT ( 'NONE',  ( 1.250000000000000000, 1.530808498934191571E-16, 78.00000000000000000 ) ) ;
#250 = PERSON_AND_ORGANIZATION_ROLE ( 'design_supplier' ) ;
#251 = DIRECTION ( 'NONE',  ( 0.000000000000000000, 0.000000000000000000, 1.000000000000000000 ) ) ;
#252 = COORDINATED_UNIVERSAL_TIME_OFFSET ( 1, 0, .AHEAD. ) ;
#253 = ORIENTED_EDGE ( 'NONE', *, *, #334, .F. ) ;
#254 = DATE_AND_TIME ( #160, #26 ) ;
#255 = CARTESIAN_POINT ( 'NONE',  ( 0.000000000000000000, 0.000000000000000000, 78.00000000000000000 ) ) ;
#256 = FACE_OUTER_BOUND ( 'NONE', #235, .T. ) ;
#257 = DIRECTION ( 'NONE',  ( 1.000000000000000000, 0.000000000000000000, 0.000000000000000000 ) ) ;
#258 = ORIENTED_EDGE ( 'NONE', *, *, #265, .T. ) ;
#259 = CIRCLE ( 'NONE', #99, 0.2999999999999999334 ) ;
#260 = ORIENTED_EDGE ( 'NONE', *, *, #342, .F. ) ;
#261 = DIRECTION ( 'NONE',  ( 0.000000000000000000, 0.000000000000000000, 1.000000000000000000 ) ) ;
#262 = ORIENTED_EDGE ( 'NONE', *, *, #143, .T. ) ;
#263 = DIRECTION ( 'NONE',  ( -0.000000000000000000, -0.000000000000000000, -1.000000000000000000 ) ) ;
#264 = ORIENTED_EDGE ( 'NONE', *, *, #143, .F. ) ;
#265 = EDGE_CURVE ( 'NONE', #65, #304, #354, .T. ) ;
#266 = AXIS2_PLACEMENT_3D ( 'NONE', #255, #17, #367 ) ;
#267 = DIRECTION ( 'NONE',  ( 0.000000000000000000, 0.000000000000000000, -1.000000000000000000 ) ) ;
#268 = APPROVAL_PERSON_ORGANIZATION ( #106, #109, #133 ) ;
#269 = ORIENTED_EDGE ( 'NONE', *, *, #24, .F. ) ;
#270 = DIRECTION ( 'NONE',  ( 1.000000000000000000, 0.000000000000000000, -0.000000000000000000 ) ) ;
#271 = ORIENTED_EDGE ( 'NONE', *, *, #297, .F. ) ;
#272 = CARTESIAN_POINT ( 'NONE',  ( -1.250000000000000000, 0.000000000000000000, 78.00000000000000000 ) ) ;
#273 = PLANE ( 'NONE',  #155 ) ;
#274 = VERTEX_POINT ( 'NONE', #301 ) ;
#275 = EDGE_CURVE ( 'NONE', #181, #60, #2, .T. ) ;
#276 = AXIS2_PLACEMENT_3D ( 'NONE', #311, #278, #198 ) ;
#277 = FACE_OUTER_BOUND ( 'NONE', #369, .T. ) ;
#278 = DIRECTION ( 'NONE',  ( 0.000000000000000000, 0.000000000000000000, 1.000000000000000000 ) ) ;
#279 = CYLINDRICAL_SURFACE ( 'NONE', #194, 5.000000000000000000 ) ;
#280 = CARTESIAN_POINT ( 'NONE',  ( 0.000000000000000000, 0.000000000000000000, 78.00000000000000000 ) ) ;
#281 = CIRCLE ( 'NONE', #200, 2.500000000000000000 ) ;
#282 = AXIS2_PLACEMENT_3D ( 'NONE', #94, #246, #359 ) ;
#283 = APPLICATION_PROTOCOL_DEFINITION ( 'international standard', 'config_control_design', 1994, #62 ) ;
#284 = PRODUCT ( 'caa1', 'caa1', '', ( #76 ) ) ;
#285 = CYLINDRICAL_SURFACE ( 'NONE', #266, 1.250000000000000000 ) ;
#286 = DIRECTION ( 'NONE',  ( -0.000000000000000000, -0.000000000000000000, -1.000000000000000000 ) ) ;
#287 = CARTESIAN_POINT ( 'NONE',  ( -2.500000000000000000, 0.000000000000000000, 78.00000000000000000 ) ) ;
#288 = CIRCLE ( 'NONE', #236, 1.250000000000000000 ) ;
#289 = DIRECTION ( 'NONE',  ( 0.000000000000000000, 0.000000000000000000, -1.000000000000000000 ) ) ;
#290 = ORIENTED_EDGE ( 'NONE', *, *, #275, .T. ) ;
#291 = DIRECTION ( 'NONE',  ( 0.000000000000000000, -1.000000000000000000, 0.000000000000000000 ) ) ;
#292 = CARTESIAN_POINT ( 'NONE',  ( 0.000000000000000000, 0.000000000000000000, 0.000000000000000000 ) ) ;
#293 = EDGE_LOOP ( 'NONE', ( #314, #262 ) ) ;
#294 = AXIS2_PLACEMENT_3D ( 'NONE', #352, #291, #289 ) ;
#295 = ORIENTED_EDGE ( 'NONE', *, *, #138, .F. ) ;
#296 = DIRECTION ( 'NONE',  ( 0.000000000000000000, 0.000000000000000000, 1.000000000000000000 ) ) ;
#297 = EDGE_CURVE ( 'NONE', #29, #50, #259, .T. ) ;
#298 = CARTESIAN_POINT ( 'NONE',  ( 0.000000000000000000, 0.000000000000000000, 78.00000000000000000 ) ) ;
#299 = VERTEX_POINT ( 'NONE', #184 ) ;
#300 = PRODUCT_DEFINITION ( 'NEZNÁMÝ', '', #226, #31 ) ;
#301 = CARTESIAN_POINT ( 'NONE',  ( -1.250000000000000000, 0.000000000000000000, 78.00000000000000000 ) ) ;
#302 = EDGE_CURVE ( 'NONE', #274, #299, #131, .T. ) ;
#303 = DIRECTION ( 'NONE',  ( 1.000000000000000000, 0.000000000000000000, 0.000000000000000000 ) ) ;
#304 = VERTEX_POINT ( 'NONE', #103 ) ;
#305 = APPLICATION_CONTEXT ( 'configuration controlled 3d designs of mechanical parts and assemblies' ) ;
#306 = LINE ( 'NONE', #355, #35 ) ;
#307 = CARTESIAN_POINT ( 'NONE',  ( -2.500000000000000000, 0.000000000000000000, 78.00000000000000000 ) ) ;
#308 = APPROVAL_ROLE ( '' ) ;
#309 = PERSON ( 'NEURÈENÝ', 'NEURÈENÝ', 'NEURÈENÝ', ('NEURÈENÝ'), ('NEURÈENÝ'), ('NEURÈENÝ') ) ;
#310 = VERTEX_POINT ( 'NONE', #243 ) ;
#311 = CARTESIAN_POINT ( 'NONE',  ( 0.000000000000000000, 0.000000000000000000, 0.000000000000000000 ) ) ;
#312 = AXIS2_PLACEMENT_3D ( 'NONE', #3, #223, #32 ) ;
#313 = PERSON_AND_ORGANIZATION_ROLE ( 'creator' ) ;
#314 = ORIENTED_EDGE ( 'NONE', *, *, #168, .T. ) ;
#315 = LINE ( 'NONE', #365, #325 ) ;
#316 = APPROVAL ( #108, 'NEURÈENÝ' ) ;
#317 = CARTESIAN_POINT ( 'NONE',  ( 1.250000000000000000, 1.530808498934191571E-16, 0.000000000000000000 ) ) ;
#318 = ORIENTED_EDGE ( 'NONE', *, *, #9, .F. ) ;
#319 = CIRCLE ( 'NONE', #294, 0.2999999999999999334 ) ;
#320 = DIRECTION ( 'NONE',  ( 0.000000000000000000, 0.000000000000000000, 1.000000000000000000 ) ) ;
#321 = EDGE_LOOP ( 'NONE', ( #269, #23, #115, #47 ) ) ;
#322 = ADVANCED_FACE ( 'NONE', ( #127 ), #83, .F. ) ;
#323 = CARTESIAN_POINT ( 'NONE',  ( 0.000000000000000000, 0.000000000000000000, 78.00000000000000000 ) ) ;
#324 = DIRECTION ( 'NONE',  ( 1.000000000000000000, 0.000000000000000000, 0.000000000000000000 ) ) ;
#325 = VECTOR ( 'NONE', #105, 1000.000000000000000 ) ;
#326 = EDGE_LOOP ( 'NONE', ( #206, #241, #158, #228 ) ) ;
#327 = CARTESIAN_POINT ( 'NONE',  ( 0.000000000000000000, 0.000000000000000000, 78.00000000000000000 ) ) ;
#328 = ORIENTED_EDGE ( 'NONE', *, *, #208, .T. ) ;
#329 = ADVANCED_FACE ( 'NONE', ( #245, #222 ), #33, .T. ) ;
#330 = LINE ( 'NONE', #362, #21 ) ;
#331 = CIRCLE ( 'NONE', #345, 2.500000000000000000 ) ;
#332 = ORIENTED_EDGE ( 'NONE', *, *, #302, .F. ) ;
#333 = DATE_AND_TIME ( #370, #75 ) ;
#334 = EDGE_CURVE ( 'NONE', #153, #29, #331, .T. ) ;
#335 = AXIS2_PLACEMENT_3D ( 'NONE', #182, #152, #217 ) ;
#336 = ORIENTED_EDGE ( 'NONE', *, *, #171, .T. ) ;
#337 = LOCAL_TIME ( 11, 18, 56.00000000000000000, #252 ) ;
#338 = APPROVAL_STATUS ( 'not_yet_approved' ) ;
#339 = ORIENTED_EDGE ( 'NONE', *, *, #98, .T. ) ;
#340 =( LENGTH_UNIT ( ) NAMED_UNIT ( * ) SI_UNIT ( .MILLI., .METRE. ) );
#341 = LINE ( 'NONE', #165, #148 ) ;
#342 = EDGE_CURVE ( 'NONE', #310, #153, #306, .T. ) ;
#343 = PERSON_AND_ORGANIZATION_ROLE ( 'creator' ) ;
#344 = CIRCLE ( 'NONE', #40, 2.500000000000000000 ) ;
#345 = AXIS2_PLACEMENT_3D ( 'NONE', #157, #70, #191 ) ;
#346 = AXIS2_PLACEMENT_3D ( 'NONE', #298, #267, #95 ) ;
#347 = CARTESIAN_POINT ( 'NONE',  ( -2.799999999999999822, 3.429011037612589276E-16, 2.999999999999998668 ) ) ;
#348 = CARTESIAN_POINT ( 'NONE',  ( 0.000000000000000000, 0.000000000000000000, 78.00000000000000000 ) ) ;
#349 = ADVANCED_FACE ( 'NONE', ( #67, #124 ), #273, .F. ) ;
#350 = AXIS2_PLACEMENT_3D ( 'NONE', #142, #251, #54 ) ;
#351 = CYLINDRICAL_SURFACE ( 'NONE', #371, 5.000000000000000000 ) ;
#352 = CARTESIAN_POINT ( 'NONE',  ( 2.799999999999999822, 0.000000000000000000, 3.299999999999997158 ) ) ;
#353 = ORIENTED_EDGE ( 'NONE', *, *, #126, .T. ) ;
#354 = CIRCLE ( 'NONE', #174, 5.000000000000000000 ) ;
#355 = CARTESIAN_POINT ( 'NONE',  ( 2.500000000000000000, 3.061616997868383141E-16, 78.00000000000000000 ) ) ;
#356 = CYLINDRICAL_SURFACE ( 'NONE', #346, 1.250000000000000000 ) ;
#357 = FACE_OUTER_BOUND ( 'NONE', #6, .T. ) ;
#358 = AXIS2_PLACEMENT_3D ( 'NONE', #292, #173, #377 ) ;
#359 = DIRECTION ( 'NONE',  ( 1.000000000000000000, 0.000000000000000000, -0.000000000000000000 ) ) ;
#360 = ORGANIZATION ( 'NEURÈENÝ', 'NEURÈENÝ', '' ) ;
#361 = CC_DESIGN_PERSON_AND_ORGANIZATION_ASSIGNMENT ( #112, #313, ( #300 ) ) ;
#362 = CARTESIAN_POINT ( 'NONE',  ( 5.000000000000000000, 6.123233995736766282E-16, 3.000000000000000000 ) ) ;
#363 = ORIENTED_EDGE ( 'NONE', *, *, #9, .T. ) ;
#364 = DATE_AND_TIME ( #72, #337 ) ;
#365 = CARTESIAN_POINT ( 'NONE',  ( 1.250000000000000000, 1.530808498934191571E-16, 78.00000000000000000 ) ) ;
#366 = PERSON_AND_ORGANIZATION_ROLE ( 'classification_officer' ) ;
#367 = DIRECTION ( 'NONE',  ( -1.000000000000000000, 0.000000000000000000, 0.000000000000000000 ) ) ;
#368 = DATE_AND_TIME ( #110, #187 ) ;
#369 = EDGE_LOOP ( 'NONE', ( #218, #71, #363, #332 ) ) ;
#370 = CALENDAR_DATE ( 2022, 10, 7 ) ;
#371 = AXIS2_PLACEMENT_3D ( 'NONE', #118, #117, #91 ) ;
#372 = FACE_OUTER_BOUND ( 'NONE', #321, .T. ) ;
#373 = DIRECTION ( 'NONE',  ( 1.000000000000000000, 0.000000000000000000, 0.000000000000000000 ) ) ;
#374 = VERTEX_POINT ( 'NONE', #151 ) ;
#375 = AXIS2_PLACEMENT_3D ( 'NONE', #204, #263, #100 ) ;
#376 = LOCAL_TIME ( 11, 18, 56.00000000000000000, #132 ) ;
#377 = DIRECTION ( 'NONE',  ( 1.000000000000000000, 0.000000000000000000, 0.000000000000000000 ) ) ;
#378 = FACE_OUTER_BOUND ( 'NONE', #36, .T. ) ;
#379 = ORIENTED_EDGE ( 'NONE', *, *, #302, .T. ) ;
#380 = ADVANCED_FACE ( 'NONE', ( #381 ), #356, .F. ) ;
#381 = FACE_OUTER_BOUND ( 'NONE', #220, .T. ) ;
ENDSEC;
END-ISO-10303-21;
