ISO-10303-21;
HEADER;
FILE_DESCRIPTION (( 'STEP AP203' ),
    '1' );
FILE_NAME ('d61c.STEP',
    '2022-07-10T09:15:35',
    ( '' ),
    ( '' ),
    'SwSTEP 2.0',
    'SolidWorks 2019',
    '' );
FILE_SCHEMA (( 'CONFIG_CONTROL_DESIGN' ));
ENDSEC;

DATA;
#1 = EDGE_LOOP ( 'NONE', ( #206, #191, #91, #79 ) ) ;
#2 = COORDINATED_UNIVERSAL_TIME_OFFSET ( 1, 0, .AHEAD. ) ;
#3 = FACE_OUTER_BOUND ( 'NONE', #225, .T. ) ;
#4 = VERTEX_POINT ( 'NONE', #12 ) ;
#5 = AXIS2_PLACEMENT_3D ( 'NONE', #135, #241, #298 ) ;
#6 = AXIS2_PLACEMENT_3D ( 'NONE', #86, #90, #317 ) ;
#7 = DATE_AND_TIME ( #246, #88 ) ;
#8 = CALENDAR_DATE ( 2022, 10, 7 ) ;
#9 = LINE ( 'NONE', #59, #331 ) ;
#10 = CARTESIAN_POINT ( 'NONE',  ( 0.000000000000000000, 0.000000000000000000, 5.000000000000000000 ) ) ;
#11 = CARTESIAN_POINT ( 'NONE',  ( 0.000000000000000000, 0.000000000000000000, 105.0000000000000142 ) ) ;
#12 = CARTESIAN_POINT ( 'NONE',  ( -3.300000000000000266, 4.041334437186266003E-16, 4.999999999999999112 ) ) ;
#13 = FACE_OUTER_BOUND ( 'NONE', #243, .T. ) ;
#14 = CIRCLE ( 'NONE', #5, 6.000000000000000888 ) ;
#15 = LOCAL_TIME ( 11, 15, 35.00000000000000000, #200 ) ;
#16 = DIRECTION ( 'NONE',  ( 0.000000000000000000, 0.000000000000000000, -1.000000000000000000 ) ) ;
#17 = ADVANCED_BREP_SHAPE_REPRESENTATION ( 'd61c', ( #255, #239 ), #35 ) ;
#18 = COORDINATED_UNIVERSAL_TIME_OFFSET ( 1, 0, .AHEAD. ) ;
#19 = ADVANCED_FACE ( 'NONE', ( #364 ), #328, .F. ) ;
#20 = DIRECTION ( 'NONE',  ( 1.000000000000000000, 0.000000000000000000, 0.000000000000000000 ) ) ;
#21 = CC_DESIGN_APPROVAL ( #36, ( #169 ) ) ;
#22 = CC_DESIGN_PERSON_AND_ORGANIZATION_ASSIGNMENT ( #380, #119, ( #295 ) ) ;
#23 = VERTEX_POINT ( 'NONE', #300 ) ;
#24 = EDGE_CURVE ( 'NONE', #136, #194, #87, .T. ) ;
#25 = EDGE_CURVE ( 'NONE', #358, #288, #330, .T. ) ;
#26 = APPROVAL_PERSON_ORGANIZATION ( #144, #146, #221 ) ;
#27 = CYLINDRICAL_SURFACE ( 'NONE', #208, 6.000000000000000888 ) ;
#28 = EDGE_LOOP ( 'NONE', ( #316, #269 ) ) ;
#29 = DATE_AND_TIME ( #322, #143 ) ;
#30 = DIRECTION ( 'NONE',  ( 0.000000000000000000, 0.000000000000000000, 1.000000000000000000 ) ) ;
#31 = DATE_AND_TIME ( #96, #15 ) ;
#32 = DIRECTION ( 'NONE',  ( -0.000000000000000000, -0.000000000000000000, -1.000000000000000000 ) ) ;
#33 = VERTEX_POINT ( 'NONE', #129 ) ;
#34 = VECTOR ( 'NONE', #158, 1000.000000000000000 ) ;
#35 =( GEOMETRIC_REPRESENTATION_CONTEXT ( 3 ) GLOBAL_UNCERTAINTY_ASSIGNED_CONTEXT ( ( #141 ) ) GLOBAL_UNIT_ASSIGNED_CONTEXT ( ( #361, #333, #48 ) ) REPRESENTATION_CONTEXT ( 'NONE', 'WORKASPACE' ) );
#36 = APPROVAL ( #276, 'NEURÈENÝ' ) ;
#37 = EDGE_LOOP ( 'NONE', ( #314, #254, #377, #325 ) ) ;
#38 = ORIENTED_EDGE ( 'NONE', *, *, #237, .T. ) ;
#39 = CARTESIAN_POINT ( 'NONE',  ( 0.000000000000000000, 0.000000000000000000, 105.0000000000000142 ) ) ;
#40 = DIRECTION ( 'NONE',  ( -1.000000000000000000, 0.000000000000000000, 0.000000000000000000 ) ) ;
#41 = AXIS2_PLACEMENT_3D ( 'NONE', #61, #201, #256 ) ;
#42 = DIRECTION ( 'NONE',  ( 0.000000000000000000, 0.000000000000000000, 1.000000000000000000 ) ) ;
#43 = ORIENTED_EDGE ( 'NONE', *, *, #248, .F. ) ;
#44 = DIRECTION ( 'NONE',  ( 1.000000000000000000, 0.000000000000000000, 0.000000000000000000 ) ) ;
#45 = DIRECTION ( 'NONE',  ( 1.224646799147353207E-16, 1.000000000000000000, -0.000000000000000000 ) ) ;
#46 = TOROIDAL_SURFACE ( 'NONE', #204, 3.300000000000000266, 0.2999999999999999889 ) ;
#47 = CC_DESIGN_APPROVAL ( #146, ( #295 ) ) ;
#48 =( NAMED_UNIT ( * ) SI_UNIT ( $, .STERADIAN. ) SOLID_ANGLE_UNIT ( ) );
#49 = CARTESIAN_POINT ( 'NONE',  ( 0.000000000000000000, 0.000000000000000000, 5.000000000000000000 ) ) ;
#50 = CARTESIAN_POINT ( 'NONE',  ( 3.000000000000000444, 3.673940397442060361E-16, 105.0000000000000142 ) ) ;
#51 = AXIS2_PLACEMENT_3D ( 'NONE', #233, #45, #268 ) ;
#52 = ORIENTED_EDGE ( 'NONE', *, *, #154, .T. ) ;
#53 = ORIENTED_EDGE ( 'NONE', *, *, #177, .T. ) ;
#54 = EDGE_CURVE ( 'NONE', #94, #180, #14, .T. ) ;
#55 = PERSON_AND_ORGANIZATION ( #113, #84 ) ;
#56 = EDGE_LOOP ( 'NONE', ( #327, #347, #53, #63 ) ) ;
#57 = CIRCLE ( 'NONE', #278, 1.750000000000000000 ) ;
#58 = APPROVAL_DATE_TIME ( #31, #146 ) ;
#59 = CARTESIAN_POINT ( 'NONE',  ( -6.000000000000000888, 0.000000000000000000, 5.000000000000000000 ) ) ;
#60 = EDGE_LOOP ( 'NONE', ( #147, #320 ) ) ;
#61 = CARTESIAN_POINT ( 'NONE',  ( 0.000000000000000000, 0.000000000000000000, 5.000000000000000000 ) ) ;
#62 = ORIENTED_EDGE ( 'NONE', *, *, #238, .F. ) ;
#63 = ORIENTED_EDGE ( 'NONE', *, *, #212, .F. ) ;
#64 = CIRCLE ( 'NONE', #287, 3.300000000000000266 ) ;
#65 = APPROVAL_DATE_TIME ( #29, #227 ) ;
#66 = VERTEX_POINT ( 'NONE', #240 ) ;
#67 = CC_DESIGN_PERSON_AND_ORGANIZATION_ASSIGNMENT ( #289, #250, ( #155 ) ) ;
#68 = ORIENTED_EDGE ( 'NONE', *, *, #264, .F. ) ;
#69 = CARTESIAN_POINT ( 'NONE',  ( -1.750000000000000000, 0.000000000000000000, 105.0000000000000142 ) ) ;
#70 = CARTESIAN_POINT ( 'NONE',  ( 6.000000000000000888, 7.347880794884120722E-16, 5.000000000000000000 ) ) ;
#71 = CLOSED_SHELL ( 'NONE', ( #112, #139, #280, #321, #223, #98, #218, #245, #149, #209, #19 ) ) ;
#72 = CIRCLE ( 'NONE', #188, 1.750000000000000000 ) ;
#73 = DIRECTION ( 'NONE',  ( 1.000000000000000000, 0.000000000000000000, 0.000000000000000000 ) ) ;
#74 = CYLINDRICAL_SURFACE ( 'NONE', #182, 6.000000000000000888 ) ;
#75 = AXIS2_PLACEMENT_3D ( 'NONE', #39, #299, #179 ) ;
#76 = FACE_BOUND ( 'NONE', #28, .T. ) ;
#77 = DIRECTION ( 'NONE',  ( 0.000000000000000000, 0.000000000000000000, 1.000000000000000000 ) ) ;
#78 = CC_DESIGN_PERSON_AND_ORGANIZATION_ASSIGNMENT ( #55, #163, ( #95 ) ) ;
#79 = ORIENTED_EDGE ( 'NONE', *, *, #235, .F. ) ;
#80 = MECHANICAL_CONTEXT ( 'NONE', #338, 'mechanical' ) ;
#81 = EDGE_CURVE ( 'NONE', #94, #288, #332, .T. ) ;
#82 = AXIS2_PLACEMENT_3D ( 'NONE', #263, #185, #214 ) ;
#83 = DIRECTION ( 'NONE',  ( -0.000000000000000000, -0.000000000000000000, -1.000000000000000000 ) ) ;
#84 = ORGANIZATION ( 'NEURÈENÝ', 'NEURÈENÝ', '' ) ;
#85 = ORIENTED_EDGE ( 'NONE', *, *, #128, .T. ) ;
#86 = CARTESIAN_POINT ( 'NONE',  ( 0.000000000000000000, 0.000000000000000000, 105.0000000000000142 ) ) ;
#87 = CIRCLE ( 'NONE', #116, 3.000000000000000444 ) ;
#88 = LOCAL_TIME ( 11, 15, 35.00000000000000000, #171 ) ;
#89 = PERSON_AND_ORGANIZATION ( #113, #84 ) ;
#90 = DIRECTION ( 'NONE',  ( -0.000000000000000000, -0.000000000000000000, -1.000000000000000000 ) ) ;
#91 = ORIENTED_EDGE ( 'NONE', *, *, #107, .T. ) ;
#92 = APPROVAL_DATE_TIME ( #371, #36 ) ;
#93 = DIRECTION ( 'NONE',  ( 1.000000000000000000, 0.000000000000000000, 0.000000000000000000 ) ) ;
#94 = VERTEX_POINT ( 'NONE', #70 ) ;
#95 = PRODUCT ( 'd61c', 'd61c', '', ( #80 ) ) ;
#96 = CALENDAR_DATE ( 2022, 10, 7 ) ;
#97 = AXIS2_PLACEMENT_3D ( 'NONE', #379, #77, #105 ) ;
#98 = ADVANCED_FACE ( 'NONE', ( #76, #260 ), #187, .T. ) ;
#99 = CC_DESIGN_PERSON_AND_ORGANIZATION_ASSIGNMENT ( #176, #228, ( #169 ) ) ;
#100 = ORIENTED_EDGE ( 'NONE', *, *, #367, .F. ) ;
#101 = CARTESIAN_POINT ( 'NONE',  ( 1.750000000000000000, 2.143131898507868297E-16, 0.000000000000000000 ) ) ;
#102 = DIRECTION ( 'NONE',  ( 0.000000000000000000, 0.000000000000000000, 1.000000000000000000 ) ) ;
#103 = CARTESIAN_POINT ( 'NONE',  ( -1.750000000000000000, 0.000000000000000000, 0.000000000000000000 ) ) ;
#104 = APPROVAL_PERSON_ORGANIZATION ( #369, #36, #213 ) ;
#105 = DIRECTION ( 'NONE',  ( 1.000000000000000000, 0.000000000000000000, -0.000000000000000000 ) ) ;
#106 = ORIENTED_EDGE ( 'NONE', *, *, #25, .T. ) ;
#107 = EDGE_CURVE ( 'NONE', #121, #66, #286, .T. ) ;
#108 = PLANE ( 'NONE',  #97 ) ;
#109 = AXIS2_PLACEMENT_3D ( 'NONE', #115, #230, #93 ) ;
#110 = ORIENTED_EDGE ( 'NONE', *, *, #192, .F. ) ;
#111 = CC_DESIGN_PERSON_AND_ORGANIZATION_ASSIGNMENT ( #89, #203, ( #295 ) ) ;
#112 = ADVANCED_FACE ( 'NONE', ( #370 ), #337, .F. ) ;
#113 = PERSON ( 'NEURÈENÝ', 'NEURÈENÝ', 'NEURÈENÝ', ('NEURÈENÝ'), ('NEURÈENÝ'), ('NEURÈENÝ') ) ;
#114 = VERTEX_POINT ( 'NONE', #103 ) ;
#115 = CARTESIAN_POINT ( 'NONE',  ( 0.000000000000000000, 0.000000000000000000, 105.0000000000000142 ) ) ;
#116 = AXIS2_PLACEMENT_3D ( 'NONE', #134, #102, #73 ) ;
#117 = ORIENTED_EDGE ( 'NONE', *, *, #365, .T. ) ;
#118 = CIRCLE ( 'NONE', #315, 3.000000000000000444 ) ;
#119 = PERSON_AND_ORGANIZATION_ROLE ( 'design_supplier' ) ;
#120 = CARTESIAN_POINT ( 'NONE',  ( 0.000000000000000000, 0.000000000000000000, 5.000000000000000000 ) ) ;
#121 = VERTEX_POINT ( 'NONE', #360 ) ;
#122 = PLANE ( 'NONE',  #267 ) ;
#123 = DIRECTION ( 'NONE',  ( 1.000000000000000000, 0.000000000000000000, 0.000000000000000000 ) ) ;
#124 = ORIENTED_EDGE ( 'NONE', *, *, #170, .T. ) ;
#125 = LOCAL_TIME ( 11, 15, 35.00000000000000000, #18 ) ;
#126 = DIRECTION ( 'NONE',  ( -1.000000000000000000, 0.000000000000000000, 0.000000000000000000 ) ) ;
#127 = DIRECTION ( 'NONE',  ( 0.000000000000000000, 0.000000000000000000, 1.000000000000000000 ) ) ;
#128 = EDGE_CURVE ( 'NONE', #284, #114, #211, .T. ) ;
#129 = CARTESIAN_POINT ( 'NONE',  ( 1.750000000000000000, 2.143131898507868297E-16, 105.0000000000000142 ) ) ;
#130 = DIRECTION ( 'NONE',  ( 1.000000000000000000, 0.000000000000000000, 0.000000000000000000 ) ) ;
#131 = AXIS2_PLACEMENT_3D ( 'NONE', #183, #234, #159 ) ;
#132 = CIRCLE ( 'NONE', #41, 6.000000000000000888 ) ;
#133 = DIRECTION ( 'NONE',  ( 0.000000000000000000, 0.000000000000000000, 1.000000000000000000 ) ) ;
#134 = CARTESIAN_POINT ( 'NONE',  ( 0.000000000000000000, 0.000000000000000000, 105.0000000000000142 ) ) ;
#135 = CARTESIAN_POINT ( 'NONE',  ( 0.000000000000000000, 0.000000000000000000, 5.000000000000000000 ) ) ;
#136 = VERTEX_POINT ( 'NONE', #294 ) ;
#137 = AXIS2_PLACEMENT_3D ( 'NONE', #152, #381, #349 ) ;
#138 = DIRECTION ( 'NONE',  ( 1.000000000000000000, 0.000000000000000000, 0.000000000000000000 ) ) ;
#139 = ADVANCED_FACE ( 'NONE', ( #301 ), #46, .F. ) ;
#140 = DIRECTION ( 'NONE',  ( 1.000000000000000000, 0.000000000000000000, 0.000000000000000000 ) ) ;
#141 = UNCERTAINTY_MEASURE_WITH_UNIT (LENGTH_MEASURE( 1.000000000000000082E-05 ), #361, 'distance_accuracy_value', 'NONE');
#142 = ORIENTED_EDGE ( 'NONE', *, *, #107, .F. ) ;
#143 = LOCAL_TIME ( 11, 15, 35.00000000000000000, #2 ) ;
#144 = PERSON_AND_ORGANIZATION ( #113, #84 ) ;
#145 = CARTESIAN_POINT ( 'NONE',  ( 0.000000000000000000, 0.000000000000000000, 5.299999999999998934 ) ) ;
#146 = APPROVAL ( #222, 'NEURÈENÝ' ) ;
#147 = ORIENTED_EDGE ( 'NONE', *, *, #25, .F. ) ;
#148 = CIRCLE ( 'NONE', #309, 3.000000000000000444 ) ;
#149 = ADVANCED_FACE ( 'NONE', ( #164, #277 ), #108, .T. ) ;
#150 = FACE_OUTER_BOUND ( 'NONE', #60, .T. ) ;
#151 = ORIENTED_EDGE ( 'NONE', *, *, #205, .F. ) ;
#152 = CARTESIAN_POINT ( 'NONE',  ( 0.000000000000000000, 0.000000000000000000, 5.299999999999998934 ) ) ;
#153 = LINE ( 'NONE', #210, #345 ) ;
#154 = EDGE_CURVE ( 'NONE', #136, #23, #215, .T. ) ;
#155 = SECURITY_CLASSIFICATION ( '', '', #249 ) ;
#156 = DIRECTION ( 'NONE',  ( -0.000000000000000000, -0.000000000000000000, -1.000000000000000000 ) ) ;
#157 = DIRECTION ( 'NONE',  ( 1.000000000000000000, 0.000000000000000000, 0.000000000000000000 ) ) ;
#158 = DIRECTION ( 'NONE',  ( -0.000000000000000000, -0.000000000000000000, -1.000000000000000000 ) ) ;
#159 = DIRECTION ( 'NONE',  ( 0.000000000000000000, 0.000000000000000000, -1.000000000000000000 ) ) ;
#160 = AXIS2_PLACEMENT_3D ( 'NONE', #266, #16, #366 ) ;
#161 = AXIS2_PLACEMENT_3D ( 'NONE', #145, #30, #290 ) ;
#162 = CARTESIAN_POINT ( 'NONE',  ( 0.000000000000000000, 0.000000000000000000, 0.000000000000000000 ) ) ;
#163 = PERSON_AND_ORGANIZATION_ROLE ( 'design_owner' ) ;
#164 = FACE_BOUND ( 'NONE', #342, .T. ) ;
#165 = EDGE_CURVE ( 'NONE', #114, #252, #57, .T. ) ;
#166 = DIRECTION ( 'NONE',  ( 0.000000000000000000, 0.000000000000000000, 1.000000000000000000 ) ) ;
#167 = AXIS2_PLACEMENT_3D ( 'NONE', #162, #127, #44 ) ;
#168 = CIRCLE ( 'NONE', #109, 1.750000000000000000 ) ;
#169 = PRODUCT_DEFINITION ( 'NEZNÁMÝ', '', #295, #217 ) ;
#170 = EDGE_CURVE ( 'NONE', #194, #121, #308, .T. ) ;
#171 = COORDINATED_UNIVERSAL_TIME_OFFSET ( 1, 0, .AHEAD. ) ;
#172 = DIRECTION ( 'NONE',  ( 0.000000000000000000, 0.000000000000000000, 1.000000000000000000 ) ) ;
#173 = ORIENTED_EDGE ( 'NONE', *, *, #367, .T. ) ;
#174 = CARTESIAN_POINT ( 'NONE',  ( 0.000000000000000000, 0.000000000000000000, 5.000000000000000000 ) ) ;
#175 = ORIENTED_EDGE ( 'NONE', *, *, #81, .F. ) ;
#176 = PERSON_AND_ORGANIZATION ( #113, #84 ) ;
#177 = EDGE_CURVE ( 'NONE', #288, #358, #261, .T. ) ;
#178 = EDGE_LOOP ( 'NONE', ( #311, #68 ) ) ;
#179 = DIRECTION ( 'NONE',  ( -1.000000000000000000, 0.000000000000000000, 0.000000000000000000 ) ) ;
#180 = VERTEX_POINT ( 'NONE', #273 ) ;
#181 = CARTESIAN_POINT ( 'NONE',  ( -1.750000000000000000, 0.000000000000000000, 105.0000000000000142 ) ) ;
#182 = AXIS2_PLACEMENT_3D ( 'NONE', #10, #236, #126 ) ;
#183 = CARTESIAN_POINT ( 'NONE',  ( 3.300000000000000266, 0.000000000000000000, 5.299999999999998934 ) ) ;
#184 = PRODUCT_DEFINITION_SHAPE ( 'NONE', 'NONE',  #169 ) ;
#185 = DIRECTION ( 'NONE',  ( 0.000000000000000000, 0.000000000000000000, 1.000000000000000000 ) ) ;
#186 = CARTESIAN_POINT ( 'NONE',  ( -6.000000000000000888, 0.000000000000000000, 0.000000000000000000 ) ) ;
#187 = PLANE ( 'NONE',  #82 ) ;
#188 = AXIS2_PLACEMENT_3D ( 'NONE', #362, #133, #130 ) ;
#189 = DIRECTION ( 'NONE',  ( 0.000000000000000000, 0.000000000000000000, 1.000000000000000000 ) ) ;
#190 = DIRECTION ( 'NONE',  ( -0.000000000000000000, -0.000000000000000000, -1.000000000000000000 ) ) ;
#191 = ORIENTED_EDGE ( 'NONE', *, *, #237, .F. ) ;
#192 = EDGE_CURVE ( 'NONE', #194, #136, #148, .T. ) ;
#193 = DIRECTION ( 'NONE',  ( 0.000000000000000000, 0.000000000000000000, 1.000000000000000000 ) ) ;
#194 = VERTEX_POINT ( 'NONE', #306 ) ;
#195 = CC_DESIGN_DATE_AND_TIME_ASSIGNMENT ( #7, #351, ( #169 ) ) ;
#196 = COORDINATED_UNIVERSAL_TIME_OFFSET ( 1, 0, .AHEAD. ) ;
#197 = ORIENTED_EDGE ( 'NONE', *, *, #165, .T. ) ;
#198 = DATE_TIME_ROLE ( 'classification_date' ) ;
#199 = ORIENTED_EDGE ( 'NONE', *, *, #313, .F. ) ;
#200 = COORDINATED_UNIVERSAL_TIME_OFFSET ( 1, 0, .AHEAD. ) ;
#201 = DIRECTION ( 'NONE',  ( 0.000000000000000000, 0.000000000000000000, 1.000000000000000000 ) ) ;
#202 = ORIENTED_EDGE ( 'NONE', *, *, #212, .T. ) ;
#203 = PERSON_AND_ORGANIZATION_ROLE ( 'creator' ) ;
#204 = AXIS2_PLACEMENT_3D ( 'NONE', #244, #193, #140 ) ;
#205 = EDGE_CURVE ( 'NONE', #66, #4, #64, .T. ) ;
#206 = ORIENTED_EDGE ( 'NONE', *, *, #365, .F. ) ;
#207 = DIRECTION ( 'NONE',  ( 1.000000000000000000, 0.000000000000000000, 0.000000000000000000 ) ) ;
#208 = AXIS2_PLACEMENT_3D ( 'NONE', #174, #32, #355 ) ;
#209 = ADVANCED_FACE ( 'NONE', ( #279 ), #357, .F. ) ;
#210 = CARTESIAN_POINT ( 'NONE',  ( 1.750000000000000000, 2.143131898507868297E-16, 105.0000000000000142 ) ) ;
#211 = LINE ( 'NONE', #181, #323 ) ;
#212 = EDGE_CURVE ( 'NONE', #180, #358, #9, .T. ) ;
#213 = APPROVAL_ROLE ( '' ) ;
#214 = DIRECTION ( 'NONE',  ( 1.000000000000000000, 0.000000000000000000, -0.000000000000000000 ) ) ;
#215 = LINE ( 'NONE', #346, #302 ) ;
#216 = EDGE_LOOP ( 'NONE', ( #356, #374 ) ) ;
#217 = DESIGN_CONTEXT ( 'detailed design', #359, 'design' ) ;
#218 = ADVANCED_FACE ( 'NONE', ( #319, #150 ), #122, .F. ) ;
#219 = AXIS2_PLACEMENT_3D ( 'NONE', #326, #156, #207 ) ;
#220 = CARTESIAN_POINT ( 'NONE',  ( 0.000000000000000000, 0.000000000000000000, 0.000000000000000000 ) ) ;
#221 = APPROVAL_ROLE ( '' ) ;
#222 = APPROVAL_STATUS ( 'not_yet_approved' ) ;
#223 = ADVANCED_FACE ( 'NONE', ( #3 ), #27, .T. ) ;
#224 = FACE_OUTER_BOUND ( 'NONE', #274, .T. ) ;
#225 = EDGE_LOOP ( 'NONE', ( #175, #43, #202, #106 ) ) ;
#226 = ORIENTED_EDGE ( 'NONE', *, *, #24, .F. ) ;
#227 = APPROVAL ( #348, 'NEURÈENÝ' ) ;
#228 = PERSON_AND_ORGANIZATION_ROLE ( 'creator' ) ;
#229 = ORIENTED_EDGE ( 'NONE', *, *, #170, .F. ) ;
#230 = DIRECTION ( 'NONE',  ( 0.000000000000000000, 0.000000000000000000, 1.000000000000000000 ) ) ;
#231 = ORIENTED_EDGE ( 'NONE', *, *, #296, .T. ) ;
#232 = CC_DESIGN_APPROVAL ( #227, ( #155 ) ) ;
#233 = CARTESIAN_POINT ( 'NONE',  ( -3.300000000000000266, 4.041334437186266003E-16, 5.299999999999998934 ) ) ;
#234 = DIRECTION ( 'NONE',  ( 0.000000000000000000, -1.000000000000000000, 0.000000000000000000 ) ) ;
#235 = EDGE_CURVE ( 'NONE', #4, #66, #324, .T. ) ;
#236 = DIRECTION ( 'NONE',  ( -0.000000000000000000, -0.000000000000000000, -1.000000000000000000 ) ) ;
#237 = EDGE_CURVE ( 'NONE', #121, #23, #350, .T. ) ;
#238 = EDGE_CURVE ( 'NONE', #284, #33, #168, .T. ) ;
#239 = AXIS2_PLACEMENT_3D ( 'NONE', #373, #305, #20 ) ;
#240 = CARTESIAN_POINT ( 'NONE',  ( 3.300000000000000266, 0.000000000000000000, 4.999999999999999112 ) ) ;
#241 = DIRECTION ( 'NONE',  ( 0.000000000000000000, 0.000000000000000000, 1.000000000000000000 ) ) ;
#242 = VECTOR ( 'NONE', #83, 1000.000000000000000 ) ;
#243 = EDGE_LOOP ( 'NONE', ( #110, #124, #38, #354 ) ) ;
#244 = CARTESIAN_POINT ( 'NONE',  ( 0.000000000000000000, 0.000000000000000000, 5.299999999999998934 ) ) ;
#245 = ADVANCED_FACE ( 'NONE', ( #224 ), #353, .T. ) ;
#246 = CALENDAR_DATE ( 2022, 10, 7 ) ;
#247 = LOCAL_TIME ( 11, 15, 35.00000000000000000, #196 ) ;
#248 = EDGE_CURVE ( 'NONE', #180, #94, #132, .T. ) ;
#249 = SECURITY_CLASSIFICATION_LEVEL ( 'unclassified' ) ;
#250 = PERSON_AND_ORGANIZATION_ROLE ( 'classification_officer' ) ;
#251 = CARTESIAN_POINT ( 'NONE',  ( 0.000000000000000000, 0.000000000000000000, 0.000000000000000000 ) ) ;
#252 = VERTEX_POINT ( 'NONE', #101 ) ;
#253 = CIRCLE ( 'NONE', #219, 1.750000000000000000 ) ;
#254 = ORIENTED_EDGE ( 'NONE', *, *, #313, .T. ) ;
#255 = MANIFOLD_SOLID_BREP ( 'Odebrat vysunutím3', #71 ) ;
#256 = DIRECTION ( 'NONE',  ( 1.000000000000000000, 0.000000000000000000, 0.000000000000000000 ) ) ;
#257 = DIRECTION ( 'NONE',  ( -0.000000000000000000, -0.000000000000000000, -1.000000000000000000 ) ) ;
#258 = EDGE_LOOP ( 'NONE', ( #376, #344 ) ) ;
#259 = FACE_OUTER_BOUND ( 'NONE', #56, .T. ) ;
#260 = FACE_OUTER_BOUND ( 'NONE', #258, .T. ) ;
#261 = CIRCLE ( 'NONE', #372, 6.000000000000000888 ) ;
#262 = DIRECTION ( 'NONE',  ( 0.000000000000000000, 0.000000000000000000, -1.000000000000000000 ) ) ;
#263 = CARTESIAN_POINT ( 'NONE',  ( 0.000000000000000000, 0.000000000000000000, 5.000000000000000000 ) ) ;
#264 = EDGE_CURVE ( 'NONE', #252, #114, #253, .T. ) ;
#265 = DIRECTION ( 'NONE',  ( 0.000000000000000000, 0.000000000000000000, -1.000000000000000000 ) ) ;
#266 = CARTESIAN_POINT ( 'NONE',  ( 0.000000000000000000, 0.000000000000000000, 105.0000000000000142 ) ) ;
#267 = AXIS2_PLACEMENT_3D ( 'NONE', #251, #172, #283 ) ;
#268 = DIRECTION ( 'NONE',  ( -1.000000000000000000, 1.224646799147353207E-16, 0.000000000000000000 ) ) ;
#269 = ORIENTED_EDGE ( 'NONE', *, *, #235, .T. ) ;
#270 = APPLICATION_PROTOCOL_DEFINITION ( 'international standard', 'config_control_design', 1994, #359 ) ;
#271 = DIRECTION ( 'NONE',  ( -0.000000000000000000, -0.000000000000000000, -1.000000000000000000 ) ) ;
#272 = CIRCLE ( 'NONE', #51, 0.2999999999999999334 ) ;
#273 = CARTESIAN_POINT ( 'NONE',  ( -6.000000000000000888, 0.000000000000000000, 5.000000000000000000 ) ) ;
#274 = EDGE_LOOP ( 'NONE', ( #229, #226, #52, #173 ) ) ;
#275 = CARTESIAN_POINT ( 'NONE',  ( 0.000000000000000000, 0.000000000000000000, 105.0000000000000142 ) ) ;
#276 = APPROVAL_STATUS ( 'not_yet_approved' ) ;
#277 = FACE_OUTER_BOUND ( 'NONE', #216, .T. ) ;
#278 = AXIS2_PLACEMENT_3D ( 'NONE', #343, #341, #138 ) ;
#279 = FACE_OUTER_BOUND ( 'NONE', #1, .T. ) ;
#280 = ADVANCED_FACE ( 'NONE', ( #13 ), #329, .T. ) ;
#281 = APPROVAL_ROLE ( '' ) ;
#282 = DIRECTION ( 'NONE',  ( -0.000000000000000000, -0.000000000000000000, -1.000000000000000000 ) ) ;
#283 = DIRECTION ( 'NONE',  ( 1.000000000000000000, 0.000000000000000000, -0.000000000000000000 ) ) ;
#284 = VERTEX_POINT ( 'NONE', #69 ) ;
#285 = DATE_AND_TIME ( #8, #247 ) ;
#286 = CIRCLE ( 'NONE', #131, 0.2999999999999999334 ) ;
#287 = AXIS2_PLACEMENT_3D ( 'NONE', #49, #271, #310 ) ;
#288 = VERTEX_POINT ( 'NONE', #297 ) ;
#289 = PERSON_AND_ORGANIZATION ( #113, #84 ) ;
#290 = DIRECTION ( 'NONE',  ( 1.000000000000000000, 0.000000000000000000, 0.000000000000000000 ) ) ;
#291 = EDGE_LOOP ( 'NONE', ( #199, #231, #85, #197 ) ) ;
#292 = CARTESIAN_POINT ( 'NONE',  ( 0.000000000000000000, 0.000000000000000000, 5.299999999999998934 ) ) ;
#293 = AXIS2_PLACEMENT_3D ( 'NONE', #11, #265, #40 ) ;
#294 = CARTESIAN_POINT ( 'NONE',  ( -3.000000000000000444, 0.000000000000000000, 105.0000000000000142 ) ) ;
#295 = PRODUCT_DEFINITION_FORMATION_WITH_SPECIFIED_SOURCE ( 'LIBOVOLNÝ', '', #95, .NOT_KNOWN. ) ;
#296 = EDGE_CURVE ( 'NONE', #33, #284, #72, .T. ) ;
#297 = CARTESIAN_POINT ( 'NONE',  ( 6.000000000000000888, 7.347880794884120722E-16, 0.000000000000000000 ) ) ;
#298 = DIRECTION ( 'NONE',  ( 1.000000000000000000, 0.000000000000000000, 0.000000000000000000 ) ) ;
#299 = DIRECTION ( 'NONE',  ( -0.000000000000000000, -0.000000000000000000, -1.000000000000000000 ) ) ;
#300 = CARTESIAN_POINT ( 'NONE',  ( -3.000000000000000444, 0.000000000000000000, 5.299999999999998934 ) ) ;
#301 = FACE_OUTER_BOUND ( 'NONE', #352, .T. ) ;
#302 = VECTOR ( 'NONE', #190, 1000.000000000000000 ) ;
#303 = APPROVAL_PERSON_ORGANIZATION ( #378, #227, #281 ) ;
#304 = DIRECTION ( 'NONE',  ( 1.000000000000000000, 0.000000000000000000, 0.000000000000000000 ) ) ;
#305 = DIRECTION ( 'NONE',  ( 0.000000000000000000, 0.000000000000000000, 1.000000000000000000 ) ) ;
#306 = CARTESIAN_POINT ( 'NONE',  ( 3.000000000000000444, 3.673940397442060361E-16, 105.0000000000000142 ) ) ;
#307 = CALENDAR_DATE ( 2022, 10, 7 ) ;
#308 = LINE ( 'NONE', #50, #242 ) ;
#309 = AXIS2_PLACEMENT_3D ( 'NONE', #275, #166, #304 ) ;
#310 = DIRECTION ( 'NONE',  ( 1.000000000000000000, 0.000000000000000000, 0.000000000000000000 ) ) ;
#311 = ORIENTED_EDGE ( 'NONE', *, *, #165, .F. ) ;
#312 = SHAPE_DEFINITION_REPRESENTATION ( #184, #17 ) ;
#313 = EDGE_CURVE ( 'NONE', #33, #252, #153, .T. ) ;
#314 = ORIENTED_EDGE ( 'NONE', *, *, #238, .T. ) ;
#315 = AXIS2_PLACEMENT_3D ( 'NONE', #292, #42, #157 ) ;
#316 = ORIENTED_EDGE ( 'NONE', *, *, #205, .T. ) ;
#317 = DIRECTION ( 'NONE',  ( -1.000000000000000000, 0.000000000000000000, 0.000000000000000000 ) ) ;
#318 = ORIENTED_EDGE ( 'NONE', *, *, #296, .F. ) ;
#319 = FACE_BOUND ( 'NONE', #178, .T. ) ;
#320 = ORIENTED_EDGE ( 'NONE', *, *, #177, .F. ) ;
#321 = ADVANCED_FACE ( 'NONE', ( #259 ), #74, .T. ) ;
#322 = CALENDAR_DATE ( 2022, 10, 7 ) ;
#323 = VECTOR ( 'NONE', #335, 1000.000000000000000 ) ;
#324 = CIRCLE ( 'NONE', #363, 3.300000000000000266 ) ;
#325 = ORIENTED_EDGE ( 'NONE', *, *, #128, .F. ) ;
#326 = CARTESIAN_POINT ( 'NONE',  ( 0.000000000000000000, 0.000000000000000000, 0.000000000000000000 ) ) ;
#327 = ORIENTED_EDGE ( 'NONE', *, *, #54, .F. ) ;
#328 = CYLINDRICAL_SURFACE ( 'NONE', #293, 1.750000000000000000 ) ;
#329 = CYLINDRICAL_SURFACE ( 'NONE', #75, 3.000000000000000444 ) ;
#330 = CIRCLE ( 'NONE', #167, 6.000000000000000888 ) ;
#331 = VECTOR ( 'NONE', #257, 1000.000000000000000 ) ;
#332 = LINE ( 'NONE', #334, #34 ) ;
#333 =( NAMED_UNIT ( * ) PLANE_ANGLE_UNIT ( ) SI_UNIT ( $, .RADIAN. ) );
#334 = CARTESIAN_POINT ( 'NONE',  ( 6.000000000000000888, 7.347880794884120722E-16, 5.000000000000000000 ) ) ;
#335 = DIRECTION ( 'NONE',  ( 0.000000000000000000, 0.000000000000000000, -1.000000000000000000 ) ) ;
#336 = APPLICATION_PROTOCOL_DEFINITION ( 'international standard', 'config_control_design', 1994, #338 ) ;
#337 = CYLINDRICAL_SURFACE ( 'NONE', #160, 1.750000000000000000 ) ;
#338 = APPLICATION_CONTEXT ( 'configuration controlled 3d designs of mechanical parts and assemblies' ) ;
#339 = CC_DESIGN_SECURITY_CLASSIFICATION ( #155, ( #295 ) ) ;
#340 = DIRECTION ( 'NONE',  ( 1.000000000000000000, 0.000000000000000000, 0.000000000000000000 ) ) ;
#341 = DIRECTION ( 'NONE',  ( -0.000000000000000000, -0.000000000000000000, -1.000000000000000000 ) ) ;
#342 = EDGE_LOOP ( 'NONE', ( #62, #318 ) ) ;
#343 = CARTESIAN_POINT ( 'NONE',  ( 0.000000000000000000, 0.000000000000000000, 0.000000000000000000 ) ) ;
#344 = ORIENTED_EDGE ( 'NONE', *, *, #54, .T. ) ;
#345 = VECTOR ( 'NONE', #262, 1000.000000000000000 ) ;
#346 = CARTESIAN_POINT ( 'NONE',  ( -3.000000000000000444, 0.000000000000000000, 105.0000000000000142 ) ) ;
#347 = ORIENTED_EDGE ( 'NONE', *, *, #81, .T. ) ;
#348 = APPROVAL_STATUS ( 'not_yet_approved' ) ;
#349 = DIRECTION ( 'NONE',  ( 1.000000000000000000, 0.000000000000000000, 0.000000000000000000 ) ) ;
#350 = CIRCLE ( 'NONE', #161, 3.000000000000000444 ) ;
#351 = DATE_TIME_ROLE ( 'creation_date' ) ;
#352 = EDGE_LOOP ( 'NONE', ( #100, #117, #151, #142 ) ) ;
#353 = CYLINDRICAL_SURFACE ( 'NONE', #6, 3.000000000000000444 ) ;
#354 = ORIENTED_EDGE ( 'NONE', *, *, #154, .F. ) ;
#355 = DIRECTION ( 'NONE',  ( -1.000000000000000000, 0.000000000000000000, 0.000000000000000000 ) ) ;
#356 = ORIENTED_EDGE ( 'NONE', *, *, #24, .T. ) ;
#357 = TOROIDAL_SURFACE ( 'NONE', #137, 3.300000000000000266, 0.2999999999999999889 ) ;
#358 = VERTEX_POINT ( 'NONE', #186 ) ;
#359 = APPLICATION_CONTEXT ( 'configuration controlled 3d designs of mechanical parts and assemblies' ) ;
#360 = CARTESIAN_POINT ( 'NONE',  ( 3.000000000000000444, 3.673940397442060361E-16, 5.299999999999998934 ) ) ;
#361 =( LENGTH_UNIT ( ) NAMED_UNIT ( * ) SI_UNIT ( .MILLI., .METRE. ) );
#362 = CARTESIAN_POINT ( 'NONE',  ( 0.000000000000000000, 0.000000000000000000, 105.0000000000000142 ) ) ;
#363 = AXIS2_PLACEMENT_3D ( 'NONE', #120, #282, #123 ) ;
#364 = FACE_OUTER_BOUND ( 'NONE', #291, .T. ) ;
#365 = EDGE_CURVE ( 'NONE', #23, #4, #272, .T. ) ;
#366 = DIRECTION ( 'NONE',  ( -1.000000000000000000, 0.000000000000000000, 0.000000000000000000 ) ) ;
#367 = EDGE_CURVE ( 'NONE', #23, #121, #118, .T. ) ;
#368 = PRODUCT_RELATED_PRODUCT_CATEGORY ( 'detail', '', ( #95 ) ) ;
#369 = PERSON_AND_ORGANIZATION ( #113, #84 ) ;
#370 = FACE_OUTER_BOUND ( 'NONE', #37, .T. ) ;
#371 = DATE_AND_TIME ( #307, #125 ) ;
#372 = AXIS2_PLACEMENT_3D ( 'NONE', #220, #189, #340 ) ;
#373 = CARTESIAN_POINT ( 'NONE',  ( 0.000000000000000000, 0.000000000000000000, 0.000000000000000000 ) ) ;
#374 = ORIENTED_EDGE ( 'NONE', *, *, #192, .T. ) ;
#375 = CC_DESIGN_DATE_AND_TIME_ASSIGNMENT ( #285, #198, ( #155 ) ) ;
#376 = ORIENTED_EDGE ( 'NONE', *, *, #248, .T. ) ;
#377 = ORIENTED_EDGE ( 'NONE', *, *, #264, .T. ) ;
#378 = PERSON_AND_ORGANIZATION ( #113, #84 ) ;
#379 = CARTESIAN_POINT ( 'NONE',  ( 0.000000000000000000, 0.000000000000000000, 105.0000000000000142 ) ) ;
#380 = PERSON_AND_ORGANIZATION ( #113, #84 ) ;
#381 = DIRECTION ( 'NONE',  ( 0.000000000000000000, 0.000000000000000000, 1.000000000000000000 ) ) ;
ENDSEC;
END-ISO-10303-21;
