ISO-10303-21;
HEADER;
FILE_DESCRIPTION (( 'STEP AP203' ),
    '1' );
FILE_NAME ('5ff3.STEP',
    '2022-07-10T09:07:45',
    ( '' ),
    ( '' ),
    'SwSTEP 2.0',
    'SolidWorks 2019',
    '' );
FILE_SCHEMA (( 'CONFIG_CONTROL_DESIGN' ));
ENDSEC;

DATA;
#1 = DATE_AND_TIME ( #61, #86 ) ;
#2 = CYLINDRICAL_SURFACE ( 'NONE', #368, 4.000000000000000000 ) ;
#3 = DATE_TIME_ROLE ( 'creation_date' ) ;
#4 = ORIENTED_EDGE ( 'NONE', *, *, #351, .T. ) ;
#5 = ADVANCED_FACE ( 'NONE', ( #147 ), #208, .T. ) ;
#6 = DATE_AND_TIME ( #358, #379 ) ;
#7 = PRODUCT_DEFINITION_SHAPE ( 'NONE', 'NONE',  #280 ) ;
#8 = EDGE_LOOP ( 'NONE', ( #250, #294, #257, #114 ) ) ;
#9 = EDGE_LOOP ( 'NONE', ( #226, #352 ) ) ;
#10 = DESIGN_CONTEXT ( 'detailed design', #370, 'design' ) ;
#11 = APPROVAL ( #206, 'NEURÈENÝ' ) ;
#12 = DIRECTION ( 'NONE',  ( 0.000000000000000000, 0.000000000000000000, 1.000000000000000000 ) ) ;
#13 = CARTESIAN_POINT ( 'NONE',  ( 0.000000000000000000, 0.000000000000000000, 5.000000000000000000 ) ) ;
#14 = CARTESIAN_POINT ( 'NONE',  ( 7.000000000000000000, 8.572527594031473190E-16, 5.000000000000000000 ) ) ;
#15 = PLANE ( 'NONE',  #340 ) ;
#16 = EDGE_CURVE ( 'NONE', #144, #124, #150, .T. ) ;
#17 = LINE ( 'NONE', #365, #182 ) ;
#18 = DIRECTION ( 'NONE',  ( -0.000000000000000000, -0.000000000000000000, -1.000000000000000000 ) ) ;
#19 = ORIENTED_EDGE ( 'NONE', *, *, #373, .T. ) ;
#20 = CARTESIAN_POINT ( 'NONE',  ( 4.500000000000000888, 0.000000000000000000, 5.000000000000002665 ) ) ;
#21 = CARTESIAN_POINT ( 'NONE',  ( 0.000000000000000000, 0.000000000000000000, 255.0000000000000000 ) ) ;
#22 = AXIS2_PLACEMENT_3D ( 'NONE', #339, #135, #137 ) ;
#23 = CARTESIAN_POINT ( 'NONE',  ( -4.000000000000000000, 0.000000000000000000, 255.0000000000000000 ) ) ;
#24 = DIRECTION ( 'NONE',  ( 1.224646799147353207E-16, 1.000000000000000000, -0.000000000000000000 ) ) ;
#25 = APPROVAL_ROLE ( '' ) ;
#26 = ORIENTED_EDGE ( 'NONE', *, *, #285, .T. ) ;
#27 = PERSON ( 'NEURÈENÝ', 'NEURÈENÝ', 'NEURÈENÝ', ('NEURÈENÝ'), ('NEURÈENÝ'), ('NEURÈENÝ') ) ;
#28 = ORIENTED_EDGE ( 'NONE', *, *, #138, .T. ) ;
#29 = CIRCLE ( 'NONE', #48, 2.600000000000000089 ) ;
#30 = ADVANCED_FACE ( 'NONE', ( #67 ), #2, .T. ) ;
#31 = VERTEX_POINT ( 'NONE', #268 ) ;
#32 = CARTESIAN_POINT ( 'NONE',  ( 0.000000000000000000, 0.000000000000000000, 0.000000000000000000 ) ) ;
#33 = ORIENTED_EDGE ( 'NONE', *, *, #55, .F. ) ;
#34 = CC_DESIGN_APPROVAL ( #338, ( #280 ) ) ;
#35 = TOROIDAL_SURFACE ( 'NONE', #193, 4.500000000000000888, 0.5000000000000000000 ) ;
#36 = PERSON_AND_ORGANIZATION ( #27, #245 ) ;
#37 = EDGE_LOOP ( 'NONE', ( #262, #381, #278, #265 ) ) ;
#38 = AXIS2_PLACEMENT_3D ( 'NONE', #44, #12, #274 ) ;
#39 = CARTESIAN_POINT ( 'NONE',  ( -7.000000000000000000, 0.000000000000000000, 5.000000000000000000 ) ) ;
#40 = EDGE_CURVE ( 'NONE', #221, #288, #207, .T. ) ;
#41 = CARTESIAN_POINT ( 'NONE',  ( 0.000000000000000000, 0.000000000000000000, 255.0000000000000000 ) ) ;
#42 = DIRECTION ( 'NONE',  ( -1.000000000000000000, 0.000000000000000000, 0.000000000000000000 ) ) ;
#43 = CIRCLE ( 'NONE', #279, 4.500000000000000888 ) ;
#44 = CARTESIAN_POINT ( 'NONE',  ( 0.000000000000000000, 0.000000000000000000, 5.500000000000005329 ) ) ;
#45 = EDGE_CURVE ( 'NONE', #31, #210, #17, .T. ) ;
#46 = CARTESIAN_POINT ( 'NONE',  ( 2.600000000000000089, 3.184081677783118191E-16, 0.000000000000000000 ) ) ;
#47 = CARTESIAN_POINT ( 'NONE',  ( 7.000000000000000000, 8.572527594031473190E-16, 5.000000000000000000 ) ) ;
#48 = AXIS2_PLACEMENT_3D ( 'NONE', #311, #378, #276 ) ;
#49 = FACE_OUTER_BOUND ( 'NONE', #37, .T. ) ;
#50 = ORIENTED_EDGE ( 'NONE', *, *, #55, .T. ) ;
#51 = CARTESIAN_POINT ( 'NONE',  ( -4.000000000000000000, 0.000000000000000000, 255.0000000000000000 ) ) ;
#52 = DIRECTION ( 'NONE',  ( -0.000000000000000000, -0.000000000000000000, -1.000000000000000000 ) ) ;
#53 = MANIFOLD_SOLID_BREP ( 'Odebrat vysunutím3', #77 ) ;
#54 = CARTESIAN_POINT ( 'NONE',  ( 0.000000000000000000, 0.000000000000000000, 5.500000000000005329 ) ) ;
#55 = EDGE_CURVE ( 'NONE', #377, #263, #43, .T. ) ;
#56 = ORIENTED_EDGE ( 'NONE', *, *, #237, .F. ) ;
#57 = APPROVAL_DATE_TIME ( #1, #302 ) ;
#58 = EDGE_LOOP ( 'NONE', ( #192, #142, #82, #343 ) ) ;
#59 = PERSON_AND_ORGANIZATION ( #27, #245 ) ;
#60 = ORIENTED_EDGE ( 'NONE', *, *, #16, .F. ) ;
#61 = CALENDAR_DATE ( 2022, 10, 7 ) ;
#62 = CIRCLE ( 'NONE', #374, 7.000000000000000000 ) ;
#63 = ORIENTED_EDGE ( 'NONE', *, *, #242, .T. ) ;
#64 =( NAMED_UNIT ( * ) SI_UNIT ( $, .STERADIAN. ) SOLID_ANGLE_UNIT ( ) );
#65 = ORIENTED_EDGE ( 'NONE', *, *, #172, .T. ) ;
#66 = PERSON_AND_ORGANIZATION_ROLE ( 'design_owner' ) ;
#67 = FACE_OUTER_BOUND ( 'NONE', #58, .T. ) ;
#68 = CARTESIAN_POINT ( 'NONE',  ( 0.000000000000000000, 0.000000000000000000, 0.000000000000000000 ) ) ;
#69 = CC_DESIGN_PERSON_AND_ORGANIZATION_ASSIGNMENT ( #322, #296, ( #280 ) ) ;
#70 = AXIS2_PLACEMENT_3D ( 'NONE', #214, #185, #334 ) ;
#71 = DIRECTION ( 'NONE',  ( 0.000000000000000000, -1.000000000000000000, 0.000000000000000000 ) ) ;
#72 = PLANE ( 'NONE',  #70 ) ;
#73 = EDGE_CURVE ( 'NONE', #360, #349, #253, .T. ) ;
#74 = AXIS2_PLACEMENT_3D ( 'NONE', #13, #300, #42 ) ;
#75 = DIRECTION ( 'NONE',  ( 0.000000000000000000, 0.000000000000000000, 1.000000000000000000 ) ) ;
#76 = AXIS2_PLACEMENT_3D ( 'NONE', #80, #249, #252 ) ;
#77 = CLOSED_SHELL ( 'NONE', ( #261, #194, #30, #313, #148, #216, #363, #5, #128, #327, #152 ) ) ;
#78 = DIRECTION ( 'NONE',  ( -0.000000000000000000, -0.000000000000000000, -1.000000000000000000 ) ) ;
#79 = CARTESIAN_POINT ( 'NONE',  ( 4.000000000000000000, 4.898587196589412829E-16, 255.0000000000000000 ) ) ;
#80 = CARTESIAN_POINT ( 'NONE',  ( 0.000000000000000000, 0.000000000000000000, 0.000000000000000000 ) ) ;
#81 = DIRECTION ( 'NONE',  ( 1.000000000000000000, 0.000000000000000000, 0.000000000000000000 ) ) ;
#82 = ORIENTED_EDGE ( 'NONE', *, *, #84, .T. ) ;
#83 =( NAMED_UNIT ( * ) PLANE_ANGLE_UNIT ( ) SI_UNIT ( $, .RADIAN. ) );
#84 = EDGE_CURVE ( 'NONE', #229, #290, #357, .T. ) ;
#85 = DIRECTION ( 'NONE',  ( 1.000000000000000000, 0.000000000000000000, 0.000000000000000000 ) ) ;
#86 = LOCAL_TIME ( 11, 7, 45.00000000000000000, #117 ) ;
#87 = PERSON_AND_ORGANIZATION ( #27, #245 ) ;
#88 = CARTESIAN_POINT ( 'NONE',  ( 0.000000000000000000, 0.000000000000000000, 255.0000000000000000 ) ) ;
#89 = EDGE_CURVE ( 'NONE', #235, #31, #122, .T. ) ;
#90 = DIRECTION ( 'NONE',  ( 1.000000000000000000, 0.000000000000000000, 0.000000000000000000 ) ) ;
#91 = EDGE_LOOP ( 'NONE', ( #200, #60, #107, #63 ) ) ;
#92 = PERSON_AND_ORGANIZATION ( #27, #245 ) ;
#93 = ORIENTED_EDGE ( 'NONE', *, *, #138, .F. ) ;
#94 = SHAPE_DEFINITION_REPRESENTATION ( #7, #376 ) ;
#95 = DIRECTION ( 'NONE',  ( 1.000000000000000000, 0.000000000000000000, 0.000000000000000000 ) ) ;
#96 = EDGE_CURVE ( 'NONE', #236, #210, #267, .T. ) ;
#97 = ORIENTED_EDGE ( 'NONE', *, *, #309, .T. ) ;
#98 = CARTESIAN_POINT ( 'NONE',  ( 4.500000000000000888, 0.000000000000000000, 5.500000000000005329 ) ) ;
#99 = CARTESIAN_POINT ( 'NONE',  ( -2.600000000000000089, 0.000000000000000000, 0.000000000000000000 ) ) ;
#100 = EDGE_CURVE ( 'NONE', #235, #236, #125, .T. ) ;
#101 = PRODUCT ( '5ff3', '5ff3', '', ( #143 ) ) ;
#102 = DIRECTION ( 'NONE',  ( 1.000000000000000000, 0.000000000000000000, 0.000000000000000000 ) ) ;
#103 = CARTESIAN_POINT ( 'NONE',  ( 7.000000000000000000, 8.572527594031473190E-16, 0.000000000000000000 ) ) ;
#104 = DIRECTION ( 'NONE',  ( 1.000000000000000000, 0.000000000000000000, 0.000000000000000000 ) ) ;
#105 =( LENGTH_UNIT ( ) NAMED_UNIT ( * ) SI_UNIT ( .MILLI., .METRE. ) );
#106 = CC_DESIGN_PERSON_AND_ORGANIZATION_ASSIGNMENT ( #59, #264, ( #270 ) ) ;
#107 = ORIENTED_EDGE ( 'NONE', *, *, #111, .T. ) ;
#108 = DIRECTION ( 'NONE',  ( 0.000000000000000000, 0.000000000000000000, 1.000000000000000000 ) ) ;
#109 = EDGE_LOOP ( 'NONE', ( #233, #165 ) ) ;
#110 = EDGE_LOOP ( 'NONE', ( #259, #281, #298, #65 ) ) ;
#111 = EDGE_CURVE ( 'NONE', #144, #288, #217, .T. ) ;
#112 = DIRECTION ( 'NONE',  ( 0.000000000000000000, 0.000000000000000000, 1.000000000000000000 ) ) ;
#113 = APPROVAL_DATE_TIME ( #260, #338 ) ;
#114 = ORIENTED_EDGE ( 'NONE', *, *, #45, .F. ) ;
#115 = DATE_TIME_ROLE ( 'classification_date' ) ;
#116 = EDGE_LOOP ( 'NONE', ( #56, #121, #97, #26 ) ) ;
#117 = COORDINATED_UNIVERSAL_TIME_OFFSET ( 1, 0, .AHEAD. ) ;
#118 = ORIENTED_EDGE ( 'NONE', *, *, #96, .F. ) ;
#119 = LOCAL_TIME ( 11, 7, 45.00000000000000000, #318 ) ;
#120 = APPROVAL_DATE_TIME ( #6, #11 ) ;
#121 = ORIENTED_EDGE ( 'NONE', *, *, #73, .F. ) ;
#122 = CIRCLE ( 'NONE', #336, 2.600000000000000089 ) ;
#123 = PRODUCT_RELATED_PRODUCT_CATEGORY ( 'detail', '', ( #101 ) ) ;
#124 = VERTEX_POINT ( 'NONE', #14 ) ;
#125 = LINE ( 'NONE', #269, #126 ) ;
#126 = VECTOR ( 'NONE', #306, 1000.000000000000000 ) ;
#127 = CARTESIAN_POINT ( 'NONE',  ( 0.000000000000000000, 0.000000000000000000, 0.000000000000000000 ) ) ;
#128 = ADVANCED_FACE ( 'NONE', ( #155, #362 ), #15, .T. ) ;
#129 = AXIS2_PLACEMENT_3D ( 'NONE', #254, #371, #284 ) ;
#130 = CARTESIAN_POINT ( 'NONE',  ( 0.000000000000000000, 0.000000000000000000, 5.000000000000000000 ) ) ;
#131 = DIRECTION ( 'NONE',  ( 0.000000000000000000, 0.000000000000000000, -1.000000000000000000 ) ) ;
#132 = CC_DESIGN_APPROVAL ( #11, ( #297 ) ) ;
#133 = CARTESIAN_POINT ( 'NONE',  ( -7.000000000000000000, 0.000000000000000000, 5.000000000000000000 ) ) ;
#134 = AXIS2_PLACEMENT_3D ( 'NONE', #68, #187, #238 ) ;
#135 = DIRECTION ( 'NONE',  ( 0.000000000000000000, 0.000000000000000000, 1.000000000000000000 ) ) ;
#136 = CARTESIAN_POINT ( 'NONE',  ( 0.000000000000000000, 0.000000000000000000, 255.0000000000000000 ) ) ;
#137 = DIRECTION ( 'NONE',  ( 1.000000000000000000, 0.000000000000000000, 0.000000000000000000 ) ) ;
#138 = EDGE_CURVE ( 'NONE', #229, #263, #174, .T. ) ;
#139 = VECTOR ( 'NONE', #161, 1000.000000000000000 ) ;
#140 = FACE_OUTER_BOUND ( 'NONE', #8, .T. ) ;
#141 = CARTESIAN_POINT ( 'NONE',  ( 0.000000000000000000, 0.000000000000000000, 5.000000000000000000 ) ) ;
#142 = ORIENTED_EDGE ( 'NONE', *, *, #237, .T. ) ;
#143 = MECHANICAL_CONTEXT ( 'NONE', #301, 'mechanical' ) ;
#144 = VERTEX_POINT ( 'NONE', #39 ) ;
#145 = DIRECTION ( 'NONE',  ( -1.000000000000000000, 0.000000000000000000, 0.000000000000000000 ) ) ;
#146 = COORDINATED_UNIVERSAL_TIME_OFFSET ( 1, 0, .AHEAD. ) ;
#147 = FACE_OUTER_BOUND ( 'NONE', #116, .T. ) ;
#148 = ADVANCED_FACE ( 'NONE', ( #246 ), #212, .T. ) ;
#149 = ORIENTED_EDGE ( 'NONE', *, *, #356, .T. ) ;
#150 = CIRCLE ( 'NONE', #157, 7.000000000000000000 ) ;
#151 = CYLINDRICAL_SURFACE ( 'NONE', #215, 2.600000000000000089 ) ;
#152 = ADVANCED_FACE ( 'NONE', ( #332 ), #151, .F. ) ;
#153 = DIRECTION ( 'NONE',  ( 1.000000000000000000, 0.000000000000000000, 0.000000000000000000 ) ) ;
#154 = LOCAL_TIME ( 11, 7, 45.00000000000000000, #258 ) ;
#155 = FACE_BOUND ( 'NONE', #171, .T. ) ;
#156 = AXIS2_PLACEMENT_3D ( 'NONE', #21, #190, #375 ) ;
#157 = AXIS2_PLACEMENT_3D ( 'NONE', #326, #321, #95 ) ;
#158 = DIRECTION ( 'NONE',  ( 1.000000000000000000, 0.000000000000000000, 0.000000000000000000 ) ) ;
#159 = DIRECTION ( 'NONE',  ( -0.000000000000000000, -0.000000000000000000, -1.000000000000000000 ) ) ;
#160 = APPROVAL_PERSON_ORGANIZATION ( #209, #11, #325 ) ;
#161 = DIRECTION ( 'NONE',  ( -0.000000000000000000, -0.000000000000000000, -1.000000000000000000 ) ) ;
#162 = CIRCLE ( 'NONE', #168, 4.000000000000000000 ) ;
#163 = CYLINDRICAL_SURFACE ( 'NONE', #129, 7.000000000000000000 ) ;
#164 = FACE_BOUND ( 'NONE', #328, .T. ) ;
#165 = ORIENTED_EDGE ( 'NONE', *, *, #319, .T. ) ;
#166 = CIRCLE ( 'NONE', #196, 2.600000000000000089 ) ;
#167 = DIRECTION ( 'NONE',  ( 0.000000000000000000, 0.000000000000000000, -1.000000000000000000 ) ) ;
#168 = AXIS2_PLACEMENT_3D ( 'NONE', #54, #251, #197 ) ;
#169 = CARTESIAN_POINT ( 'NONE',  ( 0.000000000000000000, 0.000000000000000000, 0.000000000000000000 ) ) ;
#170 = SECURITY_CLASSIFICATION_LEVEL ( 'unclassified' ) ;
#171 = EDGE_LOOP ( 'NONE', ( #346, #310 ) ) ;
#172 = EDGE_CURVE ( 'NONE', #210, #236, #166, .T. ) ;
#173 = DATE_AND_TIME ( #380, #154 ) ;
#174 = CIRCLE ( 'NONE', #186, 0.5000000000000004441 ) ;
#175 = CARTESIAN_POINT ( 'NONE',  ( 0.000000000000000000, 0.000000000000000000, 255.0000000000000000 ) ) ;
#176 = DIRECTION ( 'NONE',  ( 1.000000000000000000, 0.000000000000000000, 0.000000000000000000 ) ) ;
#177 = CC_DESIGN_PERSON_AND_ORGANIZATION_ASSIGNMENT ( #354, #201, ( #270 ) ) ;
#178 = ORIENTED_EDGE ( 'NONE', *, *, #172, .F. ) ;
#179 = APPROVAL_ROLE ( '' ) ;
#180 = DIRECTION ( 'NONE',  ( -0.000000000000000000, -0.000000000000000000, -1.000000000000000000 ) ) ;
#181 = DIRECTION ( 'NONE',  ( 0.000000000000000000, 0.000000000000000000, 1.000000000000000000 ) ) ;
#182 = VECTOR ( 'NONE', #367, 1000.000000000000000 ) ;
#183 = UNCERTAINTY_MEASURE_WITH_UNIT (LENGTH_MEASURE( 1.000000000000000082E-05 ), #105, 'distance_accuracy_value', 'NONE');
#184 = CARTESIAN_POINT ( 'NONE',  ( 0.000000000000000000, 0.000000000000000000, 255.0000000000000000 ) ) ;
#185 = DIRECTION ( 'NONE',  ( 0.000000000000000000, 0.000000000000000000, 1.000000000000000000 ) ) ;
#186 = AXIS2_PLACEMENT_3D ( 'NONE', #98, #71, #131 ) ;
#187 = DIRECTION ( 'NONE',  ( -0.000000000000000000, -0.000000000000000000, -1.000000000000000000 ) ) ;
#188 = CARTESIAN_POINT ( 'NONE',  ( 2.600000000000000089, 3.184081677783118191E-16, 255.0000000000000000 ) ) ;
#189 = CC_DESIGN_DATE_AND_TIME_ASSIGNMENT ( #173, #115, ( #297 ) ) ;
#190 = DIRECTION ( 'NONE',  ( 0.000000000000000000, 0.000000000000000000, 1.000000000000000000 ) ) ;
#191 = DIRECTION ( 'NONE',  ( -1.000000000000000000, 1.224646799147351482E-16, 0.000000000000000000 ) ) ;
#192 = ORIENTED_EDGE ( 'NONE', *, *, #373, .F. ) ;
#193 = AXIS2_PLACEMENT_3D ( 'NONE', #240, #304, #102 ) ;
#194 = ADVANCED_FACE ( 'NONE', ( #241 ), #35, .F. ) ;
#195 = LINE ( 'NONE', #47, #139 ) ;
#196 = AXIS2_PLACEMENT_3D ( 'NONE', #127, #78, #153 ) ;
#197 = DIRECTION ( 'NONE',  ( 1.000000000000000000, 0.000000000000000000, 0.000000000000000000 ) ) ;
#198 = ORIENTED_EDGE ( 'NONE', *, *, #285, .F. ) ;
#199 = CALENDAR_DATE ( 2022, 10, 7 ) ;
#200 = ORIENTED_EDGE ( 'NONE', *, *, #248, .F. ) ;
#201 = PERSON_AND_ORGANIZATION_ROLE ( 'creator' ) ;
#202 = DIRECTION ( 'NONE',  ( -0.000000000000000000, -0.000000000000000000, -1.000000000000000000 ) ) ;
#203 = COORDINATED_UNIVERSAL_TIME_OFFSET ( 1, 0, .AHEAD. ) ;
#204 = CARTESIAN_POINT ( 'NONE',  ( 0.000000000000000000, 0.000000000000000000, 0.000000000000000000 ) ) ;
#205 = AXIS2_PLACEMENT_3D ( 'NONE', #342, #24, #191 ) ;
#206 = APPROVAL_STATUS ( 'not_yet_approved' ) ;
#207 = CIRCLE ( 'NONE', #227, 7.000000000000000000 ) ;
#208 = CYLINDRICAL_SURFACE ( 'NONE', #286, 4.000000000000000000 ) ;
#209 = PERSON_AND_ORGANIZATION ( #27, #245 ) ;
#210 = VERTEX_POINT ( 'NONE', #99 ) ;
#211 = EDGE_LOOP ( 'NONE', ( #149, #50 ) ) ;
#212 = CYLINDRICAL_SURFACE ( 'NONE', #74, 7.000000000000000000 ) ;
#213 = FACE_OUTER_BOUND ( 'NONE', #109, .T. ) ;
#214 = CARTESIAN_POINT ( 'NONE',  ( 0.000000000000000000, 0.000000000000000000, 5.000000000000000000 ) ) ;
#215 = AXIS2_PLACEMENT_3D ( 'NONE', #364, #333, #244 ) ;
#216 = ADVANCED_FACE ( 'NONE', ( #366, #213 ), #72, .T. ) ;
#217 = LINE ( 'NONE', #133, #305 ) ;
#218 = CARTESIAN_POINT ( 'NONE',  ( 4.000000000000000000, 4.898587196589412829E-16, 255.0000000000000000 ) ) ;
#219 = DIRECTION ( 'NONE',  ( -1.000000000000000000, 0.000000000000000000, 0.000000000000000000 ) ) ;
#220 = CC_DESIGN_DATE_AND_TIME_ASSIGNMENT ( #228, #3, ( #280 ) ) ;
#221 = VERTEX_POINT ( 'NONE', #103 ) ;
#222 = FACE_OUTER_BOUND ( 'NONE', #316, .T. ) ;
#223 = CYLINDRICAL_SURFACE ( 'NONE', #350, 2.600000000000000089 ) ;
#224 = DIRECTION ( 'NONE',  ( 1.000000000000000000, 0.000000000000000000, 0.000000000000000000 ) ) ;
#225 = APPLICATION_PROTOCOL_DEFINITION ( 'international standard', 'config_control_design', 1994, #370 ) ;
#226 = ORIENTED_EDGE ( 'NONE', *, *, #242, .F. ) ;
#227 = AXIS2_PLACEMENT_3D ( 'NONE', #204, #323, #176 ) ;
#228 = DATE_AND_TIME ( #230, #119 ) ;
#229 = VERTEX_POINT ( 'NONE', #335 ) ;
#230 = CALENDAR_DATE ( 2022, 10, 7 ) ;
#231 = DIRECTION ( 'NONE',  ( -1.000000000000000000, 0.000000000000000000, 0.000000000000000000 ) ) ;
#232 = PERSON_AND_ORGANIZATION ( #27, #245 ) ;
#233 = ORIENTED_EDGE ( 'NONE', *, *, #16, .T. ) ;
#234 = CIRCLE ( 'NONE', #271, 4.500000000000000888 ) ;
#235 = VERTEX_POINT ( 'NONE', #188 ) ;
#236 = VERTEX_POINT ( 'NONE', #46 ) ;
#237 = EDGE_CURVE ( 'NONE', #349, #229, #308, .T. ) ;
#238 = DIRECTION ( 'NONE',  ( 1.000000000000000000, 0.000000000000000000, 0.000000000000000000 ) ) ;
#239 = VECTOR ( 'NONE', #18, 1000.000000000000000 ) ;
#240 = CARTESIAN_POINT ( 'NONE',  ( 0.000000000000000000, 0.000000000000000000, 5.500000000000005329 ) ) ;
#241 = FACE_OUTER_BOUND ( 'NONE', #355, .T. ) ;
#242 = EDGE_CURVE ( 'NONE', #288, #221, #317, .T. ) ;
#243 = APPROVAL_PERSON_ORGANIZATION ( #87, #302, #25 ) ;
#244 = DIRECTION ( 'NONE',  ( -1.000000000000000000, 0.000000000000000000, 0.000000000000000000 ) ) ;
#245 = ORGANIZATION ( 'NEURÈENÝ', 'NEURÈENÝ', '' ) ;
#246 = FACE_OUTER_BOUND ( 'NONE', #91, .T. ) ;
#247 = AXIS2_PLACEMENT_3D ( 'NONE', #307, #330, #104 ) ;
#248 = EDGE_CURVE ( 'NONE', #124, #221, #195, .T. ) ;
#249 = DIRECTION ( 'NONE',  ( 0.000000000000000000, 0.000000000000000000, 1.000000000000000000 ) ) ;
#250 = ORIENTED_EDGE ( 'NONE', *, *, #289, .T. ) ;
#251 = DIRECTION ( 'NONE',  ( 0.000000000000000000, 0.000000000000000000, 1.000000000000000000 ) ) ;
#252 = DIRECTION ( 'NONE',  ( 1.000000000000000000, 0.000000000000000000, -0.000000000000000000 ) ) ;
#253 = CIRCLE ( 'NONE', #247, 4.000000000000000000 ) ;
#254 = CARTESIAN_POINT ( 'NONE',  ( 0.000000000000000000, 0.000000000000000000, 5.000000000000000000 ) ) ;
#255 = CC_DESIGN_PERSON_AND_ORGANIZATION_ASSIGNMENT ( #232, #66, ( #101 ) ) ;
#256 = PLANE ( 'NONE',  #76 ) ;
#257 = ORIENTED_EDGE ( 'NONE', *, *, #96, .T. ) ;
#258 = COORDINATED_UNIVERSAL_TIME_OFFSET ( 1, 0, .AHEAD. ) ;
#259 = ORIENTED_EDGE ( 'NONE', *, *, #100, .F. ) ;
#260 = DATE_AND_TIME ( #199, #295 ) ;
#261 = ADVANCED_FACE ( 'NONE', ( #140 ), #223, .F. ) ;
#262 = ORIENTED_EDGE ( 'NONE', *, *, #319, .F. ) ;
#263 = VERTEX_POINT ( 'NONE', #20 ) ;
#264 = PERSON_AND_ORGANIZATION_ROLE ( 'design_supplier' ) ;
#265 = ORIENTED_EDGE ( 'NONE', *, *, #111, .F. ) ;
#266 = APPLICATION_PROTOCOL_DEFINITION ( 'international standard', 'config_control_design', 1994, #301 ) ;
#267 = CIRCLE ( 'NONE', #134, 2.600000000000000089 ) ;
#268 = CARTESIAN_POINT ( 'NONE',  ( -2.600000000000000089, 0.000000000000000000, 255.0000000000000000 ) ) ;
#269 = CARTESIAN_POINT ( 'NONE',  ( 2.600000000000000089, 3.184081677783118191E-16, 255.0000000000000000 ) ) ;
#270 = PRODUCT_DEFINITION_FORMATION_WITH_SPECIFIED_SOURCE ( 'LIBOVOLNÝ', '', #101, .NOT_KNOWN. ) ;
#271 = AXIS2_PLACEMENT_3D ( 'NONE', #141, #52, #81 ) ;
#272 = DIRECTION ( 'NONE',  ( 1.000000000000000000, 0.000000000000000000, 0.000000000000000000 ) ) ;
#273 = CC_DESIGN_PERSON_AND_ORGANIZATION_ASSIGNMENT ( #92, #287, ( #297 ) ) ;
#274 = DIRECTION ( 'NONE',  ( 1.000000000000000000, 0.000000000000000000, 0.000000000000000000 ) ) ;
#275 = DIRECTION ( 'NONE',  ( -0.000000000000000000, -0.000000000000000000, -1.000000000000000000 ) ) ;
#276 = DIRECTION ( 'NONE',  ( 1.000000000000000000, 0.000000000000000000, 0.000000000000000000 ) ) ;
#277 = AXIS2_PLACEMENT_3D ( 'NONE', #169, #112, #85 ) ;
#278 = ORIENTED_EDGE ( 'NONE', *, *, #40, .T. ) ;
#279 = AXIS2_PLACEMENT_3D ( 'NONE', #130, #275, #158 ) ;
#280 = PRODUCT_DEFINITION ( 'NEZNÁMÝ', '', #270, #10 ) ;
#281 = ORIENTED_EDGE ( 'NONE', *, *, #89, .T. ) ;
#282 = CARTESIAN_POINT ( 'NONE',  ( -7.000000000000000000, 0.000000000000000000, 0.000000000000000000 ) ) ;
#283 = EDGE_LOOP ( 'NONE', ( #292, #19 ) ) ;
#284 = DIRECTION ( 'NONE',  ( -1.000000000000000000, 0.000000000000000000, 0.000000000000000000 ) ) ;
#285 = EDGE_CURVE ( 'NONE', #290, #229, #162, .T. ) ;
#286 = AXIS2_PLACEMENT_3D ( 'NONE', #88, #202, #145 ) ;
#287 = PERSON_AND_ORGANIZATION_ROLE ( 'classification_officer' ) ;
#288 = VERTEX_POINT ( 'NONE', #282 ) ;
#289 = EDGE_CURVE ( 'NONE', #31, #235, #29, .T. ) ;
#290 = VERTEX_POINT ( 'NONE', #337 ) ;
#291 = TOROIDAL_SURFACE ( 'NONE', #22, 4.500000000000000888, 0.5000000000000000000 ) ;
#292 = ORIENTED_EDGE ( 'NONE', *, *, #73, .T. ) ;
#293 = APPROVAL_STATUS ( 'not_yet_approved' ) ;
#294 = ORIENTED_EDGE ( 'NONE', *, *, #100, .T. ) ;
#295 = LOCAL_TIME ( 11, 7, 45.00000000000000000, #203 ) ;
#296 = PERSON_AND_ORGANIZATION_ROLE ( 'creator' ) ;
#297 = SECURITY_CLASSIFICATION ( '', '', #170 ) ;
#298 = ORIENTED_EDGE ( 'NONE', *, *, #45, .T. ) ;
#299 = DIRECTION ( 'NONE',  ( 1.000000000000000000, 0.000000000000000000, -0.000000000000000000 ) ) ;
#300 = DIRECTION ( 'NONE',  ( -0.000000000000000000, -0.000000000000000000, -1.000000000000000000 ) ) ;
#301 = APPLICATION_CONTEXT ( 'configuration controlled 3d designs of mechanical parts and assemblies' ) ;
#302 = APPROVAL ( #293, 'NEURÈENÝ' ) ;
#303 = CC_DESIGN_APPROVAL ( #302, ( #270 ) ) ;
#304 = DIRECTION ( 'NONE',  ( 0.000000000000000000, 0.000000000000000000, 1.000000000000000000 ) ) ;
#305 = VECTOR ( 'NONE', #159, 1000.000000000000000 ) ;
#306 = DIRECTION ( 'NONE',  ( 0.000000000000000000, 0.000000000000000000, -1.000000000000000000 ) ) ;
#307 = CARTESIAN_POINT ( 'NONE',  ( 0.000000000000000000, 0.000000000000000000, 255.0000000000000000 ) ) ;
#308 = LINE ( 'NONE', #218, #331 ) ;
#309 = EDGE_CURVE ( 'NONE', #360, #290, #315, .T. ) ;
#310 = ORIENTED_EDGE ( 'NONE', *, *, #89, .F. ) ;
#311 = CARTESIAN_POINT ( 'NONE',  ( 0.000000000000000000, 0.000000000000000000, 255.0000000000000000 ) ) ;
#312 = ORIENTED_EDGE ( 'NONE', *, *, #84, .F. ) ;
#313 = ADVANCED_FACE ( 'NONE', ( #49 ), #163, .T. ) ;
#314 = DIRECTION ( 'NONE',  ( -0.000000000000000000, -0.000000000000000000, -1.000000000000000000 ) ) ;
#315 = LINE ( 'NONE', #23, #239 ) ;
#316 = EDGE_LOOP ( 'NONE', ( #353, #312, #28, #33 ) ) ;
#317 = CIRCLE ( 'NONE', #277, 7.000000000000000000 ) ;
#318 = COORDINATED_UNIVERSAL_TIME_OFFSET ( 1, 0, .AHEAD. ) ;
#319 = EDGE_CURVE ( 'NONE', #124, #144, #62, .T. ) ;
#320 = DIRECTION ( 'NONE',  ( 0.000000000000000000, 0.000000000000000000, 1.000000000000000000 ) ) ;
#321 = DIRECTION ( 'NONE',  ( 0.000000000000000000, 0.000000000000000000, 1.000000000000000000 ) ) ;
#322 = PERSON_AND_ORGANIZATION ( #27, #245 ) ;
#323 = DIRECTION ( 'NONE',  ( 0.000000000000000000, 0.000000000000000000, 1.000000000000000000 ) ) ;
#324 = CIRCLE ( 'NONE', #156, 4.000000000000000000 ) ;
#325 = APPROVAL_ROLE ( '' ) ;
#326 = CARTESIAN_POINT ( 'NONE',  ( 0.000000000000000000, 0.000000000000000000, 5.000000000000000000 ) ) ;
#327 = ADVANCED_FACE ( 'NONE', ( #222 ), #291, .F. ) ;
#328 = EDGE_LOOP ( 'NONE', ( #178, #118 ) ) ;
#329 = AXIS2_PLACEMENT_3D ( 'NONE', #32, #320, #90 ) ;
#330 = DIRECTION ( 'NONE',  ( 0.000000000000000000, 0.000000000000000000, 1.000000000000000000 ) ) ;
#331 = VECTOR ( 'NONE', #314, 1000.000000000000000 ) ;
#332 = FACE_OUTER_BOUND ( 'NONE', #110, .T. ) ;
#333 = DIRECTION ( 'NONE',  ( 0.000000000000000000, 0.000000000000000000, -1.000000000000000000 ) ) ;
#334 = DIRECTION ( 'NONE',  ( 1.000000000000000000, 0.000000000000000000, -0.000000000000000000 ) ) ;
#335 = CARTESIAN_POINT ( 'NONE',  ( 4.000000000000000000, 4.898587196589412829E-16, 5.500000000000005329 ) ) ;
#336 = AXIS2_PLACEMENT_3D ( 'NONE', #184, #75, #272 ) ;
#337 = CARTESIAN_POINT ( 'NONE',  ( -4.000000000000000000, 0.000000000000000000, 5.500000000000005329 ) ) ;
#338 = APPROVAL ( #348, 'NEURÈENÝ' ) ;
#339 = CARTESIAN_POINT ( 'NONE',  ( 0.000000000000000000, 0.000000000000000000, 5.500000000000005329 ) ) ;
#340 = AXIS2_PLACEMENT_3D ( 'NONE', #41, #181, #299 ) ;
#341 = CIRCLE ( 'NONE', #205, 0.5000000000000004441 ) ;
#342 = CARTESIAN_POINT ( 'NONE',  ( -4.500000000000000888, 5.510910596163089556E-16, 5.500000000000005329 ) ) ;
#343 = ORIENTED_EDGE ( 'NONE', *, *, #309, .F. ) ;
#344 = CARTESIAN_POINT ( 'NONE',  ( 0.000000000000000000, 0.000000000000000000, 5.000000000000000000 ) ) ;
#345 = FACE_OUTER_BOUND ( 'NONE', #9, .T. ) ;
#346 = ORIENTED_EDGE ( 'NONE', *, *, #289, .F. ) ;
#347 = APPROVAL_PERSON_ORGANIZATION ( #36, #338, #179 ) ;
#348 = APPROVAL_STATUS ( 'not_yet_approved' ) ;
#349 = VERTEX_POINT ( 'NONE', #79 ) ;
#350 = AXIS2_PLACEMENT_3D ( 'NONE', #136, #167, #219 ) ;
#351 = EDGE_CURVE ( 'NONE', #290, #377, #341, .T. ) ;
#352 = ORIENTED_EDGE ( 'NONE', *, *, #40, .F. ) ;
#353 = ORIENTED_EDGE ( 'NONE', *, *, #351, .F. ) ;
#354 = PERSON_AND_ORGANIZATION ( #27, #245 ) ;
#355 = EDGE_LOOP ( 'NONE', ( #198, #4, #359, #93 ) ) ;
#356 = EDGE_CURVE ( 'NONE', #263, #377, #234, .T. ) ;
#357 = CIRCLE ( 'NONE', #38, 4.000000000000000000 ) ;
#358 = CALENDAR_DATE ( 2022, 10, 7 ) ;
#359 = ORIENTED_EDGE ( 'NONE', *, *, #356, .F. ) ;
#360 = VERTEX_POINT ( 'NONE', #51 ) ;
#361 =( GEOMETRIC_REPRESENTATION_CONTEXT ( 3 ) GLOBAL_UNCERTAINTY_ASSIGNED_CONTEXT ( ( #183 ) ) GLOBAL_UNIT_ASSIGNED_CONTEXT ( ( #105, #83, #64 ) ) REPRESENTATION_CONTEXT ( 'NONE', 'WORKASPACE' ) );
#362 = FACE_OUTER_BOUND ( 'NONE', #283, .T. ) ;
#363 = ADVANCED_FACE ( 'NONE', ( #164, #345 ), #256, .F. ) ;
#364 = CARTESIAN_POINT ( 'NONE',  ( 0.000000000000000000, 0.000000000000000000, 255.0000000000000000 ) ) ;
#365 = CARTESIAN_POINT ( 'NONE',  ( -2.600000000000000089, 0.000000000000000000, 255.0000000000000000 ) ) ;
#366 = FACE_BOUND ( 'NONE', #211, .T. ) ;
#367 = DIRECTION ( 'NONE',  ( 0.000000000000000000, 0.000000000000000000, -1.000000000000000000 ) ) ;
#368 = AXIS2_PLACEMENT_3D ( 'NONE', #175, #180, #231 ) ;
#369 = CARTESIAN_POINT ( 'NONE',  ( -4.500000000000000888, 5.510910596163088569E-16, 5.000000000000002665 ) ) ;
#370 = APPLICATION_CONTEXT ( 'configuration controlled 3d designs of mechanical parts and assemblies' ) ;
#371 = DIRECTION ( 'NONE',  ( -0.000000000000000000, -0.000000000000000000, -1.000000000000000000 ) ) ;
#372 = CC_DESIGN_SECURITY_CLASSIFICATION ( #297, ( #270 ) ) ;
#373 = EDGE_CURVE ( 'NONE', #349, #360, #324, .T. ) ;
#374 = AXIS2_PLACEMENT_3D ( 'NONE', #344, #108, #224 ) ;
#375 = DIRECTION ( 'NONE',  ( 1.000000000000000000, 0.000000000000000000, 0.000000000000000000 ) ) ;
#376 = ADVANCED_BREP_SHAPE_REPRESENTATION ( '5ff3', ( #53, #329 ), #361 ) ;
#377 = VERTEX_POINT ( 'NONE', #369 ) ;
#378 = DIRECTION ( 'NONE',  ( 0.000000000000000000, 0.000000000000000000, 1.000000000000000000 ) ) ;
#379 = LOCAL_TIME ( 11, 7, 45.00000000000000000, #146 ) ;
#380 = CALENDAR_DATE ( 2022, 10, 7 ) ;
#381 = ORIENTED_EDGE ( 'NONE', *, *, #248, .T. ) ;
ENDSEC;
END-ISO-10303-21;
