ISO-10303-21;
HEADER;
FILE_DESCRIPTION (( 'STEP AP203' ),
    '1' );
FILE_NAME ('29d9.STEP',
    '2022-07-10T09:01:58',
    ( '' ),
    ( '' ),
    'SwSTEP 2.0',
    'SolidWorks 2019',
    '' );
FILE_SCHEMA (( 'CONFIG_CONTROL_DESIGN' ));
ENDSEC;

DATA;
#1 = CIRCLE ( 'NONE', #160, 10.00000000000000000 ) ;
#2 = CALENDAR_DATE ( 2022, 10, 7 ) ;
#3 = CARTESIAN_POINT ( 'NONE',  ( 10.00000000000000000, 1.224646799147353256E-15, 7.000000000000000000 ) ) ;
#4 = FACE_OUTER_BOUND ( 'NONE', #152, .T. ) ;
#5 = PERSON_AND_ORGANIZATION_ROLE ( 'design_supplier' ) ;
#6 = EDGE_CURVE ( 'NONE', #159, #112, #13, .T. ) ;
#7 = ORIENTED_EDGE ( 'NONE', *, *, #343, .T. ) ;
#8 = ORIENTED_EDGE ( 'NONE', *, *, #6, .T. ) ;
#9 = ORIENTED_EDGE ( 'NONE', *, *, #199, .T. ) ;
#10 = AXIS2_PLACEMENT_3D ( 'NONE', #36, #119, #242 ) ;
#11 = DIRECTION ( 'NONE',  ( 1.000000000000000000, 0.000000000000000000, 0.000000000000000000 ) ) ;
#12 = DIRECTION ( 'NONE',  ( 1.000000000000000000, 0.000000000000000000, 0.000000000000000000 ) ) ;
#13 = LINE ( 'NONE', #277, #122 ) ;
#14 = AXIS2_PLACEMENT_3D ( 'NONE', #316, #76, #45 ) ;
#15 = EDGE_CURVE ( 'NONE', #33, #30, #59, .T. ) ;
#16 = DIRECTION ( 'NONE',  ( 0.000000000000000000, 0.000000000000000000, -1.000000000000000000 ) ) ;
#17 = CYLINDRICAL_SURFACE ( 'NONE', #267, 4.099999999999999645 ) ;
#18 = AXIS2_PLACEMENT_3D ( 'NONE', #246, #71, #335 ) ;
#19 = CC_DESIGN_PERSON_AND_ORGANIZATION_ASSIGNMENT ( #308, #41, ( #153 ) ) ;
#20 = CARTESIAN_POINT ( 'NONE',  ( 0.000000000000000000, 0.000000000000000000, 7.700000000000012612 ) ) ;
#21 = DATE_AND_TIME ( #282, #96 ) ;
#22 = DIRECTION ( 'NONE',  ( 1.000000000000000000, 0.000000000000000000, 0.000000000000000000 ) ) ;
#23 = CIRCLE ( 'NONE', #237, 4.099999999999999645 ) ;
#24 = FACE_OUTER_BOUND ( 'NONE', #86, .T. ) ;
#25 = APPROVAL_STATUS ( 'not_yet_approved' ) ;
#26 = CARTESIAN_POINT ( 'NONE',  ( 0.000000000000000000, 0.000000000000000000, 0.000000000000000000 ) ) ;
#27 = AXIS2_PLACEMENT_3D ( 'NONE', #192, #127, #337 ) ;
#28 = ORIENTED_EDGE ( 'NONE', *, *, #15, .T. ) ;
#29 = PERSON_AND_ORGANIZATION ( #258, #138 ) ;
#30 = VERTEX_POINT ( 'NONE', #334 ) ;
#31 = ORIENTED_EDGE ( 'NONE', *, *, #217, .T. ) ;
#32 = DIRECTION ( 'NONE',  ( -0.000000000000000000, -0.000000000000000000, -1.000000000000000000 ) ) ;
#33 = VERTEX_POINT ( 'NONE', #95 ) ;
#34 = LOCAL_TIME ( 11, 1, 58.00000000000000000, #85 ) ;
#35 = ADVANCED_FACE ( 'NONE', ( #73, #304 ), #372, .T. ) ;
#36 = CARTESIAN_POINT ( 'NONE',  ( 0.000000000000000000, 0.000000000000000000, 207.0000000000000284 ) ) ;
#37 = ORIENTED_EDGE ( 'NONE', *, *, #120, .F. ) ;
#38 = APPROVAL ( #345, 'NEURÈENÝ' ) ;
#39 = AXIS2_PLACEMENT_3D ( 'NONE', #49, #231, #220 ) ;
#40 = AXIS2_PLACEMENT_3D ( 'NONE', #20, #135, #182 ) ;
#41 = PERSON_AND_ORGANIZATION_ROLE ( 'creator' ) ;
#42 = ORIENTED_EDGE ( 'NONE', *, *, #81, .F. ) ;
#43 = EDGE_LOOP ( 'NONE', ( #354, #129, #58, #312 ) ) ;
#44 = ADVANCED_FACE ( 'NONE', ( #274 ), #17, .F. ) ;
#45 = DIRECTION ( 'NONE',  ( 1.000000000000000000, 0.000000000000000000, 0.000000000000000000 ) ) ;
#46 = DIRECTION ( 'NONE',  ( 1.000000000000000000, 0.000000000000000000, 0.000000000000000000 ) ) ;
#47 = CIRCLE ( 'NONE', #247, 6.000000000000000888 ) ;
#48 = APPROVAL_DATE_TIME ( #248, #174 ) ;
#49 = CARTESIAN_POINT ( 'NONE',  ( 0.000000000000000000, 0.000000000000000000, 207.0000000000000284 ) ) ;
#50 = CARTESIAN_POINT ( 'NONE',  ( 0.000000000000000000, 0.000000000000000000, 7.000000000000000000 ) ) ;
#51 = CARTESIAN_POINT ( 'NONE',  ( 0.000000000000000000, 0.000000000000000000, 207.0000000000000284 ) ) ;
#52 = EDGE_CURVE ( 'NONE', #356, #112, #329, .T. ) ;
#53 = AXIS2_PLACEMENT_3D ( 'NONE', #97, #124, #46 ) ;
#54 = AXIS2_PLACEMENT_3D ( 'NONE', #255, #107, #224 ) ;
#55 = ADVANCED_FACE ( 'NONE', ( #125 ), #111, .T. ) ;
#56 = CYLINDRICAL_SURFACE ( 'NONE', #338, 4.099999999999999645 ) ;
#57 = APPROVAL_DATE_TIME ( #261, #370 ) ;
#58 = ORIENTED_EDGE ( 'NONE', *, *, #280, .T. ) ;
#59 = CIRCLE ( 'NONE', #53, 10.00000000000000000 ) ;
#60 = CC_DESIGN_APPROVAL ( #174, ( #153 ) ) ;
#61 = ORIENTED_EDGE ( 'NONE', *, *, #84, .T. ) ;
#62 = DIRECTION ( 'NONE',  ( 0.000000000000000000, 0.000000000000000000, 1.000000000000000000 ) ) ;
#63 = EDGE_LOOP ( 'NONE', ( #294, #93, #340, #202 ) ) ;
#64 = CARTESIAN_POINT ( 'NONE',  ( 0.000000000000000000, 0.000000000000000000, 7.700000000000012612 ) ) ;
#65 = ADVANCED_FACE ( 'NONE', ( #87 ), #321, .F. ) ;
#66 = ORIENTED_EDGE ( 'NONE', *, *, #126, .F. ) ;
#67 = CIRCLE ( 'NONE', #281, 10.00000000000000000 ) ;
#68 = APPROVAL_PERSON_ORGANIZATION ( #318, #370, #139 ) ;
#69 = UNCERTAINTY_MEASURE_WITH_UNIT (LENGTH_MEASURE( 1.000000000000000082E-05 ), #148, 'distance_accuracy_value', 'NONE');
#70 = VERTEX_POINT ( 'NONE', #172 ) ;
#71 = DIRECTION ( 'NONE',  ( -0.000000000000000000, -0.000000000000000000, -1.000000000000000000 ) ) ;
#72 = EDGE_LOOP ( 'NONE', ( #272, #377, #28, #186 ) ) ;
#73 = FACE_BOUND ( 'NONE', #292, .T. ) ;
#74 = CALENDAR_DATE ( 2022, 10, 7 ) ;
#75 = CARTESIAN_POINT ( 'NONE',  ( 0.000000000000000000, 0.000000000000000000, 0.000000000000000000 ) ) ;
#76 = DIRECTION ( 'NONE',  ( 0.000000000000000000, 0.000000000000000000, 1.000000000000000000 ) ) ;
#77 = CARTESIAN_POINT ( 'NONE',  ( 0.000000000000000000, 0.000000000000000000, 0.000000000000000000 ) ) ;
#78 = DIRECTION ( 'NONE',  ( 0.000000000000000000, 0.000000000000000000, 1.000000000000000000 ) ) ;
#79 = APPROVAL_PERSON_ORGANIZATION ( #162, #174, #128 ) ;
#80 = PERSON_AND_ORGANIZATION_ROLE ( 'creator' ) ;
#81 = EDGE_CURVE ( 'NONE', #339, #149, #134, .T. ) ;
#82 = CARTESIAN_POINT ( 'NONE',  ( 0.000000000000000000, 0.000000000000000000, 7.000000000000000000 ) ) ;
#83 = APPROVAL_PERSON_ORGANIZATION ( #285, #38, #189 ) ;
#84 = EDGE_CURVE ( 'NONE', #159, #91, #23, .T. ) ;
#85 = COORDINATED_UNIVERSAL_TIME_OFFSET ( 1, 0, .AHEAD. ) ;
#86 = EDGE_LOOP ( 'NONE', ( #66, #365, #369, #42 ) ) ;
#87 = FACE_OUTER_BOUND ( 'NONE', #176, .T. ) ;
#88 = DIRECTION ( 'NONE',  ( 0.000000000000000000, 0.000000000000000000, 1.000000000000000000 ) ) ;
#89 = EDGE_LOOP ( 'NONE', ( #264, #37 ) ) ;
#90 =( NAMED_UNIT ( * ) PLANE_ANGLE_UNIT ( ) SI_UNIT ( $, .RADIAN. ) );
#91 = VERTEX_POINT ( 'NONE', #331 ) ;
#92 = CARTESIAN_POINT ( 'NONE',  ( 0.000000000000000000, 0.000000000000000000, 7.000000000000000000 ) ) ;
#93 = ORIENTED_EDGE ( 'NONE', *, *, #108, .F. ) ;
#94 = PRODUCT_RELATED_PRODUCT_CATEGORY ( 'detail', '', ( #279 ) ) ;
#95 = CARTESIAN_POINT ( 'NONE',  ( 10.00000000000000000, 1.224646799147353256E-15, 0.000000000000000000 ) ) ;
#96 = LOCAL_TIME ( 11, 1, 58.00000000000000000, #380 ) ;
#97 = CARTESIAN_POINT ( 'NONE',  ( 0.000000000000000000, 0.000000000000000000, 0.000000000000000000 ) ) ;
#98 = APPROVAL_STATUS ( 'not_yet_approved' ) ;
#99 = DIRECTION ( 'NONE',  ( 0.000000000000000000, 0.000000000000000000, 1.000000000000000000 ) ) ;
#100 = AXIS2_PLACEMENT_3D ( 'NONE', #82, #320, #169 ) ;
#101 = DIRECTION ( 'NONE',  ( 0.000000000000000000, 0.000000000000000000, -1.000000000000000000 ) ) ;
#102 = EDGE_CURVE ( 'NONE', #30, #33, #67, .T. ) ;
#103 = EDGE_LOOP ( 'NONE', ( #9, #241 ) ) ;
#104 = CARTESIAN_POINT ( 'NONE',  ( -4.099999999999999645, 0.000000000000000000, 207.0000000000000284 ) ) ;
#105 = PLANE ( 'NONE',  #201 ) ;
#106 = AXIS2_PLACEMENT_3D ( 'NONE', #50, #161, #219 ) ;
#107 = DIRECTION ( 'NONE',  ( -0.000000000000000000, -0.000000000000000000, -1.000000000000000000 ) ) ;
#108 = EDGE_CURVE ( 'NONE', #339, #180, #290, .T. ) ;
#109 = CIRCLE ( 'NONE', #313, 4.099999999999999645 ) ;
#110 = COORDINATED_UNIVERSAL_TIME_OFFSET ( 1, 0, .AHEAD. ) ;
#111 = CYLINDRICAL_SURFACE ( 'NONE', #39, 6.000000000000000888 ) ;
#112 = VERTEX_POINT ( 'NONE', #286 ) ;
#113 = EDGE_CURVE ( 'NONE', #91, #356, #251, .T. ) ;
#114 = AXIS2_PLACEMENT_3D ( 'NONE', #51, #131, #379 ) ;
#115 = CIRCLE ( 'NONE', #27, 0.7000000000000000666 ) ;
#116 = ORIENTED_EDGE ( 'NONE', *, *, #84, .F. ) ;
#117 = ADVANCED_BREP_SHAPE_REPRESENTATION ( '29d9', ( #121, #14 ), #375 ) ;
#118 = ORIENTED_EDGE ( 'NONE', *, *, #217, .F. ) ;
#119 = DIRECTION ( 'NONE',  ( 0.000000000000000000, 0.000000000000000000, 1.000000000000000000 ) ) ;
#120 = EDGE_CURVE ( 'NONE', #112, #356, #109, .T. ) ;
#121 = MANIFOLD_SOLID_BREP ( 'Odebrat vysunutím3', #184 ) ;
#122 = VECTOR ( 'NONE', #16, 1000.000000000000000 ) ;
#123 = DIRECTION ( 'NONE',  ( 1.000000000000000000, 0.000000000000000000, 0.000000000000000000 ) ) ;
#124 = DIRECTION ( 'NONE',  ( 0.000000000000000000, 0.000000000000000000, 1.000000000000000000 ) ) ;
#125 = FACE_OUTER_BOUND ( 'NONE', #63, .T. ) ;
#126 = EDGE_CURVE ( 'NONE', #180, #339, #336, .T. ) ;
#127 = DIRECTION ( 'NONE',  ( 1.224646799147353207E-16, 1.000000000000000000, -0.000000000000000000 ) ) ;
#128 = APPROVAL_ROLE ( '' ) ;
#129 = ORIENTED_EDGE ( 'NONE', *, *, #183, .F. ) ;
#130 = CC_DESIGN_APPROVAL ( #370, ( #344 ) ) ;
#131 = DIRECTION ( 'NONE',  ( 0.000000000000000000, 0.000000000000000000, 1.000000000000000000 ) ) ;
#132 = EDGE_CURVE ( 'NONE', #328, #33, #253, .T. ) ;
#133 = APPROVAL_DATE_TIME ( #21, #38 ) ;
#134 = LINE ( 'NONE', #167, #158 ) ;
#135 = DIRECTION ( 'NONE',  ( 0.000000000000000000, 0.000000000000000000, 1.000000000000000000 ) ) ;
#136 = DIRECTION ( 'NONE',  ( 1.000000000000000000, 0.000000000000000000, 0.000000000000000000 ) ) ;
#137 = CARTESIAN_POINT ( 'NONE',  ( -6.000000000000000888, 0.000000000000000000, 207.0000000000000284 ) ) ;
#138 = ORGANIZATION ( 'NEURÈENÝ', 'NEURÈENÝ', '' ) ;
#139 = APPROVAL_ROLE ( '' ) ;
#140 = EDGE_CURVE ( 'NONE', #270, #30, #223, .T. ) ;
#141 = CARTESIAN_POINT ( 'NONE',  ( 6.700000000000001066, 0.000000000000000000, 7.000000000000006217 ) ) ;
#142 = DIRECTION ( 'NONE',  ( -0.000000000000000000, -0.000000000000000000, -1.000000000000000000 ) ) ;
#143 = CIRCLE ( 'NONE', #106, 6.700000000000001066 ) ;
#144 = SECURITY_CLASSIFICATION_LEVEL ( 'unclassified' ) ;
#145 = PRODUCT_DEFINITION_SHAPE ( 'NONE', 'NONE',  #153 ) ;
#146 = CC_DESIGN_PERSON_AND_ORGANIZATION_ASSIGNMENT ( #289, #5, ( #165 ) ) ;
#147 = ORIENTED_EDGE ( 'NONE', *, *, #266, .T. ) ;
#148 =( LENGTH_UNIT ( ) NAMED_UNIT ( * ) SI_UNIT ( .MILLI., .METRE. ) );
#149 = VERTEX_POINT ( 'NONE', #319 ) ;
#150 = AXIS2_PLACEMENT_3D ( 'NONE', #196, #317, #136 ) ;
#151 = AXIS2_PLACEMENT_3D ( 'NONE', #358, #296, #303 ) ;
#152 = EDGE_LOOP ( 'NONE', ( #31, #8, #351, #163 ) ) ;
#153 = PRODUCT_DEFINITION ( 'NEZNÁMÝ', '', #165, #243 ) ;
#154 = ORIENTED_EDGE ( 'NONE', *, *, #132, .F. ) ;
#155 = CARTESIAN_POINT ( 'NONE',  ( 0.000000000000000000, 0.000000000000000000, 7.700000000000012612 ) ) ;
#156 = DIRECTION ( 'NONE',  ( 1.000000000000000000, 0.000000000000000000, -0.000000000000000000 ) ) ;
#157 = PLANE ( 'NONE',  #10 ) ;
#158 = VECTOR ( 'NONE', #263, 1000.000000000000000 ) ;
#159 = VERTEX_POINT ( 'NONE', #181 ) ;
#160 = AXIS2_PLACEMENT_3D ( 'NONE', #368, #179, #123 ) ;
#161 = DIRECTION ( 'NONE',  ( -0.000000000000000000, -0.000000000000000000, -1.000000000000000000 ) ) ;
#162 = PERSON_AND_ORGANIZATION ( #258, #138 ) ;
#163 = ORIENTED_EDGE ( 'NONE', *, *, #113, .F. ) ;
#164 = VECTOR ( 'NONE', #381, 1000.000000000000000 ) ;
#165 = PRODUCT_DEFINITION_FORMATION_WITH_SPECIFIED_SOURCE ( 'LIBOVOLNÝ', '', #279, .NOT_KNOWN. ) ;
#166 = DIRECTION ( 'NONE',  ( 0.000000000000000000, 0.000000000000000000, 1.000000000000000000 ) ) ;
#167 = CARTESIAN_POINT ( 'NONE',  ( -6.000000000000000888, 0.000000000000000000, 207.0000000000000284 ) ) ;
#168 = CARTESIAN_POINT ( 'NONE',  ( 10.00000000000000000, 1.224646799147353256E-15, 7.000000000000000000 ) ) ;
#169 = DIRECTION ( 'NONE',  ( 1.000000000000000000, 0.000000000000000000, 0.000000000000000000 ) ) ;
#170 = EDGE_CURVE ( 'NONE', #149, #283, #314, .T. ) ;
#171 = CALENDAR_DATE ( 2022, 10, 7 ) ;
#172 = CARTESIAN_POINT ( 'NONE',  ( -6.700000000000001066, 8.205133554287267548E-16, 7.000000000000006217 ) ) ;
#173 = EDGE_LOOP ( 'NONE', ( #154, #233, #262, #205 ) ) ;
#174 = APPROVAL ( #98, 'NEURÈENÝ' ) ;
#175 = EDGE_LOOP ( 'NONE', ( #240, #216 ) ) ;
#176 = EDGE_LOOP ( 'NONE', ( #245, #147, #265, #178 ) ) ;
#177 = EDGE_CURVE ( 'NONE', #180, #283, #206, .T. ) ;
#178 = ORIENTED_EDGE ( 'NONE', *, *, #280, .F. ) ;
#179 = DIRECTION ( 'NONE',  ( 0.000000000000000000, 0.000000000000000000, 1.000000000000000000 ) ) ;
#180 = VERTEX_POINT ( 'NONE', #238 ) ;
#181 = CARTESIAN_POINT ( 'NONE',  ( 4.099999999999999645, 5.021051876504146399E-16, 207.0000000000000284 ) ) ;
#182 = DIRECTION ( 'NONE',  ( 1.000000000000000000, 0.000000000000000000, 0.000000000000000000 ) ) ;
#183 = EDGE_CURVE ( 'NONE', #283, #149, #47, .T. ) ;
#184 = CLOSED_SHELL ( 'NONE', ( #311, #65, #361, #208, #315, #35, #229, #55, #211, #254, #44 ) ) ;
#185 = MECHANICAL_CONTEXT ( 'NONE', #327, 'mechanical' ) ;
#186 = ORIENTED_EDGE ( 'NONE', *, *, #140, .F. ) ;
#187 = TOROIDAL_SURFACE ( 'NONE', #40, 6.700000000000001066, 0.6999999999999999556 ) ;
#188 = CARTESIAN_POINT ( 'NONE',  ( 6.700000000000001066, 0.000000000000000000, 7.700000000000012612 ) ) ;
#189 = APPROVAL_ROLE ( '' ) ;
#190 = ORIENTED_EDGE ( 'NONE', *, *, #244, .T. ) ;
#191 = CC_DESIGN_PERSON_AND_ORGANIZATION_ASSIGNMENT ( #250, #80, ( #165 ) ) ;
#192 = CARTESIAN_POINT ( 'NONE',  ( -6.700000000000001066, 8.205133554287267548E-16, 7.700000000000012612 ) ) ;
#193 = APPLICATION_PROTOCOL_DEFINITION ( 'international standard', 'config_control_design', 1994, #215 ) ;
#194 = LOCAL_TIME ( 11, 1, 58.00000000000000000, #278 ) ;
#195 = DIRECTION ( 'NONE',  ( 1.000000000000000000, 0.000000000000000000, -0.000000000000000000 ) ) ;
#196 = CARTESIAN_POINT ( 'NONE',  ( 0.000000000000000000, 0.000000000000000000, 207.0000000000000284 ) ) ;
#197 = CARTESIAN_POINT ( 'NONE',  ( 0.000000000000000000, 0.000000000000000000, 7.000000000000000000 ) ) ;
#198 = DIRECTION ( 'NONE',  ( -0.000000000000000000, -0.000000000000000000, -1.000000000000000000 ) ) ;
#199 = EDGE_CURVE ( 'NONE', #270, #328, #1, .T. ) ;
#200 = VECTOR ( 'NONE', #198, 1000.000000000000000 ) ;
#201 = AXIS2_PLACEMENT_3D ( 'NONE', #75, #78, #195 ) ;
#202 = ORIENTED_EDGE ( 'NONE', *, *, #170, .T. ) ;
#203 = DIRECTION ( 'NONE',  ( 1.000000000000000000, 0.000000000000000000, 0.000000000000000000 ) ) ;
#204 = AXIS2_PLACEMENT_3D ( 'NONE', #197, #350, #352 ) ;
#205 = ORIENTED_EDGE ( 'NONE', *, *, #102, .T. ) ;
#206 = LINE ( 'NONE', #212, #330 ) ;
#207 = ORIENTED_EDGE ( 'NONE', *, *, #52, .T. ) ;
#208 = ADVANCED_FACE ( 'NONE', ( #305 ), #363, .T. ) ;
#209 = ORIENTED_EDGE ( 'NONE', *, *, #15, .F. ) ;
#210 = DIRECTION ( 'NONE',  ( 0.000000000000000000, 0.000000000000000000, -1.000000000000000000 ) ) ;
#211 = ADVANCED_FACE ( 'NONE', ( #360, #300 ), #157, .T. ) ;
#212 = CARTESIAN_POINT ( 'NONE',  ( 6.000000000000000888, 7.347880794884120722E-16, 207.0000000000000284 ) ) ;
#213 = COORDINATED_UNIVERSAL_TIME_OFFSET ( 1, 0, .AHEAD. ) ;
#214 = CARTESIAN_POINT ( 'NONE',  ( 0.000000000000000000, 0.000000000000000000, 7.000000000000000000 ) ) ;
#215 = APPLICATION_CONTEXT ( 'configuration controlled 3d designs of mechanical parts and assemblies' ) ;
#216 = ORIENTED_EDGE ( 'NONE', *, *, #126, .T. ) ;
#217 = EDGE_CURVE ( 'NONE', #91, #159, #322, .T. ) ;
#218 = DATE_TIME_ROLE ( 'creation_date' ) ;
#219 = DIRECTION ( 'NONE',  ( 1.000000000000000000, 0.000000000000000000, 0.000000000000000000 ) ) ;
#220 = DIRECTION ( 'NONE',  ( -1.000000000000000000, 0.000000000000000000, 0.000000000000000000 ) ) ;
#221 = DIRECTION ( 'NONE',  ( -0.000000000000000000, -0.000000000000000000, -1.000000000000000000 ) ) ;
#222 = AXIS2_PLACEMENT_3D ( 'NONE', #92, #269, #271 ) ;
#223 = LINE ( 'NONE', #348, #200 ) ;
#224 = DIRECTION ( 'NONE',  ( 1.000000000000000000, 0.000000000000000000, 0.000000000000000000 ) ) ;
#225 = CYLINDRICAL_SURFACE ( 'NONE', #204, 10.00000000000000000 ) ;
#226 = AXIS2_PLACEMENT_3D ( 'NONE', #326, #235, #355 ) ;
#227 = CC_DESIGN_SECURITY_CLASSIFICATION ( #344, ( #165 ) ) ;
#228 = FACE_OUTER_BOUND ( 'NONE', #173, .T. ) ;
#229 = ADVANCED_FACE ( 'NONE', ( #347, #284 ), #105, .F. ) ;
#230 = DIRECTION ( 'NONE',  ( -1.000000000000000000, 0.000000000000000000, 0.000000000000000000 ) ) ;
#231 = DIRECTION ( 'NONE',  ( -0.000000000000000000, -0.000000000000000000, -1.000000000000000000 ) ) ;
#232 = PERSON_AND_ORGANIZATION_ROLE ( 'classification_officer' ) ;
#233 = ORIENTED_EDGE ( 'NONE', *, *, #199, .F. ) ;
#234 = CARTESIAN_POINT ( 'NONE',  ( 0.000000000000000000, 0.000000000000000000, 207.0000000000000284 ) ) ;
#235 = DIRECTION ( 'NONE',  ( 0.000000000000000000, 0.000000000000000000, 1.000000000000000000 ) ) ;
#236 = EDGE_LOOP ( 'NONE', ( #359, #61, #301, #207 ) ) ;
#237 = AXIS2_PLACEMENT_3D ( 'NONE', #342, #88, #203 ) ;
#238 = CARTESIAN_POINT ( 'NONE',  ( 6.000000000000000888, 7.347880794884120722E-16, 207.0000000000000284 ) ) ;
#239 = LOCAL_TIME ( 11, 1, 58.00000000000000000, #110 ) ;
#240 = ORIENTED_EDGE ( 'NONE', *, *, #108, .T. ) ;
#241 = ORIENTED_EDGE ( 'NONE', *, *, #349, .T. ) ;
#242 = DIRECTION ( 'NONE',  ( 1.000000000000000000, 0.000000000000000000, -0.000000000000000000 ) ) ;
#243 = DESIGN_CONTEXT ( 'detailed design', #215, 'design' ) ;
#244 = EDGE_CURVE ( 'NONE', #297, #70, #143, .T. ) ;
#245 = ORIENTED_EDGE ( 'NONE', *, *, #170, .F. ) ;
#246 = CARTESIAN_POINT ( 'NONE',  ( 0.000000000000000000, 0.000000000000000000, 0.000000000000000000 ) ) ;
#247 = AXIS2_PLACEMENT_3D ( 'NONE', #64, #273, #11 ) ;
#248 = DATE_AND_TIME ( #74, #259 ) ;
#249 = PERSON_AND_ORGANIZATION ( #258, #138 ) ;
#250 = PERSON_AND_ORGANIZATION ( #258, #138 ) ;
#251 = LINE ( 'NONE', #104, #164 ) ;
#252 = PERSON_AND_ORGANIZATION_ROLE ( 'design_owner' ) ;
#253 = LINE ( 'NONE', #3, #373 ) ;
#254 = ADVANCED_FACE ( 'NONE', ( #310 ), #187, .F. ) ;
#255 = CARTESIAN_POINT ( 'NONE',  ( 0.000000000000000000, 0.000000000000000000, 7.000000000000000000 ) ) ;
#256 = SHAPE_DEFINITION_REPRESENTATION ( #145, #117 ) ;
#257 = CC_DESIGN_DATE_AND_TIME_ASSIGNMENT ( #341, #218, ( #153 ) ) ;
#258 = PERSON ( 'NEURÈENÝ', 'NEURÈENÝ', 'NEURÈENÝ', ('NEURÈENÝ'), ('NEURÈENÝ'), ('NEURÈENÝ') ) ;
#259 = LOCAL_TIME ( 11, 1, 58.00000000000000000, #213 ) ;
#260 = DIRECTION ( 'NONE',  ( 0.000000000000000000, 0.000000000000000000, -1.000000000000000000 ) ) ;
#261 = DATE_AND_TIME ( #171, #239 ) ;
#262 = ORIENTED_EDGE ( 'NONE', *, *, #140, .T. ) ;
#263 = DIRECTION ( 'NONE',  ( -0.000000000000000000, -0.000000000000000000, -1.000000000000000000 ) ) ;
#264 = ORIENTED_EDGE ( 'NONE', *, *, #52, .F. ) ;
#265 = ORIENTED_EDGE ( 'NONE', *, *, #244, .F. ) ;
#266 = EDGE_CURVE ( 'NONE', #149, #70, #115, .T. ) ;
#267 = AXIS2_PLACEMENT_3D ( 'NONE', #367, #210, #309 ) ;
#268 = CIRCLE ( 'NONE', #100, 10.00000000000000000 ) ;
#269 = DIRECTION ( 'NONE',  ( -0.000000000000000000, -0.000000000000000000, -1.000000000000000000 ) ) ;
#270 = VERTEX_POINT ( 'NONE', #306 ) ;
#271 = DIRECTION ( 'NONE',  ( -1.000000000000000000, 0.000000000000000000, 0.000000000000000000 ) ) ;
#272 = ORIENTED_EDGE ( 'NONE', *, *, #349, .F. ) ;
#273 = DIRECTION ( 'NONE',  ( 0.000000000000000000, 0.000000000000000000, 1.000000000000000000 ) ) ;
#274 = FACE_OUTER_BOUND ( 'NONE', #236, .T. ) ;
#275 = AXIS2_PLACEMENT_3D ( 'NONE', #214, #99, #156 ) ;
#276 = CIRCLE ( 'NONE', #54, 6.700000000000001066 ) ;
#277 = CARTESIAN_POINT ( 'NONE',  ( 4.099999999999999645, 5.021051876504146399E-16, 207.0000000000000284 ) ) ;
#278 = COORDINATED_UNIVERSAL_TIME_OFFSET ( 1, 0, .AHEAD. ) ;
#279 = PRODUCT ( '29d9', '29d9', '', ( #185 ) ) ;
#280 = EDGE_CURVE ( 'NONE', #283, #297, #366, .T. ) ;
#281 = AXIS2_PLACEMENT_3D ( 'NONE', #26, #62, #22 ) ;
#282 = CALENDAR_DATE ( 2022, 10, 7 ) ;
#283 = VERTEX_POINT ( 'NONE', #323 ) ;
#284 = FACE_OUTER_BOUND ( 'NONE', #332, .T. ) ;
#285 = PERSON_AND_ORGANIZATION ( #258, #138 ) ;
#286 = CARTESIAN_POINT ( 'NONE',  ( 4.099999999999999645, 5.021051876504146399E-16, 0.000000000000000000 ) ) ;
#287 = DIRECTION ( 'NONE',  ( 1.000000000000000000, 0.000000000000000000, 0.000000000000000000 ) ) ;
#288 = APPLICATION_PROTOCOL_DEFINITION ( 'international standard', 'config_control_design', 1994, #327 ) ;
#289 = PERSON_AND_ORGANIZATION ( #258, #138 ) ;
#290 = CIRCLE ( 'NONE', #114, 6.000000000000000888 ) ;
#291 = CARTESIAN_POINT ( 'NONE',  ( -4.099999999999999645, 0.000000000000000000, 0.000000000000000000 ) ) ;
#292 = EDGE_LOOP ( 'NONE', ( #190, #7 ) ) ;
#293 = CC_DESIGN_APPROVAL ( #38, ( #165 ) ) ;
#294 = ORIENTED_EDGE ( 'NONE', *, *, #177, .F. ) ;
#295 = DIRECTION ( 'NONE',  ( 0.000000000000000000, 0.000000000000000000, 1.000000000000000000 ) ) ;
#296 = DIRECTION ( 'NONE',  ( -0.000000000000000000, -0.000000000000000000, -1.000000000000000000 ) ) ;
#297 = VERTEX_POINT ( 'NONE', #141 ) ;
#298 = EDGE_LOOP ( 'NONE', ( #118, #116 ) ) ;
#299 = AXIS2_PLACEMENT_3D ( 'NONE', #371, #166, #287 ) ;
#300 = FACE_OUTER_BOUND ( 'NONE', #175, .T. ) ;
#301 = ORIENTED_EDGE ( 'NONE', *, *, #113, .T. ) ;
#302 = CC_DESIGN_DATE_AND_TIME_ASSIGNMENT ( #353, #324, ( #344 ) ) ;
#303 = DIRECTION ( 'NONE',  ( -1.000000000000000000, 0.000000000000000000, 0.000000000000000000 ) ) ;
#304 = FACE_OUTER_BOUND ( 'NONE', #103, .T. ) ;
#305 = FACE_OUTER_BOUND ( 'NONE', #72, .T. ) ;
#306 = CARTESIAN_POINT ( 'NONE',  ( -10.00000000000000000, 0.000000000000000000, 7.000000000000000000 ) ) ;
#307 = AXIS2_PLACEMENT_3D ( 'NONE', #155, #295, #12 ) ;
#308 = PERSON_AND_ORGANIZATION ( #258, #138 ) ;
#309 = DIRECTION ( 'NONE',  ( -1.000000000000000000, 0.000000000000000000, 0.000000000000000000 ) ) ;
#310 = FACE_OUTER_BOUND ( 'NONE', #43, .T. ) ;
#311 = ADVANCED_FACE ( 'NONE', ( #4 ), #56, .F. ) ;
#312 = ORIENTED_EDGE ( 'NONE', *, *, #343, .F. ) ;
#313 = AXIS2_PLACEMENT_3D ( 'NONE', #77, #221, #346 ) ;
#314 = CIRCLE ( 'NONE', #307, 6.000000000000000888 ) ;
#315 = ADVANCED_FACE ( 'NONE', ( #228 ), #225, .T. ) ;
#316 = CARTESIAN_POINT ( 'NONE',  ( 0.000000000000000000, 0.000000000000000000, 0.000000000000000000 ) ) ;
#317 = DIRECTION ( 'NONE',  ( 0.000000000000000000, 0.000000000000000000, 1.000000000000000000 ) ) ;
#318 = PERSON_AND_ORGANIZATION ( #258, #138 ) ;
#319 = CARTESIAN_POINT ( 'NONE',  ( -6.000000000000000888, 0.000000000000000000, 7.700000000000012612 ) ) ;
#320 = DIRECTION ( 'NONE',  ( 0.000000000000000000, 0.000000000000000000, 1.000000000000000000 ) ) ;
#321 = TOROIDAL_SURFACE ( 'NONE', #226, 6.700000000000001066, 0.6999999999999999556 ) ;
#322 = CIRCLE ( 'NONE', #299, 4.099999999999999645 ) ;
#323 = CARTESIAN_POINT ( 'NONE',  ( 6.000000000000000888, 7.347880794884120722E-16, 7.700000000000012612 ) ) ;
#324 = DATE_TIME_ROLE ( 'classification_date' ) ;
#325 = ORIENTED_EDGE ( 'NONE', *, *, #102, .F. ) ;
#326 = CARTESIAN_POINT ( 'NONE',  ( 0.000000000000000000, 0.000000000000000000, 7.700000000000012612 ) ) ;
#327 = APPLICATION_CONTEXT ( 'configuration controlled 3d designs of mechanical parts and assemblies' ) ;
#328 = VERTEX_POINT ( 'NONE', #168 ) ;
#329 = CIRCLE ( 'NONE', #18, 4.099999999999999645 ) ;
#330 = VECTOR ( 'NONE', #32, 1000.000000000000000 ) ;
#331 = CARTESIAN_POINT ( 'NONE',  ( -4.099999999999999645, 0.000000000000000000, 207.0000000000000284 ) ) ;
#332 = EDGE_LOOP ( 'NONE', ( #325, #209 ) ) ;
#333 = CC_DESIGN_PERSON_AND_ORGANIZATION_ASSIGNMENT ( #249, #252, ( #279 ) ) ;
#334 = CARTESIAN_POINT ( 'NONE',  ( -10.00000000000000000, 0.000000000000000000, 0.000000000000000000 ) ) ;
#335 = DIRECTION ( 'NONE',  ( 1.000000000000000000, 0.000000000000000000, 0.000000000000000000 ) ) ;
#336 = CIRCLE ( 'NONE', #150, 6.000000000000000888 ) ;
#337 = DIRECTION ( 'NONE',  ( -1.000000000000000000, 1.224646799147353454E-16, 0.000000000000000000 ) ) ;
#338 = AXIS2_PLACEMENT_3D ( 'NONE', #234, #260, #230 ) ;
#339 = VERTEX_POINT ( 'NONE', #137 ) ;
#340 = ORIENTED_EDGE ( 'NONE', *, *, #81, .T. ) ;
#341 = DATE_AND_TIME ( #376, #194 ) ;
#342 = CARTESIAN_POINT ( 'NONE',  ( 0.000000000000000000, 0.000000000000000000, 207.0000000000000284 ) ) ;
#343 = EDGE_CURVE ( 'NONE', #70, #297, #276, .T. ) ;
#344 = SECURITY_CLASSIFICATION ( '', '', #144 ) ;
#345 = APPROVAL_STATUS ( 'not_yet_approved' ) ;
#346 = DIRECTION ( 'NONE',  ( 1.000000000000000000, 0.000000000000000000, 0.000000000000000000 ) ) ;
#347 = FACE_BOUND ( 'NONE', #89, .T. ) ;
#348 = CARTESIAN_POINT ( 'NONE',  ( -10.00000000000000000, 0.000000000000000000, 7.000000000000000000 ) ) ;
#349 = EDGE_CURVE ( 'NONE', #328, #270, #268, .T. ) ;
#350 = DIRECTION ( 'NONE',  ( -0.000000000000000000, -0.000000000000000000, -1.000000000000000000 ) ) ;
#351 = ORIENTED_EDGE ( 'NONE', *, *, #120, .T. ) ;
#352 = DIRECTION ( 'NONE',  ( -1.000000000000000000, 0.000000000000000000, 0.000000000000000000 ) ) ;
#353 = DATE_AND_TIME ( #2, #34 ) ;
#354 = ORIENTED_EDGE ( 'NONE', *, *, #266, .F. ) ;
#355 = DIRECTION ( 'NONE',  ( 1.000000000000000000, 0.000000000000000000, 0.000000000000000000 ) ) ;
#356 = VERTEX_POINT ( 'NONE', #291 ) ;
#357 = AXIS2_PLACEMENT_3D ( 'NONE', #188, #374, #101 ) ;
#358 = CARTESIAN_POINT ( 'NONE',  ( 0.000000000000000000, 0.000000000000000000, 207.0000000000000284 ) ) ;
#359 = ORIENTED_EDGE ( 'NONE', *, *, #6, .F. ) ;
#360 = FACE_BOUND ( 'NONE', #298, .T. ) ;
#361 = ADVANCED_FACE ( 'NONE', ( #24 ), #364, .T. ) ;
#362 =( NAMED_UNIT ( * ) SI_UNIT ( $, .STERADIAN. ) SOLID_ANGLE_UNIT ( ) );
#363 = CYLINDRICAL_SURFACE ( 'NONE', #222, 10.00000000000000000 ) ;
#364 = CYLINDRICAL_SURFACE ( 'NONE', #151, 6.000000000000000888 ) ;
#365 = ORIENTED_EDGE ( 'NONE', *, *, #177, .T. ) ;
#366 = CIRCLE ( 'NONE', #357, 0.7000000000000000666 ) ;
#367 = CARTESIAN_POINT ( 'NONE',  ( 0.000000000000000000, 0.000000000000000000, 207.0000000000000284 ) ) ;
#368 = CARTESIAN_POINT ( 'NONE',  ( 0.000000000000000000, 0.000000000000000000, 7.000000000000000000 ) ) ;
#369 = ORIENTED_EDGE ( 'NONE', *, *, #183, .T. ) ;
#370 = APPROVAL ( #25, 'NEURÈENÝ' ) ;
#371 = CARTESIAN_POINT ( 'NONE',  ( 0.000000000000000000, 0.000000000000000000, 207.0000000000000284 ) ) ;
#372 = PLANE ( 'NONE',  #275 ) ;
#373 = VECTOR ( 'NONE', #142, 1000.000000000000000 ) ;
#374 = DIRECTION ( 'NONE',  ( 0.000000000000000000, -1.000000000000000000, 0.000000000000000000 ) ) ;
#375 =( GEOMETRIC_REPRESENTATION_CONTEXT ( 3 ) GLOBAL_UNCERTAINTY_ASSIGNED_CONTEXT ( ( #69 ) ) GLOBAL_UNIT_ASSIGNED_CONTEXT ( ( #148, #90, #362 ) ) REPRESENTATION_CONTEXT ( 'NONE', 'WORKASPACE' ) );
#376 = CALENDAR_DATE ( 2022, 10, 7 ) ;
#377 = ORIENTED_EDGE ( 'NONE', *, *, #132, .T. ) ;
#378 = CC_DESIGN_PERSON_AND_ORGANIZATION_ASSIGNMENT ( #29, #232, ( #344 ) ) ;
#379 = DIRECTION ( 'NONE',  ( 1.000000000000000000, 0.000000000000000000, 0.000000000000000000 ) ) ;
#380 = COORDINATED_UNIVERSAL_TIME_OFFSET ( 1, 0, .AHEAD. ) ;
#381 = DIRECTION ( 'NONE',  ( 0.000000000000000000, 0.000000000000000000, -1.000000000000000000 ) ) ;
ENDSEC;
END-ISO-10303-21;
