ISO-10303-21;
HEADER;
FILE_DESCRIPTION (( 'STEP AP203' ),
    '1' );
FILE_NAME ('4db1.STEP',
    '2022-07-10T09:19:58',
    ( '' ),
    ( '' ),
    'SwSTEP 2.0',
    'SolidWorks 2019',
    '' );
FILE_SCHEMA (( 'CONFIG_CONTROL_DESIGN' ));
ENDSEC;

DATA;
#1 = AXIS2_PLACEMENT_3D ( 'NONE', #239, #91, #207 ) ;
#2 = FACE_OUTER_BOUND ( 'NONE', #83, .T. ) ;
#3 = DIRECTION ( 'NONE',  ( 1.000000000000000000, 0.000000000000000000, 0.000000000000000000 ) ) ;
#4 = CARTESIAN_POINT ( 'NONE',  ( -2.000000000000000000, 0.000000000000000000, 3.299999999999997158 ) ) ;
#5 = CC_DESIGN_PERSON_AND_ORGANIZATION_ASSIGNMENT ( #272, #222, ( #380 ) ) ;
#6 = PERSON_AND_ORGANIZATION_ROLE ( 'design_owner' ) ;
#7 = DIRECTION ( 'NONE',  ( 1.000000000000000000, 0.000000000000000000, 0.000000000000000000 ) ) ;
#8 = ADVANCED_BREP_SHAPE_REPRESENTATION ( '4db1', ( #190, #206 ), #184 ) ;
#9 = PERSON_AND_ORGANIZATION_ROLE ( 'classification_officer' ) ;
#10 = APPROVAL_ROLE ( '' ) ;
#11 = DIRECTION ( 'NONE',  ( 1.000000000000000000, 0.000000000000000000, 0.000000000000000000 ) ) ;
#12 = EDGE_LOOP ( 'NONE', ( #67, #318, #51, #80 ) ) ;
#13 = DIRECTION ( 'NONE',  ( -0.000000000000000000, -0.000000000000000000, -1.000000000000000000 ) ) ;
#14 = ORIENTED_EDGE ( 'NONE', *, *, #357, .F. ) ;
#15 = CARTESIAN_POINT ( 'NONE',  ( 0.000000000000000000, 0.000000000000000000, 103.0000000000000142 ) ) ;
#16 = AXIS2_PLACEMENT_3D ( 'NONE', #66, #13, #157 ) ;
#17 = DIRECTION ( 'NONE',  ( 1.000000000000000000, 0.000000000000000000, 0.000000000000000000 ) ) ;
#18 = AXIS2_PLACEMENT_3D ( 'NONE', #148, #172, #146 ) ;
#19 = ORIENTED_EDGE ( 'NONE', *, *, #168, .F. ) ;
#20 = DATE_AND_TIME ( #196, #274 ) ;
#21 = CARTESIAN_POINT ( 'NONE',  ( 0.000000000000000000, 0.000000000000000000, 0.000000000000000000 ) ) ;
#22 = TOROIDAL_SURFACE ( 'NONE', #249, 2.299999999999999822, 0.2999999999999999889 ) ;
#23 = AXIS2_PLACEMENT_3D ( 'NONE', #142, #134, #197 ) ;
#24 = DIRECTION ( 'NONE',  ( 0.000000000000000000, 0.000000000000000000, -1.000000000000000000 ) ) ;
#25 = ORIENTED_EDGE ( 'NONE', *, *, #357, .T. ) ;
#26 = CIRCLE ( 'NONE', #71, 2.000000000000000000 ) ;
#27 = CARTESIAN_POINT ( 'NONE',  ( -1.000000000000000000, 0.000000000000000000, 0.000000000000000000 ) ) ;
#28 = EDGE_LOOP ( 'NONE', ( #257, #41 ) ) ;
#29 = ORIENTED_EDGE ( 'NONE', *, *, #334, .F. ) ;
#30 = ADVANCED_FACE ( 'NONE', ( #373, #348 ), #49, .T. ) ;
#31 = COORDINATED_UNIVERSAL_TIME_OFFSET ( 1, 0, .AHEAD. ) ;
#32 = CARTESIAN_POINT ( 'NONE',  ( -2.299999999999999822, 2.816687638038912056E-16, 2.999999999999998668 ) ) ;
#33 = PERSON_AND_ORGANIZATION ( #59, #173 ) ;
#34 = CIRCLE ( 'NONE', #56, 0.2999999999999999334 ) ;
#35 = CARTESIAN_POINT ( 'NONE',  ( 0.000000000000000000, 0.000000000000000000, 0.000000000000000000 ) ) ;
#36 = PRODUCT_DEFINITION ( 'NEZNÁMÝ', '', #380, #38 ) ;
#37 = PLANE ( 'NONE',  #187 ) ;
#38 = DESIGN_CONTEXT ( 'detailed design', #176, 'design' ) ;
#39 = DIRECTION ( 'NONE',  ( 0.000000000000000000, 0.000000000000000000, 1.000000000000000000 ) ) ;
#40 = CIRCLE ( 'NONE', #150, 0.2999999999999999334 ) ;
#41 = ORIENTED_EDGE ( 'NONE', *, *, #159, .T. ) ;
#42 = PRODUCT ( '4db1', '4db1', '', ( #288 ) ) ;
#43 = APPROVAL ( #374, 'NEURÈENÝ' ) ;
#44 = VERTEX_POINT ( 'NONE', #4 ) ;
#45 = APPROVAL ( #212, 'NEURÈENÝ' ) ;
#46 = ORIENTED_EDGE ( 'NONE', *, *, #171, .T. ) ;
#47 = EDGE_CURVE ( 'NONE', #244, #44, #329, .T. ) ;
#48 = CARTESIAN_POINT ( 'NONE',  ( 2.299999999999999822, 0.000000000000000000, 2.999999999999998668 ) ) ;
#49 = PLANE ( 'NONE',  #227 ) ;
#50 = DIRECTION ( 'NONE',  ( 1.000000000000000000, 0.000000000000000000, 0.000000000000000000 ) ) ;
#51 = ORIENTED_EDGE ( 'NONE', *, *, #358, .T. ) ;
#52 = CARTESIAN_POINT ( 'NONE',  ( 2.000000000000000000, 2.449293598294706414E-16, 3.299999999999997158 ) ) ;
#53 = ORIENTED_EDGE ( 'NONE', *, *, #47, .T. ) ;
#54 =( NAMED_UNIT ( * ) SI_UNIT ( $, .STERADIAN. ) SOLID_ANGLE_UNIT ( ) );
#55 = DIRECTION ( 'NONE',  ( 0.000000000000000000, 0.000000000000000000, 1.000000000000000000 ) ) ;
#56 = AXIS2_PLACEMENT_3D ( 'NONE', #319, #283, #24 ) ;
#57 = DIRECTION ( 'NONE',  ( 1.000000000000000000, 0.000000000000000000, -0.000000000000000000 ) ) ;
#58 = CARTESIAN_POINT ( 'NONE',  ( -2.000000000000000000, 0.000000000000000000, 103.0000000000000142 ) ) ;
#59 = PERSON ( 'NEURÈENÝ', 'NEURÈENÝ', 'NEURÈENÝ', ('NEURÈENÝ'), ('NEURÈENÝ'), ('NEURÈENÝ') ) ;
#60 = CARTESIAN_POINT ( 'NONE',  ( 0.000000000000000000, 0.000000000000000000, 0.000000000000000000 ) ) ;
#61 = CIRCLE ( 'NONE', #224, 1.000000000000000000 ) ;
#62 = CC_DESIGN_APPROVAL ( #45, ( #380 ) ) ;
#63 = DIRECTION ( 'NONE',  ( 0.000000000000000000, 0.000000000000000000, 1.000000000000000000 ) ) ;
#64 = DATE_AND_TIME ( #337, #236 ) ;
#65 = DATE_AND_TIME ( #343, #101 ) ;
#66 = CARTESIAN_POINT ( 'NONE',  ( 0.000000000000000000, 0.000000000000000000, 3.000000000000000000 ) ) ;
#67 = ORIENTED_EDGE ( 'NONE', *, *, #261, .F. ) ;
#68 = ADVANCED_FACE ( 'NONE', ( #85 ), #124, .T. ) ;
#69 = EDGE_CURVE ( 'NONE', #286, #44, #140, .T. ) ;
#70 = CARTESIAN_POINT ( 'NONE',  ( 0.000000000000000000, 0.000000000000000000, 3.299999999999997158 ) ) ;
#71 = AXIS2_PLACEMENT_3D ( 'NONE', #263, #259, #237 ) ;
#72 = VERTEX_POINT ( 'NONE', #32 ) ;
#73 = EDGE_CURVE ( 'NONE', #314, #271, #79, .T. ) ;
#74 = DIRECTION ( 'NONE',  ( -0.000000000000000000, -0.000000000000000000, -1.000000000000000000 ) ) ;
#75 = ORIENTED_EDGE ( 'NONE', *, *, #92, .T. ) ;
#76 = AXIS2_PLACEMENT_3D ( 'NONE', #81, #74, #377 ) ;
#77 = DIRECTION ( 'NONE',  ( -0.000000000000000000, -0.000000000000000000, -1.000000000000000000 ) ) ;
#78 = ORIENTED_EDGE ( 'NONE', *, *, #246, .T. ) ;
#79 = CIRCLE ( 'NONE', #346, 1.000000000000000000 ) ;
#80 = ORIENTED_EDGE ( 'NONE', *, *, #138, .T. ) ;
#81 = CARTESIAN_POINT ( 'NONE',  ( 0.000000000000000000, 0.000000000000000000, 3.000000000000000000 ) ) ;
#82 = ORIENTED_EDGE ( 'NONE', *, *, #211, .T. ) ;
#83 = EDGE_LOOP ( 'NONE', ( #132, #46, #198, #338 ) ) ;
#84 = DIRECTION ( 'NONE',  ( 0.000000000000000000, 0.000000000000000000, 1.000000000000000000 ) ) ;
#85 = FACE_OUTER_BOUND ( 'NONE', #299, .T. ) ;
#86 = ADVANCED_FACE ( 'NONE', ( #324, #205 ), #37, .F. ) ;
#87 = AXIS2_PLACEMENT_3D ( 'NONE', #144, #328, #363 ) ;
#88 = DIRECTION ( 'NONE',  ( 0.000000000000000000, 0.000000000000000000, 1.000000000000000000 ) ) ;
#89 = DIRECTION ( 'NONE',  ( -0.000000000000000000, -0.000000000000000000, -1.000000000000000000 ) ) ;
#90 = CARTESIAN_POINT ( 'NONE',  ( -1.000000000000000000, 0.000000000000000000, 103.0000000000000142 ) ) ;
#91 = DIRECTION ( 'NONE',  ( -0.000000000000000000, -0.000000000000000000, -1.000000000000000000 ) ) ;
#92 = EDGE_CURVE ( 'NONE', #381, #310, #111, .T. ) ;
#93 = FACE_OUTER_BOUND ( 'NONE', #195, .T. ) ;
#94 = APPROVAL_PERSON_ORGANIZATION ( #180, #45, #209 ) ;
#95 = CARTESIAN_POINT ( 'NONE',  ( 2.000000000000000000, 2.449293598294706414E-16, 103.0000000000000142 ) ) ;
#96 = EDGE_CURVE ( 'NONE', #241, #244, #26, .T. ) ;
#97 = COORDINATED_UNIVERSAL_TIME_OFFSET ( 1, 0, .AHEAD. ) ;
#98 = LINE ( 'NONE', #303, #107 ) ;
#99 = CIRCLE ( 'NONE', #269, 1.000000000000000000 ) ;
#100 = DIRECTION ( 'NONE',  ( 0.000000000000000000, 0.000000000000000000, -1.000000000000000000 ) ) ;
#101 = LOCAL_TIME ( 11, 19, 58.00000000000000000, #270 ) ;
#102 = VERTEX_POINT ( 'NONE', #179 ) ;
#103 = ADVANCED_FACE ( 'NONE', ( #287 ), #295, .T. ) ;
#104 = DIRECTION ( 'NONE',  ( 1.000000000000000000, 0.000000000000000000, 0.000000000000000000 ) ) ;
#105 = PERSON_AND_ORGANIZATION ( #59, #173 ) ;
#106 = ORIENTED_EDGE ( 'NONE', *, *, #96, .F. ) ;
#107 = VECTOR ( 'NONE', #273, 1000.000000000000000 ) ;
#108 = CIRCLE ( 'NONE', #325, 2.000000000000000000 ) ;
#109 = CARTESIAN_POINT ( 'NONE',  ( 0.000000000000000000, 0.000000000000000000, 3.299999999999997158 ) ) ;
#110 = VERTEX_POINT ( 'NONE', #291 ) ;
#111 = CIRCLE ( 'NONE', #18, 1.000000000000000000 ) ;
#112 = LINE ( 'NONE', #113, #234 ) ;
#113 = CARTESIAN_POINT ( 'NONE',  ( -4.000000000000000000, 0.000000000000000000, 3.000000000000000000 ) ) ;
#114 = ORIENTED_EDGE ( 'NONE', *, *, #358, .F. ) ;
#115 = CC_DESIGN_APPROVAL ( #43, ( #251 ) ) ;
#116 = PERSON_AND_ORGANIZATION ( #59, #173 ) ;
#117 = ORIENTED_EDGE ( 'NONE', *, *, #246, .F. ) ;
#118 = CC_DESIGN_DATE_AND_TIME_ASSIGNMENT ( #64, #226, ( #36 ) ) ;
#119 = CARTESIAN_POINT ( 'NONE',  ( 0.000000000000000000, 0.000000000000000000, 103.0000000000000142 ) ) ;
#120 = CC_DESIGN_DATE_AND_TIME_ASSIGNMENT ( #20, #133, ( #251 ) ) ;
#121 = DIRECTION ( 'NONE',  ( 1.000000000000000000, 0.000000000000000000, -0.000000000000000000 ) ) ;
#122 = DATE_AND_TIME ( #262, #302 ) ;
#123 = CARTESIAN_POINT ( 'NONE',  ( 0.000000000000000000, 0.000000000000000000, 0.000000000000000000 ) ) ;
#124 = CYLINDRICAL_SURFACE ( 'NONE', #175, 2.000000000000000000 ) ;
#125 = DIRECTION ( 'NONE',  ( -1.000000000000000000, 1.224646799147353207E-16, 0.000000000000000000 ) ) ;
#126 = EDGE_LOOP ( 'NONE', ( #230, #370 ) ) ;
#127 = DIRECTION ( 'NONE',  ( -0.000000000000000000, -0.000000000000000000, -1.000000000000000000 ) ) ;
#128 = CC_DESIGN_PERSON_AND_ORGANIZATION_ASSIGNMENT ( #267, #9, ( #251 ) ) ;
#129 = CARTESIAN_POINT ( 'NONE',  ( 4.000000000000000000, 4.898587196589412829E-16, 3.000000000000000000 ) ) ;
#130 = VECTOR ( 'NONE', #285, 1000.000000000000000 ) ;
#131 = DIRECTION ( 'NONE',  ( 1.000000000000000000, 0.000000000000000000, 0.000000000000000000 ) ) ;
#132 = ORIENTED_EDGE ( 'NONE', *, *, #211, .F. ) ;
#133 = DATE_TIME_ROLE ( 'classification_date' ) ;
#134 = DIRECTION ( 'NONE',  ( 0.000000000000000000, 0.000000000000000000, 1.000000000000000000 ) ) ;
#135 = VECTOR ( 'NONE', #100, 1000.000000000000000 ) ;
#136 = ORIENTED_EDGE ( 'NONE', *, *, #47, .F. ) ;
#137 = APPROVAL_PERSON_ORGANIZATION ( #333, #43, #10 ) ;
#138 = EDGE_CURVE ( 'NONE', #110, #102, #163, .T. ) ;
#139 = ORIENTED_EDGE ( 'NONE', *, *, #313, .T. ) ;
#140 = CIRCLE ( 'NONE', #361, 2.000000000000000000 ) ;
#141 = ORIENTED_EDGE ( 'NONE', *, *, #334, .T. ) ;
#142 = CARTESIAN_POINT ( 'NONE',  ( 0.000000000000000000, 0.000000000000000000, 0.000000000000000000 ) ) ;
#143 = ORIENTED_EDGE ( 'NONE', *, *, #218, .T. ) ;
#144 = CARTESIAN_POINT ( 'NONE',  ( 0.000000000000000000, 0.000000000000000000, 103.0000000000000142 ) ) ;
#145 = CARTESIAN_POINT ( 'NONE',  ( 0.000000000000000000, 0.000000000000000000, 103.0000000000000142 ) ) ;
#146 = DIRECTION ( 'NONE',  ( 1.000000000000000000, 0.000000000000000000, 0.000000000000000000 ) ) ;
#147 = CARTESIAN_POINT ( 'NONE',  ( 0.000000000000000000, 0.000000000000000000, 3.000000000000000000 ) ) ;
#148 = CARTESIAN_POINT ( 'NONE',  ( 0.000000000000000000, 0.000000000000000000, 103.0000000000000142 ) ) ;
#149 = ADVANCED_FACE ( 'NONE', ( #93 ), #297, .T. ) ;
#150 = AXIS2_PLACEMENT_3D ( 'NONE', #191, #335, #125 ) ;
#151 = AXIS2_PLACEMENT_3D ( 'NONE', #147, #88, #3 ) ;
#152 = PERSON_AND_ORGANIZATION_ROLE ( 'creator' ) ;
#153 = DIRECTION ( 'NONE',  ( 1.000000000000000000, 0.000000000000000000, 0.000000000000000000 ) ) ;
#154 = DIRECTION ( 'NONE',  ( -0.000000000000000000, -0.000000000000000000, -1.000000000000000000 ) ) ;
#155 = SECURITY_CLASSIFICATION_LEVEL ( 'unclassified' ) ;
#156 = ORIENTED_EDGE ( 'NONE', *, *, #73, .F. ) ;
#157 = DIRECTION ( 'NONE',  ( 1.000000000000000000, 0.000000000000000000, 0.000000000000000000 ) ) ;
#158 = EDGE_LOOP ( 'NONE', ( #75, #82, #139, #162 ) ) ;
#159 = EDGE_CURVE ( 'NONE', #320, #220, #281, .T. ) ;
#160 = DIRECTION ( 'NONE',  ( 0.000000000000000000, 0.000000000000000000, 1.000000000000000000 ) ) ;
#161 = FACE_OUTER_BOUND ( 'NONE', #158, .T. ) ;
#162 = ORIENTED_EDGE ( 'NONE', *, *, #276, .F. ) ;
#163 = CIRCLE ( 'NONE', #213, 4.000000000000000000 ) ;
#164 = ORIENTED_EDGE ( 'NONE', *, *, #96, .T. ) ;
#165 = FACE_OUTER_BOUND ( 'NONE', #252, .T. ) ;
#166 = AXIS2_PLACEMENT_3D ( 'NONE', #277, #316, #376 ) ;
#167 = CYLINDRICAL_SURFACE ( 'NONE', #166, 1.000000000000000000 ) ;
#168 = EDGE_CURVE ( 'NONE', #72, #342, #344, .T. ) ;
#169 = LINE ( 'NONE', #345, #130 ) ;
#170 = EDGE_LOOP ( 'NONE', ( #141, #164 ) ) ;
#171 = EDGE_CURVE ( 'NONE', #310, #381, #99, .T. ) ;
#172 = DIRECTION ( 'NONE',  ( 0.000000000000000000, 0.000000000000000000, 1.000000000000000000 ) ) ;
#173 = ORGANIZATION ( 'NEURÈENÝ', 'NEURÈENÝ', '' ) ;
#174 = APPLICATION_PROTOCOL_DEFINITION ( 'international standard', 'config_control_design', 1994, #317 ) ;
#175 = AXIS2_PLACEMENT_3D ( 'NONE', #145, #289, #359 ) ;
#176 = APPLICATION_CONTEXT ( 'configuration controlled 3d designs of mechanical parts and assemblies' ) ;
#177 = APPROVAL_STATUS ( 'not_yet_approved' ) ;
#178 = PERSON_AND_ORGANIZATION ( #59, #173 ) ;
#179 = CARTESIAN_POINT ( 'NONE',  ( 4.000000000000000000, 4.898587196589412829E-16, 0.000000000000000000 ) ) ;
#180 = PERSON_AND_ORGANIZATION ( #59, #173 ) ;
#181 = LINE ( 'NONE', #332, #135 ) ;
#182 = UNCERTAINTY_MEASURE_WITH_UNIT (LENGTH_MEASURE( 1.000000000000000082E-05 ), #202, 'distance_accuracy_value', 'NONE');
#183 = DIRECTION ( 'NONE',  ( -0.000000000000000000, -0.000000000000000000, -1.000000000000000000 ) ) ;
#184 =( GEOMETRIC_REPRESENTATION_CONTEXT ( 3 ) GLOBAL_UNCERTAINTY_ASSIGNED_CONTEXT ( ( #182 ) ) GLOBAL_UNIT_ASSIGNED_CONTEXT ( ( #202, #208, #54 ) ) REPRESENTATION_CONTEXT ( 'NONE', 'WORKASPACE' ) );
#185 = DIRECTION ( 'NONE',  ( 0.000000000000000000, 0.000000000000000000, 1.000000000000000000 ) ) ;
#186 = APPROVAL ( #177, 'NEURÈENÝ' ) ;
#187 = AXIS2_PLACEMENT_3D ( 'NONE', #60, #364, #57 ) ;
#188 = FACE_BOUND ( 'NONE', #307, .T. ) ;
#189 = ORIENTED_EDGE ( 'NONE', *, *, #313, .F. ) ;
#190 = MANIFOLD_SOLID_BREP ( 'Odebrat vysunutím3', #304 ) ;
#191 = CARTESIAN_POINT ( 'NONE',  ( -2.299999999999999822, 2.816687638038912056E-16, 3.299999999999997158 ) ) ;
#192 = ORIENTED_EDGE ( 'NONE', *, *, #138, .F. ) ;
#193 = PLANE ( 'NONE',  #235 ) ;
#194 = APPROVAL_PERSON_ORGANIZATION ( #178, #186, #258 ) ;
#195 = EDGE_LOOP ( 'NONE', ( #229, #29, #53, #201 ) ) ;
#196 = CALENDAR_DATE ( 2022, 10, 7 ) ;
#197 = DIRECTION ( 'NONE',  ( 1.000000000000000000, 0.000000000000000000, 0.000000000000000000 ) ) ;
#198 = ORIENTED_EDGE ( 'NONE', *, *, #276, .T. ) ;
#199 = CARTESIAN_POINT ( 'NONE',  ( 1.000000000000000000, 1.224646799147353207E-16, 103.0000000000000142 ) ) ;
#200 = CARTESIAN_POINT ( 'NONE',  ( 0.000000000000000000, 0.000000000000000000, 3.000000000000000000 ) ) ;
#201 = ORIENTED_EDGE ( 'NONE', *, *, #280, .T. ) ;
#202 =( LENGTH_UNIT ( ) NAMED_UNIT ( * ) SI_UNIT ( .MILLI., .METRE. ) );
#203 = CARTESIAN_POINT ( 'NONE',  ( 0.000000000000000000, 0.000000000000000000, 0.000000000000000000 ) ) ;
#204 = DIRECTION ( 'NONE',  ( 1.000000000000000000, 0.000000000000000000, 0.000000000000000000 ) ) ;
#205 = FACE_OUTER_BOUND ( 'NONE', #379, .T. ) ;
#206 = AXIS2_PLACEMENT_3D ( 'NONE', #123, #84, #204 ) ;
#207 = DIRECTION ( 'NONE',  ( -1.000000000000000000, 0.000000000000000000, 0.000000000000000000 ) ) ;
#208 =( NAMED_UNIT ( * ) PLANE_ANGLE_UNIT ( ) SI_UNIT ( $, .RADIAN. ) );
#209 = APPROVAL_ROLE ( '' ) ;
#210 = LINE ( 'NONE', #129, #300 ) ;
#211 = EDGE_CURVE ( 'NONE', #310, #271, #98, .T. ) ;
#212 = APPROVAL_STATUS ( 'not_yet_approved' ) ;
#213 = AXIS2_PLACEMENT_3D ( 'NONE', #35, #265, #7 ) ;
#214 = DIRECTION ( 'NONE',  ( 1.000000000000000000, 0.000000000000000000, 0.000000000000000000 ) ) ;
#215 = DIRECTION ( 'NONE',  ( 1.000000000000000000, 0.000000000000000000, 0.000000000000000000 ) ) ;
#216 = ORIENTED_EDGE ( 'NONE', *, *, #261, .T. ) ;
#217 = CIRCLE ( 'NONE', #292, 2.000000000000000000 ) ;
#218 = EDGE_CURVE ( 'NONE', #44, #72, #40, .T. ) ;
#219 = CARTESIAN_POINT ( 'NONE',  ( -4.000000000000000000, 0.000000000000000000, 3.000000000000000000 ) ) ;
#220 = VERTEX_POINT ( 'NONE', #219 ) ;
#221 = DIRECTION ( 'NONE',  ( 0.000000000000000000, 0.000000000000000000, 1.000000000000000000 ) ) ;
#222 = PERSON_AND_ORGANIZATION_ROLE ( 'design_supplier' ) ;
#223 = AXIS2_PLACEMENT_3D ( 'NONE', #245, #127, #214 ) ;
#224 = AXIS2_PLACEMENT_3D ( 'NONE', #21, #77, #253 ) ;
#225 = EDGE_LOOP ( 'NONE', ( #321, #233, #25, #19 ) ) ;
#226 = DATE_TIME_ROLE ( 'creation_date' ) ;
#227 = AXIS2_PLACEMENT_3D ( 'NONE', #119, #55, #121 ) ;
#228 = DIRECTION ( 'NONE',  ( 0.000000000000000000, 0.000000000000000000, 1.000000000000000000 ) ) ;
#229 = ORIENTED_EDGE ( 'NONE', *, *, #294, .F. ) ;
#230 = ORIENTED_EDGE ( 'NONE', *, *, #92, .F. ) ;
#231 = DIRECTION ( 'NONE',  ( -0.000000000000000000, -0.000000000000000000, -1.000000000000000000 ) ) ;
#232 = AXIS2_PLACEMENT_3D ( 'NONE', #109, #228, #131 ) ;
#233 = ORIENTED_EDGE ( 'NONE', *, *, #69, .F. ) ;
#234 = VECTOR ( 'NONE', #231, 1000.000000000000000 ) ;
#235 = AXIS2_PLACEMENT_3D ( 'NONE', #200, #255, #309 ) ;
#236 = LOCAL_TIME ( 11, 19, 58.00000000000000000, #331 ) ;
#237 = DIRECTION ( 'NONE',  ( 1.000000000000000000, 0.000000000000000000, 0.000000000000000000 ) ) ;
#238 = ADVANCED_FACE ( 'NONE', ( #275 ), #22, .F. ) ;
#239 = CARTESIAN_POINT ( 'NONE',  ( 0.000000000000000000, 0.000000000000000000, 3.000000000000000000 ) ) ;
#240 = CARTESIAN_POINT ( 'NONE',  ( -2.000000000000000000, 0.000000000000000000, 103.0000000000000142 ) ) ;
#241 = VERTEX_POINT ( 'NONE', #95 ) ;
#242 = CIRCLE ( 'NONE', #23, 4.000000000000000000 ) ;
#243 = DIRECTION ( 'NONE',  ( -0.000000000000000000, -0.000000000000000000, -1.000000000000000000 ) ) ;
#244 = VERTEX_POINT ( 'NONE', #240 ) ;
#245 = CARTESIAN_POINT ( 'NONE',  ( 0.000000000000000000, 0.000000000000000000, 3.000000000000000000 ) ) ;
#246 = EDGE_CURVE ( 'NONE', #342, #72, #301, .T. ) ;
#247 = SHAPE_DEFINITION_REPRESENTATION ( #367, #8 ) ;
#248 = PERSON_AND_ORGANIZATION_ROLE ( 'creator' ) ;
#249 = AXIS2_PLACEMENT_3D ( 'NONE', #70, #160, #17 ) ;
#250 = CARTESIAN_POINT ( 'NONE',  ( 0.000000000000000000, 0.000000000000000000, 103.0000000000000142 ) ) ;
#251 = SECURITY_CLASSIFICATION ( '', '', #155 ) ;
#252 = EDGE_LOOP ( 'NONE', ( #369, #216, #282, #114 ) ) ;
#253 = DIRECTION ( 'NONE',  ( 1.000000000000000000, 0.000000000000000000, 0.000000000000000000 ) ) ;
#254 = ORIENTED_EDGE ( 'NONE', *, *, #69, .T. ) ;
#255 = DIRECTION ( 'NONE',  ( 0.000000000000000000, 0.000000000000000000, 1.000000000000000000 ) ) ;
#256 = ORIENTED_EDGE ( 'NONE', *, *, #326, .F. ) ;
#257 = ORIENTED_EDGE ( 'NONE', *, *, #371, .T. ) ;
#258 = APPROVAL_ROLE ( '' ) ;
#259 = DIRECTION ( 'NONE',  ( 0.000000000000000000, 0.000000000000000000, 1.000000000000000000 ) ) ;
#260 = CC_DESIGN_PERSON_AND_ORGANIZATION_ASSIGNMENT ( #116, #6, ( #42 ) ) ;
#261 = EDGE_CURVE ( 'NONE', #320, #102, #210, .T. ) ;
#262 = CALENDAR_DATE ( 2022, 10, 7 ) ;
#263 = CARTESIAN_POINT ( 'NONE',  ( 0.000000000000000000, 0.000000000000000000, 103.0000000000000142 ) ) ;
#264 = CIRCLE ( 'NONE', #151, 4.000000000000000000 ) ;
#265 = DIRECTION ( 'NONE',  ( 0.000000000000000000, 0.000000000000000000, 1.000000000000000000 ) ) ;
#266 = PRODUCT_RELATED_PRODUCT_CATEGORY ( 'detail', '', ( #42 ) ) ;
#267 = PERSON_AND_ORGANIZATION ( #59, #173 ) ;
#268 = DIRECTION ( 'NONE',  ( -1.000000000000000000, 0.000000000000000000, 0.000000000000000000 ) ) ;
#269 = AXIS2_PLACEMENT_3D ( 'NONE', #15, #185, #104 ) ;
#270 = COORDINATED_UNIVERSAL_TIME_OFFSET ( 1, 0, .AHEAD. ) ;
#271 = VERTEX_POINT ( 'NONE', #298 ) ;
#272 = PERSON_AND_ORGANIZATION ( #59, #173 ) ;
#273 = DIRECTION ( 'NONE',  ( 0.000000000000000000, 0.000000000000000000, -1.000000000000000000 ) ) ;
#274 = LOCAL_TIME ( 11, 19, 58.00000000000000000, #365 ) ;
#275 = FACE_OUTER_BOUND ( 'NONE', #225, .T. ) ;
#276 = EDGE_CURVE ( 'NONE', #381, #314, #181, .T. ) ;
#277 = CARTESIAN_POINT ( 'NONE',  ( 0.000000000000000000, 0.000000000000000000, 103.0000000000000142 ) ) ;
#278 = ORIENTED_EDGE ( 'NONE', *, *, #168, .T. ) ;
#279 = APPROVAL_DATE_TIME ( #296, #45 ) ;
#280 = EDGE_CURVE ( 'NONE', #44, #286, #217, .T. ) ;
#281 = CIRCLE ( 'NONE', #375, 4.000000000000000000 ) ;
#282 = ORIENTED_EDGE ( 'NONE', *, *, #326, .T. ) ;
#283 = DIRECTION ( 'NONE',  ( 0.000000000000000000, -1.000000000000000000, 0.000000000000000000 ) ) ;
#284 = ADVANCED_FACE ( 'NONE', ( #188, #305 ), #193, .T. ) ;
#285 = DIRECTION ( 'NONE',  ( -0.000000000000000000, -0.000000000000000000, -1.000000000000000000 ) ) ;
#286 = VERTEX_POINT ( 'NONE', #52 ) ;
#287 = FACE_OUTER_BOUND ( 'NONE', #12, .T. ) ;
#288 = MECHANICAL_CONTEXT ( 'NONE', #317, 'mechanical' ) ;
#289 = DIRECTION ( 'NONE',  ( -0.000000000000000000, -0.000000000000000000, -1.000000000000000000 ) ) ;
#290 = APPROVAL_DATE_TIME ( #122, #186 ) ;
#291 = CARTESIAN_POINT ( 'NONE',  ( -4.000000000000000000, 0.000000000000000000, 0.000000000000000000 ) ) ;
#292 = AXIS2_PLACEMENT_3D ( 'NONE', #339, #39, #215 ) ;
#293 = CC_DESIGN_APPROVAL ( #186, ( #36 ) ) ;
#294 = EDGE_CURVE ( 'NONE', #241, #286, #169, .T. ) ;
#295 = CYLINDRICAL_SURFACE ( 'NONE', #1, 4.000000000000000000 ) ;
#296 = DATE_AND_TIME ( #366, #353 ) ;
#297 = CYLINDRICAL_SURFACE ( 'NONE', #330, 2.000000000000000000 ) ;
#298 = CARTESIAN_POINT ( 'NONE',  ( 1.000000000000000000, 1.224646799147353207E-16, 0.000000000000000000 ) ) ;
#299 = EDGE_LOOP ( 'NONE', ( #106, #340, #254, #136 ) ) ;
#300 = VECTOR ( 'NONE', #183, 1000.000000000000000 ) ;
#301 = CIRCLE ( 'NONE', #16, 2.299999999999999822 ) ;
#302 = LOCAL_TIME ( 11, 19, 58.00000000000000000, #31 ) ;
#303 = CARTESIAN_POINT ( 'NONE',  ( 1.000000000000000000, 1.224646799147353207E-16, 103.0000000000000142 ) ) ;
#304 = CLOSED_SHELL ( 'NONE', ( #341, #306, #68, #327, #103, #284, #86, #149, #30, #238, #378 ) ) ;
#305 = FACE_OUTER_BOUND ( 'NONE', #28, .T. ) ;
#306 = ADVANCED_FACE ( 'NONE', ( #350 ), #352, .F. ) ;
#307 = EDGE_LOOP ( 'NONE', ( #78, #278 ) ) ;
#308 = CARTESIAN_POINT ( 'NONE',  ( 0.000000000000000000, 0.000000000000000000, 103.0000000000000142 ) ) ;
#309 = DIRECTION ( 'NONE',  ( 1.000000000000000000, 0.000000000000000000, -0.000000000000000000 ) ) ;
#310 = VERTEX_POINT ( 'NONE', #199 ) ;
#311 = VECTOR ( 'NONE', #154, 1000.000000000000000 ) ;
#312 = CARTESIAN_POINT ( 'NONE',  ( 4.000000000000000000, 4.898587196589412829E-16, 3.000000000000000000 ) ) ;
#313 = EDGE_CURVE ( 'NONE', #271, #314, #61, .T. ) ;
#314 = VERTEX_POINT ( 'NONE', #27 ) ;
#315 = APPROVAL_DATE_TIME ( #65, #43 ) ;
#316 = DIRECTION ( 'NONE',  ( 0.000000000000000000, 0.000000000000000000, -1.000000000000000000 ) ) ;
#317 = APPLICATION_CONTEXT ( 'configuration controlled 3d designs of mechanical parts and assemblies' ) ;
#318 = ORIENTED_EDGE ( 'NONE', *, *, #371, .F. ) ;
#319 = CARTESIAN_POINT ( 'NONE',  ( 2.299999999999999822, 0.000000000000000000, 3.299999999999997158 ) ) ;
#320 = VERTEX_POINT ( 'NONE', #312 ) ;
#321 = ORIENTED_EDGE ( 'NONE', *, *, #218, .F. ) ;
#322 = APPLICATION_PROTOCOL_DEFINITION ( 'international standard', 'config_control_design', 1994, #176 ) ;
#323 = DIRECTION ( 'NONE',  ( 1.000000000000000000, 0.000000000000000000, 0.000000000000000000 ) ) ;
#324 = FACE_BOUND ( 'NONE', #354, .T. ) ;
#325 = AXIS2_PLACEMENT_3D ( 'NONE', #250, #347, #50 ) ;
#326 = EDGE_CURVE ( 'NONE', #102, #110, #242, .T. ) ;
#327 = ADVANCED_FACE ( 'NONE', ( #165 ), #372, .T. ) ;
#328 = DIRECTION ( 'NONE',  ( 0.000000000000000000, 0.000000000000000000, -1.000000000000000000 ) ) ;
#329 = LINE ( 'NONE', #58, #311 ) ;
#330 = AXIS2_PLACEMENT_3D ( 'NONE', #308, #243, #268 ) ;
#331 = COORDINATED_UNIVERSAL_TIME_OFFSET ( 1, 0, .AHEAD. ) ;
#332 = CARTESIAN_POINT ( 'NONE',  ( -1.000000000000000000, 0.000000000000000000, 103.0000000000000142 ) ) ;
#333 = PERSON_AND_ORGANIZATION ( #59, #173 ) ;
#334 = EDGE_CURVE ( 'NONE', #244, #241, #108, .T. ) ;
#335 = DIRECTION ( 'NONE',  ( 1.224646799147353207E-16, 1.000000000000000000, -0.000000000000000000 ) ) ;
#336 = EDGE_LOOP ( 'NONE', ( #351, #143, #117, #14 ) ) ;
#337 = CALENDAR_DATE ( 2022, 10, 7 ) ;
#338 = ORIENTED_EDGE ( 'NONE', *, *, #73, .T. ) ;
#339 = CARTESIAN_POINT ( 'NONE',  ( 0.000000000000000000, 0.000000000000000000, 3.299999999999997158 ) ) ;
#340 = ORIENTED_EDGE ( 'NONE', *, *, #294, .T. ) ;
#341 = ADVANCED_FACE ( 'NONE', ( #161 ), #167, .F. ) ;
#342 = VERTEX_POINT ( 'NONE', #48 ) ;
#343 = CALENDAR_DATE ( 2022, 10, 7 ) ;
#344 = CIRCLE ( 'NONE', #223, 2.299999999999999822 ) ;
#345 = CARTESIAN_POINT ( 'NONE',  ( 2.000000000000000000, 2.449293598294706414E-16, 103.0000000000000142 ) ) ;
#346 = AXIS2_PLACEMENT_3D ( 'NONE', #203, #89, #323 ) ;
#347 = DIRECTION ( 'NONE',  ( 0.000000000000000000, 0.000000000000000000, 1.000000000000000000 ) ) ;
#348 = FACE_OUTER_BOUND ( 'NONE', #170, .T. ) ;
#349 = CC_DESIGN_PERSON_AND_ORGANIZATION_ASSIGNMENT ( #105, #248, ( #380 ) ) ;
#350 = FACE_OUTER_BOUND ( 'NONE', #336, .T. ) ;
#351 = ORIENTED_EDGE ( 'NONE', *, *, #280, .F. ) ;
#352 = TOROIDAL_SURFACE ( 'NONE', #232, 2.299999999999999822, 0.2999999999999999889 ) ;
#353 = LOCAL_TIME ( 11, 19, 58.00000000000000000, #97 ) ;
#354 = EDGE_LOOP ( 'NONE', ( #156, #189 ) ) ;
#355 = CC_DESIGN_PERSON_AND_ORGANIZATION_ASSIGNMENT ( #33, #152, ( #36 ) ) ;
#356 = CYLINDRICAL_SURFACE ( 'NONE', #87, 1.000000000000000000 ) ;
#357 = EDGE_CURVE ( 'NONE', #286, #342, #34, .T. ) ;
#358 = EDGE_CURVE ( 'NONE', #220, #110, #112, .T. ) ;
#359 = DIRECTION ( 'NONE',  ( -1.000000000000000000, 0.000000000000000000, 0.000000000000000000 ) ) ;
#360 = CC_DESIGN_SECURITY_CLASSIFICATION ( #251, ( #380 ) ) ;
#361 = AXIS2_PLACEMENT_3D ( 'NONE', #362, #63, #153 ) ;
#362 = CARTESIAN_POINT ( 'NONE',  ( 0.000000000000000000, 0.000000000000000000, 3.299999999999997158 ) ) ;
#363 = DIRECTION ( 'NONE',  ( -1.000000000000000000, 0.000000000000000000, 0.000000000000000000 ) ) ;
#364 = DIRECTION ( 'NONE',  ( 0.000000000000000000, 0.000000000000000000, 1.000000000000000000 ) ) ;
#365 = COORDINATED_UNIVERSAL_TIME_OFFSET ( 1, 0, .AHEAD. ) ;
#366 = CALENDAR_DATE ( 2022, 10, 7 ) ;
#367 = PRODUCT_DEFINITION_SHAPE ( 'NONE', 'NONE',  #36 ) ;
#368 = CARTESIAN_POINT ( 'NONE',  ( 0.000000000000000000, 0.000000000000000000, 3.000000000000000000 ) ) ;
#369 = ORIENTED_EDGE ( 'NONE', *, *, #159, .F. ) ;
#370 = ORIENTED_EDGE ( 'NONE', *, *, #171, .F. ) ;
#371 = EDGE_CURVE ( 'NONE', #220, #320, #264, .T. ) ;
#372 = CYLINDRICAL_SURFACE ( 'NONE', #76, 4.000000000000000000 ) ;
#373 = FACE_BOUND ( 'NONE', #126, .T. ) ;
#374 = APPROVAL_STATUS ( 'not_yet_approved' ) ;
#375 = AXIS2_PLACEMENT_3D ( 'NONE', #368, #221, #11 ) ;
#376 = DIRECTION ( 'NONE',  ( -1.000000000000000000, 0.000000000000000000, 0.000000000000000000 ) ) ;
#377 = DIRECTION ( 'NONE',  ( -1.000000000000000000, 0.000000000000000000, 0.000000000000000000 ) ) ;
#378 = ADVANCED_FACE ( 'NONE', ( #2 ), #356, .F. ) ;
#379 = EDGE_LOOP ( 'NONE', ( #192, #256 ) ) ;
#380 = PRODUCT_DEFINITION_FORMATION_WITH_SPECIFIED_SOURCE ( 'LIBOVOLNÝ', '', #42, .NOT_KNOWN. ) ;
#381 = VERTEX_POINT ( 'NONE', #90 ) ;
ENDSEC;
END-ISO-10303-21;
