ISO-10303-21;
HEADER;
FILE_DESCRIPTION (( 'STEP AP203' ),
    '1' );
FILE_NAME ('f783.STEP',
    '2022-07-10T09:13:28',
    ( '' ),
    ( '' ),
    'SwSTEP 2.0',
    'SolidWorks 2019',
    '' );
FILE_SCHEMA (( 'CONFIG_CONTROL_DESIGN' ));
ENDSEC;

DATA;
#1 = CYLINDRICAL_SURFACE ( 'NONE', #220, 6.000000000000000888 ) ;
#2 = FACE_OUTER_BOUND ( 'NONE', #362, .T. ) ;
#3 = CC_DESIGN_PERSON_AND_ORGANIZATION_ASSIGNMENT ( #170, #23, ( #91 ) ) ;
#4 = DIRECTION ( 'NONE',  ( -0.000000000000000000, -0.000000000000000000, -1.000000000000000000 ) ) ;
#5 = ORIENTED_EDGE ( 'NONE', *, *, #77, .T. ) ;
#6 = CLOSED_SHELL ( 'NONE', ( #223, #160, #264, #262, #21, #290, #321, #109, #304, #292, #363 ) ) ;
#7 = ORIENTED_EDGE ( 'NONE', *, *, #198, .T. ) ;
#8 = AXIS2_PLACEMENT_3D ( 'NONE', #90, #289, #316 ) ;
#9 = ORIENTED_EDGE ( 'NONE', *, *, #310, .T. ) ;
#10 = ORIENTED_EDGE ( 'NONE', *, *, #301, .F. ) ;
#11 = CC_DESIGN_DATE_AND_TIME_ASSIGNMENT ( #142, #371, ( #252 ) ) ;
#12 = CIRCLE ( 'NONE', #41, 6.000000000000000888 ) ;
#13 = ORIENTED_EDGE ( 'NONE', *, *, #236, .F. ) ;
#14 = ORIENTED_EDGE ( 'NONE', *, *, #40, .T. ) ;
#15 = APPROVAL_STATUS ( 'not_yet_approved' ) ;
#16 = ORIENTED_EDGE ( 'NONE', *, *, #60, .T. ) ;
#17 = AXIS2_PLACEMENT_3D ( 'NONE', #134, #222, #340 ) ;
#18 = DIRECTION ( 'NONE',  ( 0.000000000000000000, -1.000000000000000000, 0.000000000000000000 ) ) ;
#19 = AXIS2_PLACEMENT_3D ( 'NONE', #230, #4, #286 ) ;
#20 = LINE ( 'NONE', #137, #250 ) ;
#21 = ADVANCED_FACE ( 'NONE', ( #133 ), #248, .T. ) ;
#22 = DIRECTION ( 'NONE',  ( 0.000000000000000000, 0.000000000000000000, -1.000000000000000000 ) ) ;
#23 = PERSON_AND_ORGANIZATION_ROLE ( 'design_supplier' ) ;
#24 = DIRECTION ( 'NONE',  ( 1.000000000000000000, 0.000000000000000000, 0.000000000000000000 ) ) ;
#25 = AXIS2_PLACEMENT_3D ( 'NONE', #377, #257, #249 ) ;
#26 = CARTESIAN_POINT ( 'NONE',  ( 0.000000000000000000, 0.000000000000000000, 0.000000000000000000 ) ) ;
#27 = TOROIDAL_SURFACE ( 'NONE', #116, 3.500000000000000444, 0.5000000000000000000 ) ;
#28 = DIRECTION ( 'NONE',  ( 0.000000000000000000, 0.000000000000000000, 1.000000000000000000 ) ) ;
#29 = FACE_OUTER_BOUND ( 'NONE', #30, .T. ) ;
#30 = EDGE_LOOP ( 'NONE', ( #148, #187, #183, #325 ) ) ;
#31 = CIRCLE ( 'NONE', #342, 3.000000000000000444 ) ;
#32 = APPLICATION_CONTEXT ( 'configuration controlled 3d designs of mechanical parts and assemblies' ) ;
#33 = DIRECTION ( 'NONE',  ( 0.000000000000000000, 0.000000000000000000, 1.000000000000000000 ) ) ;
#34 = DIRECTION ( 'NONE',  ( -1.000000000000000000, 0.000000000000000000, 0.000000000000000000 ) ) ;
#35 = CARTESIAN_POINT ( 'NONE',  ( 0.000000000000000000, 0.000000000000000000, 5.500000000000005329 ) ) ;
#36 = ORIENTED_EDGE ( 'NONE', *, *, #207, .T. ) ;
#37 = CIRCLE ( 'NONE', #213, 2.000000000000000000 ) ;
#38 = ORIENTED_EDGE ( 'NONE', *, *, #155, .T. ) ;
#39 = ORIENTED_EDGE ( 'NONE', *, *, #275, .T. ) ;
#40 = EDGE_CURVE ( 'NONE', #70, #178, #375, .T. ) ;
#41 = AXIS2_PLACEMENT_3D ( 'NONE', #190, #200, #24 ) ;
#42 = VERTEX_POINT ( 'NONE', #306 ) ;
#43 = LOCAL_TIME ( 11, 13, 28.00000000000000000, #365 ) ;
#44 = DIRECTION ( 'NONE',  ( 0.000000000000000000, 0.000000000000000000, -1.000000000000000000 ) ) ;
#45 = EDGE_LOOP ( 'NONE', ( #244, #360, #300, #14 ) ) ;
#46 = CALENDAR_DATE ( 2022, 10, 7 ) ;
#47 = LINE ( 'NONE', #341, #62 ) ;
#48 = CALENDAR_DATE ( 2022, 10, 7 ) ;
#49 = CARTESIAN_POINT ( 'NONE',  ( 0.000000000000000000, 0.000000000000000000, 5.000000000000000000 ) ) ;
#50 = AXIS2_PLACEMENT_3D ( 'NONE', #380, #179, #353 ) ;
#51 = DIRECTION ( 'NONE',  ( -0.000000000000000000, -0.000000000000000000, -1.000000000000000000 ) ) ;
#52 = APPROVAL_ROLE ( '' ) ;
#53 = DIRECTION ( 'NONE',  ( 1.000000000000000000, 0.000000000000000000, 0.000000000000000000 ) ) ;
#54 = CARTESIAN_POINT ( 'NONE',  ( 0.000000000000000000, 0.000000000000000000, 0.000000000000000000 ) ) ;
#55 = CARTESIAN_POINT ( 'NONE',  ( 0.000000000000000000, 0.000000000000000000, 0.000000000000000000 ) ) ;
#56 = AXIS2_PLACEMENT_3D ( 'NONE', #55, #33, #181 ) ;
#57 = ADVANCED_BREP_SHAPE_REPRESENTATION ( 'f783', ( #346, #344 ), #234 ) ;
#58 = CARTESIAN_POINT ( 'NONE',  ( -6.000000000000000888, 0.000000000000000000, 5.000000000000000000 ) ) ;
#59 = DIRECTION ( 'NONE',  ( 0.000000000000000000, 0.000000000000000000, 1.000000000000000000 ) ) ;
#60 = EDGE_CURVE ( 'NONE', #242, #364, #31, .T. ) ;
#61 = FACE_OUTER_BOUND ( 'NONE', #366, .T. ) ;
#62 = VECTOR ( 'NONE', #194, 1000.000000000000000 ) ;
#63 = FACE_BOUND ( 'NONE', #334, .T. ) ;
#64 = VERTEX_POINT ( 'NONE', #274 ) ;
#65 = MECHANICAL_CONTEXT ( 'NONE', #351, 'mechanical' ) ;
#66 = ORIENTED_EDGE ( 'NONE', *, *, #328, .F. ) ;
#67 = EDGE_LOOP ( 'NONE', ( #330, #97, #66, #265 ) ) ;
#68 = ORIENTED_EDGE ( 'NONE', *, *, #140, .F. ) ;
#69 = CARTESIAN_POINT ( 'NONE',  ( 0.000000000000000000, 0.000000000000000000, 205.0000000000000284 ) ) ;
#70 = VERTEX_POINT ( 'NONE', #255 ) ;
#71 = EDGE_CURVE ( 'NONE', #186, #162, #12, .T. ) ;
#72 = APPLICATION_PROTOCOL_DEFINITION ( 'international standard', 'config_control_design', 1994, #351 ) ;
#73 = ORIENTED_EDGE ( 'NONE', *, *, #125, .F. ) ;
#74 = DATE_AND_TIME ( #196, #159 ) ;
#75 = CARTESIAN_POINT ( 'NONE',  ( 2.000000000000000000, 2.449293598294706414E-16, 205.0000000000000284 ) ) ;
#76 = DIRECTION ( 'NONE',  ( 0.000000000000000000, 0.000000000000000000, -1.000000000000000000 ) ) ;
#77 = EDGE_CURVE ( 'NONE', #269, #64, #268, .T. ) ;
#78 = FACE_OUTER_BOUND ( 'NONE', #45, .T. ) ;
#79 = APPROVAL_ROLE ( '' ) ;
#80 = CARTESIAN_POINT ( 'NONE',  ( -6.000000000000000888, 0.000000000000000000, 0.000000000000000000 ) ) ;
#81 = PERSON_AND_ORGANIZATION ( #102, #180 ) ;
#82 = DIRECTION ( 'NONE',  ( 1.000000000000000000, 0.000000000000000000, 0.000000000000000000 ) ) ;
#83 = FACE_BOUND ( 'NONE', #324, .T. ) ;
#84 = PLANE ( 'NONE',  #85 ) ;
#85 = AXIS2_PLACEMENT_3D ( 'NONE', #147, #59, #202 ) ;
#86 = APPROVAL_PERSON_ORGANIZATION ( #311, #107, #347 ) ;
#87 = EDGE_CURVE ( 'NONE', #70, #240, #141, .T. ) ;
#88 = PLANE ( 'NONE',  #314 ) ;
#89 = FACE_OUTER_BOUND ( 'NONE', #266, .T. ) ;
#90 = CARTESIAN_POINT ( 'NONE',  ( 0.000000000000000000, 0.000000000000000000, 205.0000000000000284 ) ) ;
#91 = PRODUCT_DEFINITION_FORMATION_WITH_SPECIFIED_SOURCE ( 'LIBOVOLNÝ', '', #282, .NOT_KNOWN. ) ;
#92 =( LENGTH_UNIT ( ) NAMED_UNIT ( * ) SI_UNIT ( .MILLI., .METRE. ) );
#93 = VERTEX_POINT ( 'NONE', #75 ) ;
#94 = EDGE_CURVE ( 'NONE', #178, #42, #333, .T. ) ;
#95 = EDGE_LOOP ( 'NONE', ( #131, #287, #7, #185 ) ) ;
#96 = CYLINDRICAL_SURFACE ( 'NONE', #127, 2.000000000000000000 ) ;
#97 = ORIENTED_EDGE ( 'NONE', *, *, #87, .T. ) ;
#98 = VECTOR ( 'NONE', #226, 1000.000000000000000 ) ;
#99 = ORIENTED_EDGE ( 'NONE', *, *, #198, .F. ) ;
#100 = DIRECTION ( 'NONE',  ( 0.000000000000000000, 0.000000000000000000, 1.000000000000000000 ) ) ;
#101 = EDGE_CURVE ( 'NONE', #126, #93, #263, .T. ) ;
#102 = PERSON ( 'NEURÈENÝ', 'NEURÈENÝ', 'NEURÈENÝ', ('NEURÈENÝ'), ('NEURÈENÝ'), ('NEURÈENÝ') ) ;
#103 = ORIENTED_EDGE ( 'NONE', *, *, #125, .T. ) ;
#104 = COORDINATED_UNIVERSAL_TIME_OFFSET ( 1, 0, .AHEAD. ) ;
#105 = CARTESIAN_POINT ( 'NONE',  ( 0.000000000000000000, 0.000000000000000000, 5.500000000000005329 ) ) ;
#106 = CARTESIAN_POINT ( 'NONE',  ( 3.500000000000000444, 0.000000000000000000, 5.500000000000005329 ) ) ;
#107 = APPROVAL ( #218, 'NEURÈENÝ' ) ;
#108 = APPROVAL_DATE_TIME ( #368, #318 ) ;
#109 = ADVANCED_FACE ( 'NONE', ( #78 ), #303, .T. ) ;
#110 = LINE ( 'NONE', #145, #337 ) ;
#111 = DATE_AND_TIME ( #48, #295 ) ;
#112 = EDGE_CURVE ( 'NONE', #331, #357, #201, .T. ) ;
#113 = CARTESIAN_POINT ( 'NONE',  ( 0.000000000000000000, 0.000000000000000000, 205.0000000000000284 ) ) ;
#114 = DIRECTION ( 'NONE',  ( 1.000000000000000000, 0.000000000000000000, 0.000000000000000000 ) ) ;
#115 = CARTESIAN_POINT ( 'NONE',  ( -3.500000000000000444, 4.286263797015737088E-16, 5.000000000000002665 ) ) ;
#116 = AXIS2_PLACEMENT_3D ( 'NONE', #105, #338, #309 ) ;
#117 = DIRECTION ( 'NONE',  ( -0.000000000000000000, -0.000000000000000000, -1.000000000000000000 ) ) ;
#118 = CARTESIAN_POINT ( 'NONE',  ( 0.000000000000000000, 0.000000000000000000, 5.000000000000000000 ) ) ;
#119 = FACE_BOUND ( 'NONE', #293, .T. ) ;
#120 =( NAMED_UNIT ( * ) PLANE_ANGLE_UNIT ( ) SI_UNIT ( $, .RADIAN. ) );
#121 = CIRCLE ( 'NONE', #19, 3.500000000000000444 ) ;
#122 = ORIENTED_EDGE ( 'NONE', *, *, #279, .T. ) ;
#123 = DIRECTION ( 'NONE',  ( 1.000000000000000000, 0.000000000000000000, 0.000000000000000000 ) ) ;
#124 = ORIENTED_EDGE ( 'NONE', *, *, #163, .T. ) ;
#125 = EDGE_CURVE ( 'NONE', #357, #331, #256, .T. ) ;
#126 = VERTEX_POINT ( 'NONE', #166 ) ;
#127 = AXIS2_PLACEMENT_3D ( 'NONE', #359, #44, #212 ) ;
#128 = CC_DESIGN_APPROVAL ( #107, ( #315 ) ) ;
#129 = CC_DESIGN_PERSON_AND_ORGANIZATION_ASSIGNMENT ( #193, #228, ( #282 ) ) ;
#130 = CARTESIAN_POINT ( 'NONE',  ( 0.000000000000000000, 0.000000000000000000, 0.000000000000000000 ) ) ;
#131 = ORIENTED_EDGE ( 'NONE', *, *, #310, .F. ) ;
#132 = PERSON_AND_ORGANIZATION ( #102, #180 ) ;
#133 = FACE_OUTER_BOUND ( 'NONE', #95, .T. ) ;
#134 = CARTESIAN_POINT ( 'NONE',  ( 0.000000000000000000, 0.000000000000000000, 5.000000000000000000 ) ) ;
#135 = CIRCLE ( 'NONE', #276, 3.500000000000000444 ) ;
#136 = PERSON_AND_ORGANIZATION_ROLE ( 'creator' ) ;
#137 = CARTESIAN_POINT ( 'NONE',  ( 2.000000000000000000, 2.449293598294706414E-16, 205.0000000000000284 ) ) ;
#138 = PERSON_AND_ORGANIZATION ( #102, #180 ) ;
#139 = DIRECTION ( 'NONE',  ( 1.000000000000000000, 0.000000000000000000, 0.000000000000000000 ) ) ;
#140 = EDGE_CURVE ( 'NONE', #126, #357, #110, .T. ) ;
#141 = CIRCLE ( 'NONE', #25, 0.4999999999999995559 ) ;
#142 = DATE_AND_TIME ( #271, #43 ) ;
#143 = DIRECTION ( 'NONE',  ( -1.000000000000000000, 0.000000000000000000, 0.000000000000000000 ) ) ;
#144 = APPROVAL_PERSON_ORGANIZATION ( #132, #318, #52 ) ;
#145 = CARTESIAN_POINT ( 'NONE',  ( -2.000000000000000000, 0.000000000000000000, 205.0000000000000284 ) ) ;
#146 = DIRECTION ( 'NONE',  ( 1.000000000000000000, 0.000000000000000000, 0.000000000000000000 ) ) ;
#147 = CARTESIAN_POINT ( 'NONE',  ( 0.000000000000000000, 0.000000000000000000, 205.0000000000000284 ) ) ;
#148 = ORIENTED_EDGE ( 'NONE', *, *, #87, .F. ) ;
#149 = CIRCLE ( 'NONE', #299, 3.000000000000000444 ) ;
#150 = CYLINDRICAL_SURFACE ( 'NONE', #50, 3.000000000000000444 ) ;
#151 = DIRECTION ( 'NONE',  ( 0.000000000000000000, 0.000000000000000000, 1.000000000000000000 ) ) ;
#152 = DIRECTION ( 'NONE',  ( 1.000000000000000000, 0.000000000000000000, 0.000000000000000000 ) ) ;
#153 = ORIENTED_EDGE ( 'NONE', *, *, #207, .F. ) ;
#154 = ORIENTED_EDGE ( 'NONE', *, *, #381, .T. ) ;
#155 = EDGE_CURVE ( 'NONE', #93, #331, #20, .T. ) ;
#156 = ORIENTED_EDGE ( 'NONE', *, *, #101, .F. ) ;
#157 = CC_DESIGN_PERSON_AND_ORGANIZATION_ASSIGNMENT ( #168, #136, ( #91 ) ) ;
#158 = ORIENTED_EDGE ( 'NONE', *, *, #155, .F. ) ;
#159 = LOCAL_TIME ( 11, 13, 28.00000000000000000, #339 ) ;
#160 = ADVANCED_FACE ( 'NONE', ( #219 ), #27, .F. ) ;
#161 = PERSON_AND_ORGANIZATION_ROLE ( 'creator' ) ;
#162 = VERTEX_POINT ( 'NONE', #224 ) ;
#163 = EDGE_CURVE ( 'NONE', #242, #178, #253, .T. ) ;
#164 = PERSON_AND_ORGANIZATION_ROLE ( 'classification_officer' ) ;
#165 = DIRECTION ( 'NONE',  ( 1.000000000000000000, 0.000000000000000000, 0.000000000000000000 ) ) ;
#166 = CARTESIAN_POINT ( 'NONE',  ( -2.000000000000000000, 0.000000000000000000, 205.0000000000000284 ) ) ;
#167 = CIRCLE ( 'NONE', #307, 6.000000000000000888 ) ;
#168 = PERSON_AND_ORGANIZATION ( #102, #180 ) ;
#169 = CARTESIAN_POINT ( 'NONE',  ( 0.000000000000000000, 0.000000000000000000, 0.000000000000000000 ) ) ;
#170 = PERSON_AND_ORGANIZATION ( #102, #180 ) ;
#171 = DIRECTION ( 'NONE',  ( 0.000000000000000000, 0.000000000000000000, 1.000000000000000000 ) ) ;
#172 = AXIS2_PLACEMENT_3D ( 'NONE', #106, #18, #76 ) ;
#173 = DIRECTION ( 'NONE',  ( -1.000000000000000000, 0.000000000000000000, 0.000000000000000000 ) ) ;
#174 = CIRCLE ( 'NONE', #327, 6.000000000000000888 ) ;
#175 = CARTESIAN_POINT ( 'NONE',  ( 3.000000000000000444, 3.673940397442060361E-16, 205.0000000000000284 ) ) ;
#176 = CC_DESIGN_DATE_AND_TIME_ASSIGNMENT ( #111, #199, ( #315 ) ) ;
#177 = CYLINDRICAL_SURFACE ( 'NONE', #8, 2.000000000000000000 ) ;
#178 = VERTEX_POINT ( 'NONE', #343 ) ;
#179 = DIRECTION ( 'NONE',  ( -0.000000000000000000, -0.000000000000000000, -1.000000000000000000 ) ) ;
#180 = ORGANIZATION ( 'NEURÈENÝ', 'NEURÈENÝ', '' ) ;
#181 = DIRECTION ( 'NONE',  ( 1.000000000000000000, 0.000000000000000000, -0.000000000000000000 ) ) ;
#182 = CARTESIAN_POINT ( 'NONE',  ( 0.000000000000000000, 0.000000000000000000, 5.000000000000000000 ) ) ;
#183 = ORIENTED_EDGE ( 'NONE', *, *, #94, .T. ) ;
#184 = EDGE_LOOP ( 'NONE', ( #209, #38, #298, #68 ) ) ;
#185 = ORIENTED_EDGE ( 'NONE', *, *, #71, .T. ) ;
#186 = VERTEX_POINT ( 'NONE', #80 ) ;
#187 = ORIENTED_EDGE ( 'NONE', *, *, #335, .F. ) ;
#188 = LOCAL_TIME ( 11, 13, 28.00000000000000000, #308 ) ;
#189 = DATE_AND_TIME ( #373, #239 ) ;
#190 = CARTESIAN_POINT ( 'NONE',  ( 0.000000000000000000, 0.000000000000000000, 0.000000000000000000 ) ) ;
#191 = DIRECTION ( 'NONE',  ( -0.000000000000000000, -0.000000000000000000, -1.000000000000000000 ) ) ;
#192 = AXIS2_PLACEMENT_3D ( 'NONE', #49, #372, #143 ) ;
#193 = PERSON_AND_ORGANIZATION ( #102, #180 ) ;
#194 = DIRECTION ( 'NONE',  ( -0.000000000000000000, -0.000000000000000000, -1.000000000000000000 ) ) ;
#195 = CC_DESIGN_SECURITY_CLASSIFICATION ( #315, ( #91 ) ) ;
#196 = CALENDAR_DATE ( 2022, 10, 7 ) ;
#197 = DIRECTION ( 'NONE',  ( 0.000000000000000000, 0.000000000000000000, 1.000000000000000000 ) ) ;
#198 = EDGE_CURVE ( 'NONE', #269, #186, #47, .T. ) ;
#199 = DATE_TIME_ROLE ( 'classification_date' ) ;
#200 = DIRECTION ( 'NONE',  ( 0.000000000000000000, 0.000000000000000000, 1.000000000000000000 ) ) ;
#201 = CIRCLE ( 'NONE', #243, 2.000000000000000000 ) ;
#202 = DIRECTION ( 'NONE',  ( 1.000000000000000000, 0.000000000000000000, -0.000000000000000000 ) ) ;
#203 = AXIS2_PLACEMENT_3D ( 'NONE', #35, #28, #146 ) ;
#204 = FACE_OUTER_BOUND ( 'NONE', #317, .T. ) ;
#205 = FACE_OUTER_BOUND ( 'NONE', #217, .T. ) ;
#206 = LINE ( 'NONE', #323, #233 ) ;
#207 = EDGE_CURVE ( 'NONE', #162, #186, #174, .T. ) ;
#208 = DIRECTION ( 'NONE',  ( 1.000000000000000000, 0.000000000000000000, -0.000000000000000000 ) ) ;
#209 = ORIENTED_EDGE ( 'NONE', *, *, #101, .T. ) ;
#210 = DIRECTION ( 'NONE',  ( 0.000000000000000000, 0.000000000000000000, 1.000000000000000000 ) ) ;
#211 = ORIENTED_EDGE ( 'NONE', *, *, #112, .F. ) ;
#212 = DIRECTION ( 'NONE',  ( -1.000000000000000000, 0.000000000000000000, 0.000000000000000000 ) ) ;
#213 = AXIS2_PLACEMENT_3D ( 'NONE', #69, #100, #123 ) ;
#214 = ORIENTED_EDGE ( 'NONE', *, *, #335, .T. ) ;
#215 = ORIENTED_EDGE ( 'NONE', *, *, #71, .F. ) ;
#216 = PRODUCT_DEFINITION_SHAPE ( 'NONE', 'NONE',  #252 ) ;
#217 = EDGE_LOOP ( 'NONE', ( #39, #16 ) ) ;
#218 = APPROVAL_STATUS ( 'not_yet_approved' ) ;
#219 = FACE_OUTER_BOUND ( 'NONE', #67, .T. ) ;
#220 = AXIS2_PLACEMENT_3D ( 'NONE', #118, #237, #34 ) ;
#221 = APPLICATION_PROTOCOL_DEFINITION ( 'international standard', 'config_control_design', 1994, #32 ) ;
#222 = DIRECTION ( 'NONE',  ( 0.000000000000000000, 0.000000000000000000, 1.000000000000000000 ) ) ;
#223 = ADVANCED_FACE ( 'NONE', ( #281 ), #177, .F. ) ;
#224 = CARTESIAN_POINT ( 'NONE',  ( 6.000000000000000888, 7.347880794884120722E-16, 0.000000000000000000 ) ) ;
#225 = UNCERTAINTY_MEASURE_WITH_UNIT (LENGTH_MEASURE( 1.000000000000000082E-05 ), #92, 'distance_accuracy_value', 'NONE');
#226 = DIRECTION ( 'NONE',  ( -0.000000000000000000, -0.000000000000000000, -1.000000000000000000 ) ) ;
#227 = APPROVAL_PERSON_ORGANIZATION ( #81, #241, #79 ) ;
#228 = PERSON_AND_ORGANIZATION_ROLE ( 'design_owner' ) ;
#229 = CARTESIAN_POINT ( 'NONE',  ( 0.000000000000000000, 0.000000000000000000, 205.0000000000000284 ) ) ;
#230 = CARTESIAN_POINT ( 'NONE',  ( 0.000000000000000000, 0.000000000000000000, 5.000000000000000000 ) ) ;
#231 = PRODUCT_RELATED_PRODUCT_CATEGORY ( 'detail', '', ( #282 ) ) ;
#232 = AXIS2_PLACEMENT_3D ( 'NONE', #278, #348, #173 ) ;
#233 = VECTOR ( 'NONE', #349, 1000.000000000000000 ) ;
#234 =( GEOMETRIC_REPRESENTATION_CONTEXT ( 3 ) GLOBAL_UNCERTAINTY_ASSIGNED_CONTEXT ( ( #225 ) ) GLOBAL_UNIT_ASSIGNED_CONTEXT ( ( #92, #120, #267 ) ) REPRESENTATION_CONTEXT ( 'NONE', 'WORKASPACE' ) );
#235 = DIRECTION ( 'NONE',  ( 0.000000000000000000, 0.000000000000000000, 1.000000000000000000 ) ) ;
#236 = EDGE_CURVE ( 'NONE', #64, #269, #167, .T. ) ;
#237 = DIRECTION ( 'NONE',  ( -0.000000000000000000, -0.000000000000000000, -1.000000000000000000 ) ) ;
#238 = CARTESIAN_POINT ( 'NONE',  ( 0.000000000000000000, 0.000000000000000000, 205.0000000000000284 ) ) ;
#239 = LOCAL_TIME ( 11, 13, 28.00000000000000000, #336 ) ;
#240 = VERTEX_POINT ( 'NONE', #115 ) ;
#241 = APPROVAL ( #15, 'NEURÈENÝ' ) ;
#242 = VERTEX_POINT ( 'NONE', #175 ) ;
#243 = AXIS2_PLACEMENT_3D ( 'NONE', #54, #191, #283 ) ;
#244 = ORIENTED_EDGE ( 'NONE', *, *, #163, .F. ) ;
#245 = CC_DESIGN_PERSON_AND_ORGANIZATION_ASSIGNMENT ( #138, #161, ( #252 ) ) ;
#246 = EDGE_LOOP ( 'NONE', ( #158, #154, #270, #103 ) ) ;
#247 = APPROVAL_STATUS ( 'not_yet_approved' ) ;
#248 = CYLINDRICAL_SURFACE ( 'NONE', #192, 6.000000000000000888 ) ;
#249 = DIRECTION ( 'NONE',  ( -1.000000000000000000, 1.224646799147354440E-16, 0.000000000000000000 ) ) ;
#250 = VECTOR ( 'NONE', #251, 1000.000000000000000 ) ;
#251 = DIRECTION ( 'NONE',  ( 0.000000000000000000, 0.000000000000000000, -1.000000000000000000 ) ) ;
#252 = PRODUCT_DEFINITION ( 'NEZNÁMÝ', '', #91, #345 ) ;
#253 = LINE ( 'NONE', #374, #98 ) ;
#254 = SECURITY_CLASSIFICATION_LEVEL ( 'unclassified' ) ;
#255 = CARTESIAN_POINT ( 'NONE',  ( -3.000000000000000444, 0.000000000000000000, 5.500000000000005329 ) ) ;
#256 = CIRCLE ( 'NONE', #355, 2.000000000000000000 ) ;
#257 = DIRECTION ( 'NONE',  ( 1.224646799147353207E-16, 1.000000000000000000, -0.000000000000000000 ) ) ;
#258 = CARTESIAN_POINT ( 'NONE',  ( -2.000000000000000000, 0.000000000000000000, 0.000000000000000000 ) ) ;
#259 = CARTESIAN_POINT ( 'NONE',  ( 6.000000000000000888, 7.347880794884120722E-16, 5.000000000000000000 ) ) ;
#260 = DIRECTION ( 'NONE',  ( 0.000000000000000000, 0.000000000000000000, 1.000000000000000000 ) ) ;
#261 = AXIS2_PLACEMENT_3D ( 'NONE', #113, #171, #312 ) ;
#262 = ADVANCED_FACE ( 'NONE', ( #204 ), #1, .T. ) ;
#263 = CIRCLE ( 'NONE', #261, 2.000000000000000000 ) ;
#264 = ADVANCED_FACE ( 'NONE', ( #2 ), #150, .T. ) ;
#265 = ORIENTED_EDGE ( 'NONE', *, *, #94, .F. ) ;
#266 = EDGE_LOOP ( 'NONE', ( #5, #326 ) ) ;
#267 =( NAMED_UNIT ( * ) SI_UNIT ( $, .STERADIAN. ) SOLID_ANGLE_UNIT ( ) );
#268 = CIRCLE ( 'NONE', #17, 6.000000000000000888 ) ;
#269 = VERTEX_POINT ( 'NONE', #58 ) ;
#270 = ORIENTED_EDGE ( 'NONE', *, *, #140, .T. ) ;
#271 = CALENDAR_DATE ( 2022, 10, 7 ) ;
#272 = ORIENTED_EDGE ( 'NONE', *, *, #60, .F. ) ;
#273 = CARTESIAN_POINT ( 'NONE',  ( 0.000000000000000000, 0.000000000000000000, 5.500000000000005329 ) ) ;
#274 = CARTESIAN_POINT ( 'NONE',  ( 6.000000000000000888, 7.347880794884120722E-16, 5.000000000000000000 ) ) ;
#275 = EDGE_CURVE ( 'NONE', #364, #242, #149, .T. ) ;
#276 = AXIS2_PLACEMENT_3D ( 'NONE', #182, #291, #152 ) ;
#277 = APPROVAL_DATE_TIME ( #189, #107 ) ;
#278 = CARTESIAN_POINT ( 'NONE',  ( 0.000000000000000000, 0.000000000000000000, 205.0000000000000284 ) ) ;
#279 = EDGE_CURVE ( 'NONE', #240, #42, #121, .T. ) ;
#280 = APPROVAL_DATE_TIME ( #74, #241 ) ;
#281 = FACE_OUTER_BOUND ( 'NONE', #184, .T. ) ;
#282 = PRODUCT ( 'f783', 'f783', '', ( #65 ) ) ;
#283 = DIRECTION ( 'NONE',  ( 1.000000000000000000, 0.000000000000000000, 0.000000000000000000 ) ) ;
#284 = CC_DESIGN_APPROVAL ( #318, ( #91 ) ) ;
#285 = CARTESIAN_POINT ( 'NONE',  ( 2.000000000000000000, 2.449293598294706414E-16, 0.000000000000000000 ) ) ;
#286 = DIRECTION ( 'NONE',  ( 1.000000000000000000, 0.000000000000000000, 0.000000000000000000 ) ) ;
#287 = ORIENTED_EDGE ( 'NONE', *, *, #77, .F. ) ;
#288 = PLANE ( 'NONE',  #56 ) ;
#289 = DIRECTION ( 'NONE',  ( 0.000000000000000000, 0.000000000000000000, -1.000000000000000000 ) ) ;
#290 = ADVANCED_FACE ( 'NONE', ( #119, #89 ), #88, .T. ) ;
#291 = DIRECTION ( 'NONE',  ( -0.000000000000000000, -0.000000000000000000, -1.000000000000000000 ) ) ;
#292 = ADVANCED_FACE ( 'NONE', ( #29 ), #322, .F. ) ;
#293 = EDGE_LOOP ( 'NONE', ( #296, #122 ) ) ;
#294 = VECTOR ( 'NONE', #117, 1000.000000000000000 ) ;
#295 = LOCAL_TIME ( 11, 13, 28.00000000000000000, #104 ) ;
#296 = ORIENTED_EDGE ( 'NONE', *, *, #328, .T. ) ;
#297 = ORIENTED_EDGE ( 'NONE', *, *, #381, .F. ) ;
#298 = ORIENTED_EDGE ( 'NONE', *, *, #112, .T. ) ;
#299 = AXIS2_PLACEMENT_3D ( 'NONE', #238, #151, #320 ) ;
#300 = ORIENTED_EDGE ( 'NONE', *, *, #301, .T. ) ;
#301 = EDGE_CURVE ( 'NONE', #364, #70, #206, .T. ) ;
#302 = SHAPE_DEFINITION_REPRESENTATION ( #216, #57 ) ;
#303 = CYLINDRICAL_SURFACE ( 'NONE', #232, 3.000000000000000444 ) ;
#304 = ADVANCED_FACE ( 'NONE', ( #83, #205 ), #84, .T. ) ;
#305 = DIRECTION ( 'NONE',  ( 0.000000000000000000, 0.000000000000000000, 1.000000000000000000 ) ) ;
#306 = CARTESIAN_POINT ( 'NONE',  ( 3.500000000000000444, 0.000000000000000000, 5.000000000000002665 ) ) ;
#307 = AXIS2_PLACEMENT_3D ( 'NONE', #352, #235, #319 ) ;
#308 = COORDINATED_UNIVERSAL_TIME_OFFSET ( 1, 0, .AHEAD. ) ;
#309 = DIRECTION ( 'NONE',  ( 1.000000000000000000, 0.000000000000000000, 0.000000000000000000 ) ) ;
#310 = EDGE_CURVE ( 'NONE', #64, #162, #313, .T. ) ;
#311 = PERSON_AND_ORGANIZATION ( #102, #180 ) ;
#312 = DIRECTION ( 'NONE',  ( 1.000000000000000000, 0.000000000000000000, 0.000000000000000000 ) ) ;
#313 = LINE ( 'NONE', #259, #294 ) ;
#314 = AXIS2_PLACEMENT_3D ( 'NONE', #354, #260, #208 ) ;
#315 = SECURITY_CLASSIFICATION ( '', '', #254 ) ;
#316 = DIRECTION ( 'NONE',  ( -1.000000000000000000, 0.000000000000000000, 0.000000000000000000 ) ) ;
#317 = EDGE_LOOP ( 'NONE', ( #13, #9, #36, #99 ) ) ;
#318 = APPROVAL ( #247, 'NEURÈENÝ' ) ;
#319 = DIRECTION ( 'NONE',  ( 1.000000000000000000, 0.000000000000000000, 0.000000000000000000 ) ) ;
#320 = DIRECTION ( 'NONE',  ( 1.000000000000000000, 0.000000000000000000, 0.000000000000000000 ) ) ;
#321 = ADVANCED_FACE ( 'NONE', ( #63, #61 ), #288, .F. ) ;
#322 = TOROIDAL_SURFACE ( 'NONE', #361, 3.500000000000000444, 0.5000000000000000000 ) ;
#323 = CARTESIAN_POINT ( 'NONE',  ( -3.000000000000000444, 0.000000000000000000, 205.0000000000000284 ) ) ;
#324 = EDGE_LOOP ( 'NONE', ( #156, #297 ) ) ;
#325 = ORIENTED_EDGE ( 'NONE', *, *, #279, .F. ) ;
#326 = ORIENTED_EDGE ( 'NONE', *, *, #236, .T. ) ;
#327 = AXIS2_PLACEMENT_3D ( 'NONE', #169, #197, #53 ) ;
#328 = EDGE_CURVE ( 'NONE', #42, #240, #135, .T. ) ;
#329 = CARTESIAN_POINT ( 'NONE',  ( -3.000000000000000444, 0.000000000000000000, 205.0000000000000284 ) ) ;
#330 = ORIENTED_EDGE ( 'NONE', *, *, #40, .F. ) ;
#331 = VERTEX_POINT ( 'NONE', #285 ) ;
#332 = DIRECTION ( 'NONE',  ( 1.000000000000000000, 0.000000000000000000, 0.000000000000000000 ) ) ;
#333 = CIRCLE ( 'NONE', #172, 0.5000000000000004441 ) ;
#334 = EDGE_LOOP ( 'NONE', ( #73, #211 ) ) ;
#335 = EDGE_CURVE ( 'NONE', #178, #70, #369, .T. ) ;
#336 = COORDINATED_UNIVERSAL_TIME_OFFSET ( 1, 0, .AHEAD. ) ;
#337 = VECTOR ( 'NONE', #22, 1000.000000000000000 ) ;
#338 = DIRECTION ( 'NONE',  ( 0.000000000000000000, 0.000000000000000000, 1.000000000000000000 ) ) ;
#339 = COORDINATED_UNIVERSAL_TIME_OFFSET ( 1, 0, .AHEAD. ) ;
#340 = DIRECTION ( 'NONE',  ( 1.000000000000000000, 0.000000000000000000, 0.000000000000000000 ) ) ;
#341 = CARTESIAN_POINT ( 'NONE',  ( -6.000000000000000888, 0.000000000000000000, 5.000000000000000000 ) ) ;
#342 = AXIS2_PLACEMENT_3D ( 'NONE', #229, #370, #82 ) ;
#343 = CARTESIAN_POINT ( 'NONE',  ( 3.000000000000000444, 3.673940397442060361E-16, 5.500000000000005329 ) ) ;
#344 = AXIS2_PLACEMENT_3D ( 'NONE', #130, #210, #332 ) ;
#345 = DESIGN_CONTEXT ( 'detailed design', #32, 'design' ) ;
#346 = MANIFOLD_SOLID_BREP ( 'Odebrat vysunutím3', #6 ) ;
#347 = APPROVAL_ROLE ( '' ) ;
#348 = DIRECTION ( 'NONE',  ( -0.000000000000000000, -0.000000000000000000, -1.000000000000000000 ) ) ;
#349 = DIRECTION ( 'NONE',  ( -0.000000000000000000, -0.000000000000000000, -1.000000000000000000 ) ) ;
#350 = DIRECTION ( 'NONE',  ( 0.000000000000000000, 0.000000000000000000, 1.000000000000000000 ) ) ;
#351 = APPLICATION_CONTEXT ( 'configuration controlled 3d designs of mechanical parts and assemblies' ) ;
#352 = CARTESIAN_POINT ( 'NONE',  ( 0.000000000000000000, 0.000000000000000000, 5.000000000000000000 ) ) ;
#353 = DIRECTION ( 'NONE',  ( -1.000000000000000000, 0.000000000000000000, 0.000000000000000000 ) ) ;
#354 = CARTESIAN_POINT ( 'NONE',  ( 0.000000000000000000, 0.000000000000000000, 5.000000000000000000 ) ) ;
#355 = AXIS2_PLACEMENT_3D ( 'NONE', #26, #51, #139 ) ;
#356 = FACE_OUTER_BOUND ( 'NONE', #246, .T. ) ;
#357 = VERTEX_POINT ( 'NONE', #258 ) ;
#358 = AXIS2_PLACEMENT_3D ( 'NONE', #273, #305, #165 ) ;
#359 = CARTESIAN_POINT ( 'NONE',  ( 0.000000000000000000, 0.000000000000000000, 205.0000000000000284 ) ) ;
#360 = ORIENTED_EDGE ( 'NONE', *, *, #275, .F. ) ;
#361 = AXIS2_PLACEMENT_3D ( 'NONE', #379, #350, #114 ) ;
#362 = EDGE_LOOP ( 'NONE', ( #272, #124, #214, #10 ) ) ;
#363 = ADVANCED_FACE ( 'NONE', ( #356 ), #96, .F. ) ;
#364 = VERTEX_POINT ( 'NONE', #329 ) ;
#365 = COORDINATED_UNIVERSAL_TIME_OFFSET ( 1, 0, .AHEAD. ) ;
#366 = EDGE_LOOP ( 'NONE', ( #215, #153 ) ) ;
#367 = CC_DESIGN_PERSON_AND_ORGANIZATION_ASSIGNMENT ( #376, #164, ( #315 ) ) ;
#368 = DATE_AND_TIME ( #46, #188 ) ;
#369 = CIRCLE ( 'NONE', #203, 3.000000000000000444 ) ;
#370 = DIRECTION ( 'NONE',  ( 0.000000000000000000, 0.000000000000000000, 1.000000000000000000 ) ) ;
#371 = DATE_TIME_ROLE ( 'creation_date' ) ;
#372 = DIRECTION ( 'NONE',  ( -0.000000000000000000, -0.000000000000000000, -1.000000000000000000 ) ) ;
#373 = CALENDAR_DATE ( 2022, 10, 7 ) ;
#374 = CARTESIAN_POINT ( 'NONE',  ( 3.000000000000000444, 3.673940397442060361E-16, 205.0000000000000284 ) ) ;
#375 = CIRCLE ( 'NONE', #358, 3.000000000000000444 ) ;
#376 = PERSON_AND_ORGANIZATION ( #102, #180 ) ;
#377 = CARTESIAN_POINT ( 'NONE',  ( -3.500000000000000444, 4.286263797015737088E-16, 5.500000000000005329 ) ) ;
#378 = CC_DESIGN_APPROVAL ( #241, ( #252 ) ) ;
#379 = CARTESIAN_POINT ( 'NONE',  ( 0.000000000000000000, 0.000000000000000000, 5.500000000000005329 ) ) ;
#380 = CARTESIAN_POINT ( 'NONE',  ( 0.000000000000000000, 0.000000000000000000, 205.0000000000000284 ) ) ;
#381 = EDGE_CURVE ( 'NONE', #93, #126, #37, .T. ) ;
ENDSEC;
END-ISO-10303-21;
