ISO-10303-21;
HEADER;
FILE_DESCRIPTION (( 'STEP AP203' ),
    '1' );
FILE_NAME ('d5d3.STEP',
    '2022-07-10T09:19:22',
    ( '' ),
    ( '' ),
    'SwSTEP 2.0',
    'SolidWorks 2019',
    '' );
FILE_SCHEMA (( 'CONFIG_CONTROL_DESIGN' ));
ENDSEC;

DATA;
#1 = PERSON_AND_ORGANIZATION ( #8, #364 ) ;
#2 = EDGE_CURVE ( 'NONE', #165, #261, #126, .T. ) ;
#3 = CARTESIAN_POINT ( 'NONE',  ( 0.000000000000000000, 0.000000000000000000, 103.0000000000000142 ) ) ;
#4 = EDGE_CURVE ( 'NONE', #105, #295, #286, .T. ) ;
#5 = ORIENTED_EDGE ( 'NONE', *, *, #47, .T. ) ;
#6 = CARTESIAN_POINT ( 'NONE',  ( 0.000000000000000000, 0.000000000000000000, 0.000000000000000000 ) ) ;
#7 = ADVANCED_FACE ( 'NONE', ( #284 ), #197, .T. ) ;
#8 = PERSON ( 'NEURÈENÝ', 'NEURÈENÝ', 'NEURÈENÝ', ('NEURÈENÝ'), ('NEURÈENÝ'), ('NEURÈENÝ') ) ;
#9 = PERSON_AND_ORGANIZATION ( #8, #364 ) ;
#10 = CLOSED_SHELL ( 'NONE', ( #129, #231, #7, #208, #272, #164, #145, #143, #233, #183, #113 ) ) ;
#11 = PLANE ( 'NONE',  #81 ) ;
#12 = EDGE_CURVE ( 'NONE', #137, #154, #108, .T. ) ;
#13 = CARTESIAN_POINT ( 'NONE',  ( 0.000000000000000000, 0.000000000000000000, 103.0000000000000142 ) ) ;
#14 = APPROVAL_PERSON_ORGANIZATION ( #121, #278, #64 ) ;
#15 = CC_DESIGN_PERSON_AND_ORGANIZATION_ASSIGNMENT ( #61, #97, ( #204 ) ) ;
#16 = ORIENTED_EDGE ( 'NONE', *, *, #100, .T. ) ;
#17 = DIRECTION ( 'NONE',  ( 1.000000000000000000, 0.000000000000000000, 0.000000000000000000 ) ) ;
#18 = ORIENTED_EDGE ( 'NONE', *, *, #35, .F. ) ;
#19 = CIRCLE ( 'NONE', #122, 2.000000000000000000 ) ;
#20 = ORIENTED_EDGE ( 'NONE', *, *, #73, .T. ) ;
#21 = EDGE_LOOP ( 'NONE', ( #106, #313 ) ) ;
#22 = EDGE_CURVE ( 'NONE', #140, #325, #232, .T. ) ;
#23 = DIRECTION ( 'NONE',  ( -0.000000000000000000, -0.000000000000000000, -1.000000000000000000 ) ) ;
#24 =( GEOMETRIC_REPRESENTATION_CONTEXT ( 3 ) GLOBAL_UNCERTAINTY_ASSIGNED_CONTEXT ( ( #327 ) ) GLOBAL_UNIT_ASSIGNED_CONTEXT ( ( #234, #276, #280 ) ) REPRESENTATION_CONTEXT ( 'NONE', 'WORKASPACE' ) );
#25 = DIRECTION ( 'NONE',  ( -1.000000000000000000, 1.224646799147353207E-16, 0.000000000000000000 ) ) ;
#26 = APPROVAL ( #236, 'NEURÈENÝ' ) ;
#27 = CARTESIAN_POINT ( 'NONE',  ( -4.000000000000000000, 0.000000000000000000, 3.000000000000000000 ) ) ;
#28 = CARTESIAN_POINT ( 'NONE',  ( 0.000000000000000000, 0.000000000000000000, 0.000000000000000000 ) ) ;
#29 = VECTOR ( 'NONE', #180, 1000.000000000000000 ) ;
#30 = DIRECTION ( 'NONE',  ( 0.000000000000000000, 0.000000000000000000, 1.000000000000000000 ) ) ;
#31 = CARTESIAN_POINT ( 'NONE',  ( 0.000000000000000000, 0.000000000000000000, 0.000000000000000000 ) ) ;
#32 = DATE_TIME_ROLE ( 'creation_date' ) ;
#33 = CARTESIAN_POINT ( 'NONE',  ( 2.299999999999999822, 0.000000000000000000, 3.299999999999997158 ) ) ;
#34 = AXIS2_PLACEMENT_3D ( 'NONE', #263, #321, #123 ) ;
#35 = EDGE_CURVE ( 'NONE', #154, #249, #172, .T. ) ;
#36 = CARTESIAN_POINT ( 'NONE',  ( 1.100000000000000089, 1.347111479062088503E-16, 103.0000000000000142 ) ) ;
#37 = APPROVAL_STATUS ( 'not_yet_approved' ) ;
#38 = AXIS2_PLACEMENT_3D ( 'NONE', #222, #155, #17 ) ;
#39 = CARTESIAN_POINT ( 'NONE',  ( 0.000000000000000000, 0.000000000000000000, 3.299999999999997158 ) ) ;
#40 = CYLINDRICAL_SURFACE ( 'NONE', #373, 1.100000000000000089 ) ;
#41 = EDGE_CURVE ( 'NONE', #137, #48, #354, .T. ) ;
#42 = AXIS2_PLACEMENT_3D ( 'NONE', #49, #333, #44 ) ;
#43 = AXIS2_PLACEMENT_3D ( 'NONE', #242, #182, #294 ) ;
#44 = DIRECTION ( 'NONE',  ( -1.000000000000000000, 0.000000000000000000, 0.000000000000000000 ) ) ;
#45 = ORIENTED_EDGE ( 'NONE', *, *, #47, .F. ) ;
#46 = DIRECTION ( 'NONE',  ( 1.000000000000000000, 0.000000000000000000, 0.000000000000000000 ) ) ;
#47 = EDGE_CURVE ( 'NONE', #187, #261, #63, .T. ) ;
#48 = VERTEX_POINT ( 'NONE', #27 ) ;
#49 = CARTESIAN_POINT ( 'NONE',  ( 0.000000000000000000, 0.000000000000000000, 3.000000000000000000 ) ) ;
#50 = ORIENTED_EDGE ( 'NONE', *, *, #256, .T. ) ;
#51 = CARTESIAN_POINT ( 'NONE',  ( 1.100000000000000089, 1.347111479062088503E-16, 103.0000000000000142 ) ) ;
#52 = ORIENTED_EDGE ( 'NONE', *, *, #314, .T. ) ;
#53 = DIRECTION ( 'NONE',  ( 0.000000000000000000, -1.000000000000000000, 0.000000000000000000 ) ) ;
#54 = PRODUCT_DEFINITION_SHAPE ( 'NONE', 'NONE',  #252 ) ;
#55 = ORIENTED_EDGE ( 'NONE', *, *, #320, .F. ) ;
#56 = PERSON_AND_ORGANIZATION ( #8, #364 ) ;
#57 = COORDINATED_UNIVERSAL_TIME_OFFSET ( 1, 0, .AHEAD. ) ;
#58 = APPROVAL_PERSON_ORGANIZATION ( #95, #26, #212 ) ;
#59 = FACE_OUTER_BOUND ( 'NONE', #239, .T. ) ;
#60 = EDGE_CURVE ( 'NONE', #48, #137, #107, .T. ) ;
#61 = PERSON_AND_ORGANIZATION ( #8, #364 ) ;
#62 = FACE_OUTER_BOUND ( 'NONE', #299, .T. ) ;
#63 = CIRCLE ( 'NONE', #77, 0.2999999999999999334 ) ;
#64 = APPROVAL_ROLE ( '' ) ;
#65 = ORIENTED_EDGE ( 'NONE', *, *, #282, .T. ) ;
#66 = SHAPE_DEFINITION_REPRESENTATION ( #54, #207 ) ;
#67 = CARTESIAN_POINT ( 'NONE',  ( 4.000000000000000000, 4.898587196589412829E-16, 3.000000000000000000 ) ) ;
#68 = AXIS2_PLACEMENT_3D ( 'NONE', #199, #167, #25 ) ;
#69 = CARTESIAN_POINT ( 'NONE',  ( 0.000000000000000000, 0.000000000000000000, 103.0000000000000142 ) ) ;
#70 = LINE ( 'NONE', #225, #349 ) ;
#71 = EDGE_LOOP ( 'NONE', ( #334, #50, #93, #277 ) ) ;
#72 = CARTESIAN_POINT ( 'NONE',  ( 0.000000000000000000, 0.000000000000000000, 3.299999999999997158 ) ) ;
#73 = EDGE_CURVE ( 'NONE', #306, #187, #195, .T. ) ;
#74 = DIRECTION ( 'NONE',  ( 0.000000000000000000, 0.000000000000000000, 1.000000000000000000 ) ) ;
#75 = EDGE_CURVE ( 'NONE', #139, #342, #96, .T. ) ;
#76 = ORIENTED_EDGE ( 'NONE', *, *, #41, .F. ) ;
#77 = AXIS2_PLACEMENT_3D ( 'NONE', #33, #53, #174 ) ;
#78 = FACE_OUTER_BOUND ( 'NONE', #363, .T. ) ;
#79 = EDGE_LOOP ( 'NONE', ( #151, #303, #168, #374 ) ) ;
#80 = AXIS2_PLACEMENT_3D ( 'NONE', #28, #115, #87 ) ;
#81 = AXIS2_PLACEMENT_3D ( 'NONE', #127, #216, #176 ) ;
#82 = DIRECTION ( 'NONE',  ( 1.000000000000000000, 0.000000000000000000, 0.000000000000000000 ) ) ;
#83 = CC_DESIGN_DATE_AND_TIME_ASSIGNMENT ( #319, #32, ( #252 ) ) ;
#84 = DIRECTION ( 'NONE',  ( 0.000000000000000000, 0.000000000000000000, 1.000000000000000000 ) ) ;
#85 = CARTESIAN_POINT ( 'NONE',  ( 0.000000000000000000, 0.000000000000000000, 3.000000000000000000 ) ) ;
#86 = LOCAL_TIME ( 11, 19, 22.00000000000000000, #147 ) ;
#87 = DIRECTION ( 'NONE',  ( 1.000000000000000000, 0.000000000000000000, 0.000000000000000000 ) ) ;
#88 = CARTESIAN_POINT ( 'NONE',  ( 0.000000000000000000, 0.000000000000000000, 3.000000000000000000 ) ) ;
#89 = COORDINATED_UNIVERSAL_TIME_OFFSET ( 1, 0, .AHEAD. ) ;
#90 = CC_DESIGN_APPROVAL ( #26, ( #128 ) ) ;
#91 = DIRECTION ( 'NONE',  ( 0.000000000000000000, 0.000000000000000000, 1.000000000000000000 ) ) ;
#92 = AXIS2_PLACEMENT_3D ( 'NONE', #72, #305, #245 ) ;
#93 = ORIENTED_EDGE ( 'NONE', *, *, #4, .T. ) ;
#94 = CC_DESIGN_DATE_AND_TIME_ASSIGNMENT ( #353, #202, ( #128 ) ) ;
#95 = PERSON_AND_ORGANIZATION ( #8, #364 ) ;
#96 = LINE ( 'NONE', #203, #158 ) ;
#97 = PERSON_AND_ORGANIZATION_ROLE ( 'creator' ) ;
#98 = DIRECTION ( 'NONE',  ( -0.000000000000000000, -0.000000000000000000, -1.000000000000000000 ) ) ;
#99 = APPROVAL_DATE_TIME ( #173, #289 ) ;
#100 = EDGE_CURVE ( 'NONE', #342, #187, #114, .T. ) ;
#101 = DIRECTION ( 'NONE',  ( 0.000000000000000000, 0.000000000000000000, -1.000000000000000000 ) ) ;
#102 = DIRECTION ( 'NONE',  ( 1.000000000000000000, 0.000000000000000000, 0.000000000000000000 ) ) ;
#103 = EDGE_CURVE ( 'NONE', #249, #154, #185, .T. ) ;
#104 = DIRECTION ( 'NONE',  ( 0.000000000000000000, 0.000000000000000000, 1.000000000000000000 ) ) ;
#105 = VERTEX_POINT ( 'NONE', #213 ) ;
#106 = ORIENTED_EDGE ( 'NONE', *, *, #191, .T. ) ;
#107 = CIRCLE ( 'NONE', #153, 4.000000000000000000 ) ;
#108 = LINE ( 'NONE', #340, #355 ) ;
#109 = CIRCLE ( 'NONE', #80, 1.100000000000000089 ) ;
#110 = DIRECTION ( 'NONE',  ( 0.000000000000000000, 0.000000000000000000, 1.000000000000000000 ) ) ;
#111 = DIRECTION ( 'NONE',  ( 1.000000000000000000, 0.000000000000000000, 0.000000000000000000 ) ) ;
#112 = ORIENTED_EDGE ( 'NONE', *, *, #22, .T. ) ;
#113 = ADVANCED_FACE ( 'NONE', ( #119 ), #40, .F. ) ;
#114 = CIRCLE ( 'NONE', #307, 2.000000000000000000 ) ;
#115 = DIRECTION ( 'NONE',  ( -0.000000000000000000, -0.000000000000000000, -1.000000000000000000 ) ) ;
#116 = DIRECTION ( 'NONE',  ( -1.000000000000000000, 0.000000000000000000, 0.000000000000000000 ) ) ;
#117 = LOCAL_TIME ( 11, 19, 22.00000000000000000, #57 ) ;
#118 = PERSON_AND_ORGANIZATION ( #8, #364 ) ;
#119 = FACE_OUTER_BOUND ( 'NONE', #71, .T. ) ;
#120 = EDGE_LOOP ( 'NONE', ( #275, #18 ) ) ;
#121 = PERSON_AND_ORGANIZATION ( #8, #364 ) ;
#122 = AXIS2_PLACEMENT_3D ( 'NONE', #194, #84, #337 ) ;
#123 = DIRECTION ( 'NONE',  ( -1.000000000000000000, 0.000000000000000000, 0.000000000000000000 ) ) ;
#124 = PERSON_AND_ORGANIZATION ( #8, #364 ) ;
#125 = PLANE ( 'NONE',  #43 ) ;
#126 = CIRCLE ( 'NONE', #345, 2.299999999999999822 ) ;
#127 = CARTESIAN_POINT ( 'NONE',  ( 0.000000000000000000, 0.000000000000000000, 3.000000000000000000 ) ) ;
#128 = SECURITY_CLASSIFICATION ( '', '', #205 ) ;
#129 = ADVANCED_FACE ( 'NONE', ( #62 ), #178, .F. ) ;
#130 = EDGE_LOOP ( 'NONE', ( #193, #223, #166, #45 ) ) ;
#131 = FACE_BOUND ( 'NONE', #163, .T. ) ;
#132 = PRODUCT_RELATED_PRODUCT_CATEGORY ( 'detail', '', ( #196 ) ) ;
#133 = ORIENTED_EDGE ( 'NONE', *, *, #320, .T. ) ;
#134 = DIRECTION ( 'NONE',  ( 1.000000000000000000, 0.000000000000000000, 0.000000000000000000 ) ) ;
#135 = ORIENTED_EDGE ( 'NONE', *, *, #211, .F. ) ;
#136 = FACE_OUTER_BOUND ( 'NONE', #254, .T. ) ;
#137 = VERTEX_POINT ( 'NONE', #67 ) ;
#138 = APPLICATION_CONTEXT ( 'configuration controlled 3d designs of mechanical parts and assemblies' ) ;
#139 = VERTEX_POINT ( 'NONE', #237 ) ;
#140 = VERTEX_POINT ( 'NONE', #36 ) ;
#141 = DIRECTION ( 'NONE',  ( 1.000000000000000000, 0.000000000000000000, 0.000000000000000000 ) ) ;
#142 = DIRECTION ( 'NONE',  ( 1.000000000000000000, 0.000000000000000000, 0.000000000000000000 ) ) ;
#143 = ADVANCED_FACE ( 'NONE', ( #59 ), #324, .T. ) ;
#144 = ORIENTED_EDGE ( 'NONE', *, *, #2, .F. ) ;
#145 = ADVANCED_FACE ( 'NONE', ( #148, #260 ), #125, .F. ) ;
#146 = CARTESIAN_POINT ( 'NONE',  ( 0.000000000000000000, 0.000000000000000000, 3.000000000000000000 ) ) ;
#147 = COORDINATED_UNIVERSAL_TIME_OFFSET ( 1, 0, .AHEAD. ) ;
#148 = FACE_BOUND ( 'NONE', #219, .T. ) ;
#149 = ORIENTED_EDGE ( 'NONE', *, *, #12, .T. ) ;
#150 = PERSON_AND_ORGANIZATION_ROLE ( 'design_owner' ) ;
#151 = ORIENTED_EDGE ( 'NONE', *, *, #12, .F. ) ;
#152 = DIRECTION ( 'NONE',  ( 1.000000000000000000, 0.000000000000000000, 0.000000000000000000 ) ) ;
#153 = AXIS2_PLACEMENT_3D ( 'NONE', #146, #379, #375 ) ;
#154 = VERTEX_POINT ( 'NONE', #265 ) ;
#155 = DIRECTION ( 'NONE',  ( 0.000000000000000000, 0.000000000000000000, 1.000000000000000000 ) ) ;
#156 = ORIENTED_EDGE ( 'NONE', *, *, #4, .F. ) ;
#157 = CC_DESIGN_PERSON_AND_ORGANIZATION_ASSIGNMENT ( #9, #243, ( #204 ) ) ;
#158 = VECTOR ( 'NONE', #98, 1000.000000000000000 ) ;
#159 = CARTESIAN_POINT ( 'NONE',  ( -4.000000000000000000, 0.000000000000000000, 0.000000000000000000 ) ) ;
#160 = AXIS2_PLACEMENT_3D ( 'NONE', #31, #258, #142 ) ;
#161 = EDGE_LOOP ( 'NONE', ( #170, #228, #5, #144 ) ) ;
#162 = LOCAL_TIME ( 11, 19, 22.00000000000000000, #89 ) ;
#163 = EDGE_LOOP ( 'NONE', ( #188, #292 ) ) ;
#164 = ADVANCED_FACE ( 'NONE', ( #352, #348 ), #11, .T. ) ;
#165 = VERTEX_POINT ( 'NONE', #210 ) ;
#166 = ORIENTED_EDGE ( 'NONE', *, *, #191, .F. ) ;
#167 = DIRECTION ( 'NONE',  ( 1.224646799147353207E-16, 1.000000000000000000, -0.000000000000000000 ) ) ;
#168 = ORIENTED_EDGE ( 'NONE', *, *, #211, .T. ) ;
#169 = LOCAL_TIME ( 11, 19, 22.00000000000000000, #241 ) ;
#170 = ORIENTED_EDGE ( 'NONE', *, *, #285, .F. ) ;
#171 = CARTESIAN_POINT ( 'NONE',  ( -1.100000000000000089, 0.000000000000000000, 0.000000000000000000 ) ) ;
#172 = CIRCLE ( 'NONE', #160, 4.000000000000000000 ) ;
#173 = DATE_AND_TIME ( #238, #169 ) ;
#174 = DIRECTION ( 'NONE',  ( 0.000000000000000000, 0.000000000000000000, -1.000000000000000000 ) ) ;
#175 = CIRCLE ( 'NONE', #336, 2.299999999999999822 ) ;
#176 = DIRECTION ( 'NONE',  ( 1.000000000000000000, 0.000000000000000000, -0.000000000000000000 ) ) ;
#177 = CALENDAR_DATE ( 2022, 10, 7 ) ;
#178 = CYLINDRICAL_SURFACE ( 'NONE', #34, 1.100000000000000089 ) ;
#179 = DATE_AND_TIME ( #290, #253 ) ;
#180 = DIRECTION ( 'NONE',  ( -0.000000000000000000, -0.000000000000000000, -1.000000000000000000 ) ) ;
#181 = MANIFOLD_SOLID_BREP ( 'Odebrat vysunutím3', #10 ) ;
#182 = DIRECTION ( 'NONE',  ( 0.000000000000000000, 0.000000000000000000, 1.000000000000000000 ) ) ;
#183 = ADVANCED_FACE ( 'NONE', ( #317 ), #338, .F. ) ;
#184 = ORIENTED_EDGE ( 'NONE', *, *, #73, .F. ) ;
#185 = CIRCLE ( 'NONE', #330, 4.000000000000000000 ) ;
#186 = CIRCLE ( 'NONE', #332, 1.100000000000000089 ) ;
#187 = VERTEX_POINT ( 'NONE', #326 ) ;
#188 = ORIENTED_EDGE ( 'NONE', *, *, #282, .F. ) ;
#189 = VECTOR ( 'NONE', #235, 1000.000000000000000 ) ;
#190 = CARTESIAN_POINT ( 'NONE',  ( 2.299999999999999822, 0.000000000000000000, 2.999999999999998668 ) ) ;
#191 = EDGE_CURVE ( 'NONE', #261, #165, #175, .T. ) ;
#192 = ORIENTED_EDGE ( 'NONE', *, *, #75, .T. ) ;
#193 = ORIENTED_EDGE ( 'NONE', *, *, #100, .F. ) ;
#194 = CARTESIAN_POINT ( 'NONE',  ( 0.000000000000000000, 0.000000000000000000, 103.0000000000000142 ) ) ;
#195 = LINE ( 'NONE', #297, #29 ) ;
#196 = PRODUCT ( 'd5d3', 'd5d3', '', ( #310 ) ) ;
#197 = CYLINDRICAL_SURFACE ( 'NONE', #244, 2.000000000000000000 ) ;
#198 = CIRCLE ( 'NONE', #343, 1.100000000000000089 ) ;
#199 = CARTESIAN_POINT ( 'NONE',  ( -2.299999999999999822, 2.816687638038912056E-16, 3.299999999999997158 ) ) ;
#200 = DIRECTION ( 'NONE',  ( -0.000000000000000000, -0.000000000000000000, -1.000000000000000000 ) ) ;
#201 = CARTESIAN_POINT ( 'NONE',  ( 2.000000000000000000, 2.449293598294706414E-16, 103.0000000000000142 ) ) ;
#202 = DATE_TIME_ROLE ( 'classification_date' ) ;
#203 = CARTESIAN_POINT ( 'NONE',  ( -2.000000000000000000, 0.000000000000000000, 103.0000000000000142 ) ) ;
#204 = PRODUCT_DEFINITION_FORMATION_WITH_SPECIFIED_SOURCE ( 'LIBOVOLNÝ', '', #196, .NOT_KNOWN. ) ;
#205 = SECURITY_CLASSIFICATION_LEVEL ( 'unclassified' ) ;
#206 = DIRECTION ( 'NONE',  ( 0.000000000000000000, 0.000000000000000000, 1.000000000000000000 ) ) ;
#207 = ADVANCED_BREP_SHAPE_REPRESENTATION ( 'd5d3', ( #181, #240 ), #24 ) ;
#208 = ADVANCED_FACE ( 'NONE', ( #136 ), #328, .T. ) ;
#209 = COORDINATED_UNIVERSAL_TIME_OFFSET ( 1, 0, .AHEAD. ) ;
#210 = CARTESIAN_POINT ( 'NONE',  ( -2.299999999999999822, 2.816687638038912056E-16, 2.999999999999998668 ) ) ;
#211 = EDGE_CURVE ( 'NONE', #48, #249, #70, .T. ) ;
#212 = APPROVAL_ROLE ( '' ) ;
#213 = CARTESIAN_POINT ( 'NONE',  ( -1.100000000000000089, 0.000000000000000000, 103.0000000000000142 ) ) ;
#214 = CIRCLE ( 'NONE', #287, 2.000000000000000000 ) ;
#215 = PERSON_AND_ORGANIZATION_ROLE ( 'classification_officer' ) ;
#216 = DIRECTION ( 'NONE',  ( 0.000000000000000000, 0.000000000000000000, 1.000000000000000000 ) ) ;
#217 = DIRECTION ( 'NONE',  ( 0.000000000000000000, 0.000000000000000000, 1.000000000000000000 ) ) ;
#218 = CC_DESIGN_PERSON_AND_ORGANIZATION_ASSIGNMENT ( #124, #262, ( #252 ) ) ;
#219 = EDGE_LOOP ( 'NONE', ( #376, #370 ) ) ;
#220 = PLANE ( 'NONE',  #359 ) ;
#221 = APPROVAL_PERSON_ORGANIZATION ( #56, #289, #380 ) ;
#222 = CARTESIAN_POINT ( 'NONE',  ( 0.000000000000000000, 0.000000000000000000, 3.299999999999997158 ) ) ;
#223 = ORIENTED_EDGE ( 'NONE', *, *, #285, .T. ) ;
#224 = EDGE_CURVE ( 'NONE', #325, #295, #198, .T. ) ;
#225 = CARTESIAN_POINT ( 'NONE',  ( -4.000000000000000000, 0.000000000000000000, 3.000000000000000000 ) ) ;
#226 = ORIENTED_EDGE ( 'NONE', *, *, #60, .T. ) ;
#227 = DIRECTION ( 'NONE',  ( -1.000000000000000000, 0.000000000000000000, 0.000000000000000000 ) ) ;
#228 = ORIENTED_EDGE ( 'NONE', *, *, #314, .F. ) ;
#229 = CARTESIAN_POINT ( 'NONE',  ( 0.000000000000000000, 0.000000000000000000, 3.299999999999997158 ) ) ;
#230 = CIRCLE ( 'NONE', #68, 0.2999999999999999334 ) ;
#231 = ADVANCED_FACE ( 'NONE', ( #274 ), #315, .F. ) ;
#232 = LINE ( 'NONE', #51, #266 ) ;
#233 = ADVANCED_FACE ( 'NONE', ( #131, #78 ), #220, .T. ) ;
#234 =( LENGTH_UNIT ( ) NAMED_UNIT ( * ) SI_UNIT ( .MILLI., .METRE. ) );
#235 = DIRECTION ( 'NONE',  ( 0.000000000000000000, 0.000000000000000000, -1.000000000000000000 ) ) ;
#236 = APPROVAL_STATUS ( 'not_yet_approved' ) ;
#237 = CARTESIAN_POINT ( 'NONE',  ( -2.000000000000000000, 0.000000000000000000, 103.0000000000000142 ) ) ;
#238 = CALENDAR_DATE ( 2022, 10, 7 ) ;
#239 = EDGE_LOOP ( 'NONE', ( #184, #318, #192, #16 ) ) ;
#240 = AXIS2_PLACEMENT_3D ( 'NONE', #372, #308, #111 ) ;
#241 = COORDINATED_UNIVERSAL_TIME_OFFSET ( 1, 0, .AHEAD. ) ;
#242 = CARTESIAN_POINT ( 'NONE',  ( 0.000000000000000000, 0.000000000000000000, 0.000000000000000000 ) ) ;
#243 = PERSON_AND_ORGANIZATION_ROLE ( 'design_supplier' ) ;
#244 = AXIS2_PLACEMENT_3D ( 'NONE', #344, #200, #116 ) ;
#245 = DIRECTION ( 'NONE',  ( 1.000000000000000000, 0.000000000000000000, 0.000000000000000000 ) ) ;
#246 = DIRECTION ( 'NONE',  ( 1.000000000000000000, 0.000000000000000000, -0.000000000000000000 ) ) ;
#247 = AXIS2_PLACEMENT_3D ( 'NONE', #369, #30, #257 ) ;
#248 = CARTESIAN_POINT ( 'NONE',  ( 0.000000000000000000, 0.000000000000000000, 103.0000000000000142 ) ) ;
#249 = VERTEX_POINT ( 'NONE', #159 ) ;
#250 = DIRECTION ( 'NONE',  ( -0.000000000000000000, -0.000000000000000000, -1.000000000000000000 ) ) ;
#251 = EDGE_LOOP ( 'NONE', ( #226, #368 ) ) ;
#252 = PRODUCT_DEFINITION ( 'NEZNÁMÝ', '', #204, #358 ) ;
#253 = LOCAL_TIME ( 11, 19, 22.00000000000000000, #209 ) ;
#254 = EDGE_LOOP ( 'NONE', ( #76, #149, #270, #135 ) ) ;
#255 = CARTESIAN_POINT ( 'NONE',  ( -1.100000000000000089, 0.000000000000000000, 103.0000000000000142 ) ) ;
#256 = EDGE_CURVE ( 'NONE', #140, #105, #186, .T. ) ;
#257 = DIRECTION ( 'NONE',  ( 1.000000000000000000, 0.000000000000000000, 0.000000000000000000 ) ) ;
#258 = DIRECTION ( 'NONE',  ( 0.000000000000000000, 0.000000000000000000, 1.000000000000000000 ) ) ;
#259 = AXIS2_PLACEMENT_3D ( 'NONE', #13, #104, #102 ) ;
#260 = FACE_OUTER_BOUND ( 'NONE', #120, .T. ) ;
#261 = VERTEX_POINT ( 'NONE', #190 ) ;
#262 = PERSON_AND_ORGANIZATION_ROLE ( 'creator' ) ;
#263 = CARTESIAN_POINT ( 'NONE',  ( 0.000000000000000000, 0.000000000000000000, 103.0000000000000142 ) ) ;
#264 = APPLICATION_PROTOCOL_DEFINITION ( 'international standard', 'config_control_design', 1994, #138 ) ;
#265 = CARTESIAN_POINT ( 'NONE',  ( 4.000000000000000000, 4.898587196589412829E-16, 0.000000000000000000 ) ) ;
#266 = VECTOR ( 'NONE', #312, 1000.000000000000000 ) ;
#267 = DIRECTION ( 'NONE',  ( 1.000000000000000000, 0.000000000000000000, 0.000000000000000000 ) ) ;
#268 = AXIS2_PLACEMENT_3D ( 'NONE', #302, #367, #227 ) ;
#269 = CARTESIAN_POINT ( 'NONE',  ( 0.000000000000000000, 0.000000000000000000, 0.000000000000000000 ) ) ;
#270 = ORIENTED_EDGE ( 'NONE', *, *, #35, .T. ) ;
#271 = DIRECTION ( 'NONE',  ( -0.000000000000000000, -0.000000000000000000, -1.000000000000000000 ) ) ;
#272 = ADVANCED_FACE ( 'NONE', ( #362 ), #365, .T. ) ;
#273 = CIRCLE ( 'NONE', #247, 2.000000000000000000 ) ;
#274 = FACE_OUTER_BOUND ( 'NONE', #130, .T. ) ;
#275 = ORIENTED_EDGE ( 'NONE', *, *, #103, .F. ) ;
#276 =( NAMED_UNIT ( * ) PLANE_ANGLE_UNIT ( ) SI_UNIT ( $, .RADIAN. ) );
#277 = ORIENTED_EDGE ( 'NONE', *, *, #300, .T. ) ;
#278 = APPROVAL ( #37, 'NEURÈENÝ' ) ;
#279 = AXIS2_PLACEMENT_3D ( 'NONE', #85, #309, #82 ) ;
#280 =( NAMED_UNIT ( * ) SI_UNIT ( $, .STERADIAN. ) SOLID_ANGLE_UNIT ( ) );
#281 = ORIENTED_EDGE ( 'NONE', *, *, #75, .F. ) ;
#282 = EDGE_CURVE ( 'NONE', #105, #140, #378, .T. ) ;
#283 = CARTESIAN_POINT ( 'NONE',  ( 1.100000000000000089, 1.347111479062088503E-16, 0.000000000000000000 ) ) ;
#284 = FACE_OUTER_BOUND ( 'NONE', #366, .T. ) ;
#285 = EDGE_CURVE ( 'NONE', #342, #165, #230, .T. ) ;
#286 = LINE ( 'NONE', #255, #189 ) ;
#287 = AXIS2_PLACEMENT_3D ( 'NONE', #229, #110, #141 ) ;
#288 = APPROVAL_STATUS ( 'not_yet_approved' ) ;
#289 = APPROVAL ( #288, 'NEURÈENÝ' ) ;
#290 = CALENDAR_DATE ( 2022, 10, 7 ) ;
#291 = DIRECTION ( 'NONE',  ( -0.000000000000000000, -0.000000000000000000, -1.000000000000000000 ) ) ;
#292 = ORIENTED_EDGE ( 'NONE', *, *, #256, .F. ) ;
#293 = APPROVAL_DATE_TIME ( #356, #278 ) ;
#294 = DIRECTION ( 'NONE',  ( 1.000000000000000000, 0.000000000000000000, -0.000000000000000000 ) ) ;
#295 = VERTEX_POINT ( 'NONE', #171 ) ;
#296 = CALENDAR_DATE ( 2022, 10, 7 ) ;
#297 = CARTESIAN_POINT ( 'NONE',  ( 2.000000000000000000, 2.449293598294706414E-16, 103.0000000000000142 ) ) ;
#298 = APPLICATION_CONTEXT ( 'configuration controlled 3d designs of mechanical parts and assemblies' ) ;
#299 = EDGE_LOOP ( 'NONE', ( #65, #112, #329, #156 ) ) ;
#300 = EDGE_CURVE ( 'NONE', #295, #325, #109, .T. ) ;
#301 = CARTESIAN_POINT ( 'NONE',  ( 0.000000000000000000, 0.000000000000000000, 3.000000000000000000 ) ) ;
#302 = CARTESIAN_POINT ( 'NONE',  ( 0.000000000000000000, 0.000000000000000000, 3.000000000000000000 ) ) ;
#303 = ORIENTED_EDGE ( 'NONE', *, *, #60, .F. ) ;
#304 = CC_DESIGN_SECURITY_CLASSIFICATION ( #128, ( #204 ) ) ;
#305 = DIRECTION ( 'NONE',  ( 0.000000000000000000, 0.000000000000000000, 1.000000000000000000 ) ) ;
#306 = VERTEX_POINT ( 'NONE', #201 ) ;
#307 = AXIS2_PLACEMENT_3D ( 'NONE', #39, #206, #152 ) ;
#308 = DIRECTION ( 'NONE',  ( 0.000000000000000000, 0.000000000000000000, 1.000000000000000000 ) ) ;
#309 = DIRECTION ( 'NONE',  ( 0.000000000000000000, 0.000000000000000000, 1.000000000000000000 ) ) ;
#310 = MECHANICAL_CONTEXT ( 'NONE', #298, 'mechanical' ) ;
#311 = DIRECTION ( 'NONE',  ( 1.000000000000000000, 0.000000000000000000, 0.000000000000000000 ) ) ;
#312 = DIRECTION ( 'NONE',  ( 0.000000000000000000, 0.000000000000000000, -1.000000000000000000 ) ) ;
#313 = ORIENTED_EDGE ( 'NONE', *, *, #2, .T. ) ;
#314 = EDGE_CURVE ( 'NONE', #187, #342, #214, .T. ) ;
#315 = TOROIDAL_SURFACE ( 'NONE', #38, 2.299999999999999822, 0.2999999999999999889 ) ;
#316 = APPROVAL_DATE_TIME ( #179, #26 ) ;
#317 = FACE_OUTER_BOUND ( 'NONE', #161, .T. ) ;
#318 = ORIENTED_EDGE ( 'NONE', *, *, #347, .F. ) ;
#319 = DATE_AND_TIME ( #177, #117 ) ;
#320 = EDGE_CURVE ( 'NONE', #306, #139, #19, .T. ) ;
#321 = DIRECTION ( 'NONE',  ( 0.000000000000000000, 0.000000000000000000, -1.000000000000000000 ) ) ;
#322 = CC_DESIGN_APPROVAL ( #289, ( #204 ) ) ;
#323 = AXIS2_PLACEMENT_3D ( 'NONE', #69, #291, #346 ) ;
#324 = CYLINDRICAL_SURFACE ( 'NONE', #323, 2.000000000000000000 ) ;
#325 = VERTEX_POINT ( 'NONE', #283 ) ;
#326 = CARTESIAN_POINT ( 'NONE',  ( 2.000000000000000000, 2.449293598294706414E-16, 3.299999999999997158 ) ) ;
#327 = UNCERTAINTY_MEASURE_WITH_UNIT (LENGTH_MEASURE( 1.000000000000000082E-05 ), #234, 'distance_accuracy_value', 'NONE');
#328 = CYLINDRICAL_SURFACE ( 'NONE', #42, 4.000000000000000000 ) ;
#329 = ORIENTED_EDGE ( 'NONE', *, *, #224, .T. ) ;
#330 = AXIS2_PLACEMENT_3D ( 'NONE', #6, #91, #357 ) ;
#331 = CC_DESIGN_PERSON_AND_ORGANIZATION_ASSIGNMENT ( #118, #215, ( #128 ) ) ;
#332 = AXIS2_PLACEMENT_3D ( 'NONE', #248, #74, #267 ) ;
#333 = DIRECTION ( 'NONE',  ( -0.000000000000000000, -0.000000000000000000, -1.000000000000000000 ) ) ;
#334 = ORIENTED_EDGE ( 'NONE', *, *, #22, .F. ) ;
#335 = DIRECTION ( 'NONE',  ( -0.000000000000000000, -0.000000000000000000, -1.000000000000000000 ) ) ;
#336 = AXIS2_PLACEMENT_3D ( 'NONE', #301, #271, #134 ) ;
#337 = DIRECTION ( 'NONE',  ( 1.000000000000000000, 0.000000000000000000, 0.000000000000000000 ) ) ;
#338 = TOROIDAL_SURFACE ( 'NONE', #92, 2.299999999999999822, 0.2999999999999999889 ) ;
#339 = DIRECTION ( 'NONE',  ( -0.000000000000000000, -0.000000000000000000, -1.000000000000000000 ) ) ;
#340 = CARTESIAN_POINT ( 'NONE',  ( 4.000000000000000000, 4.898587196589412829E-16, 3.000000000000000000 ) ) ;
#341 = APPLICATION_PROTOCOL_DEFINITION ( 'international standard', 'config_control_design', 1994, #298 ) ;
#342 = VERTEX_POINT ( 'NONE', #377 ) ;
#343 = AXIS2_PLACEMENT_3D ( 'NONE', #269, #250, #46 ) ;
#344 = CARTESIAN_POINT ( 'NONE',  ( 0.000000000000000000, 0.000000000000000000, 103.0000000000000142 ) ) ;
#345 = AXIS2_PLACEMENT_3D ( 'NONE', #88, #23, #311 ) ;
#346 = DIRECTION ( 'NONE',  ( -1.000000000000000000, 0.000000000000000000, 0.000000000000000000 ) ) ;
#347 = EDGE_CURVE ( 'NONE', #139, #306, #273, .T. ) ;
#348 = FACE_OUTER_BOUND ( 'NONE', #251, .T. ) ;
#349 = VECTOR ( 'NONE', #335, 1000.000000000000000 ) ;
#350 = ORIENTED_EDGE ( 'NONE', *, *, #347, .T. ) ;
#351 = CALENDAR_DATE ( 2022, 10, 7 ) ;
#352 = FACE_BOUND ( 'NONE', #21, .T. ) ;
#353 = DATE_AND_TIME ( #351, #162 ) ;
#354 = CIRCLE ( 'NONE', #279, 4.000000000000000000 ) ;
#355 = VECTOR ( 'NONE', #339, 1000.000000000000000 ) ;
#356 = DATE_AND_TIME ( #296, #86 ) ;
#357 = DIRECTION ( 'NONE',  ( 1.000000000000000000, 0.000000000000000000, 0.000000000000000000 ) ) ;
#358 = DESIGN_CONTEXT ( 'detailed design', #138, 'design' ) ;
#359 = AXIS2_PLACEMENT_3D ( 'NONE', #360, #217, #246 ) ;
#360 = CARTESIAN_POINT ( 'NONE',  ( 0.000000000000000000, 0.000000000000000000, 103.0000000000000142 ) ) ;
#361 = CC_DESIGN_PERSON_AND_ORGANIZATION_ASSIGNMENT ( #1, #150, ( #196 ) ) ;
#362 = FACE_OUTER_BOUND ( 'NONE', #79, .T. ) ;
#363 = EDGE_LOOP ( 'NONE', ( #350, #133 ) ) ;
#364 = ORGANIZATION ( 'NEURÈENÝ', 'NEURÈENÝ', '' ) ;
#365 = CYLINDRICAL_SURFACE ( 'NONE', #268, 4.000000000000000000 ) ;
#366 = EDGE_LOOP ( 'NONE', ( #55, #20, #52, #281 ) ) ;
#367 = DIRECTION ( 'NONE',  ( -0.000000000000000000, -0.000000000000000000, -1.000000000000000000 ) ) ;
#368 = ORIENTED_EDGE ( 'NONE', *, *, #41, .T. ) ;
#369 = CARTESIAN_POINT ( 'NONE',  ( 0.000000000000000000, 0.000000000000000000, 103.0000000000000142 ) ) ;
#370 = ORIENTED_EDGE ( 'NONE', *, *, #224, .F. ) ;
#371 = CC_DESIGN_APPROVAL ( #278, ( #252 ) ) ;
#372 = CARTESIAN_POINT ( 'NONE',  ( 0.000000000000000000, 0.000000000000000000, 0.000000000000000000 ) ) ;
#373 = AXIS2_PLACEMENT_3D ( 'NONE', #3, #101, #381 ) ;
#374 = ORIENTED_EDGE ( 'NONE', *, *, #103, .T. ) ;
#375 = DIRECTION ( 'NONE',  ( 1.000000000000000000, 0.000000000000000000, 0.000000000000000000 ) ) ;
#376 = ORIENTED_EDGE ( 'NONE', *, *, #300, .F. ) ;
#377 = CARTESIAN_POINT ( 'NONE',  ( -2.000000000000000000, 0.000000000000000000, 3.299999999999997158 ) ) ;
#378 = CIRCLE ( 'NONE', #259, 1.100000000000000089 ) ;
#379 = DIRECTION ( 'NONE',  ( 0.000000000000000000, 0.000000000000000000, 1.000000000000000000 ) ) ;
#380 = APPROVAL_ROLE ( '' ) ;
#381 = DIRECTION ( 'NONE',  ( -1.000000000000000000, 0.000000000000000000, 0.000000000000000000 ) ) ;
ENDSEC;
END-ISO-10303-21;
