ISO-10303-21;
HEADER;
FILE_DESCRIPTION (( 'STEP AP203' ),
    '1' );
FILE_NAME ('ef88.STEP',
    '2022-07-10T09:07:04',
    ( '' ),
    ( '' ),
    'SwSTEP 2.0',
    'SolidWorks 2019',
    '' );
FILE_SCHEMA (( 'CONFIG_CONTROL_DESIGN' ));
ENDSEC;

DATA;
#1 = ADVANCED_BREP_SHAPE_REPRESENTATION ( 'ef88', ( #200, #162 ), #182 ) ;
#2 = DATE_TIME_ROLE ( 'creation_date' ) ;
#3 = DIRECTION ( 'NONE',  ( 0.000000000000000000, 0.000000000000000000, 1.000000000000000000 ) ) ;
#4 = PRODUCT_RELATED_PRODUCT_CATEGORY ( 'detail', '', ( #373 ) ) ;
#5 = DIRECTION ( 'NONE',  ( 0.000000000000000000, 0.000000000000000000, 1.000000000000000000 ) ) ;
#6 = ORIENTED_EDGE ( 'NONE', *, *, #84, .F. ) ;
#7 = EDGE_CURVE ( 'NONE', #268, #294, #314, .T. ) ;
#8 = DIRECTION ( 'NONE',  ( 0.000000000000000000, 0.000000000000000000, -1.000000000000000000 ) ) ;
#9 = PERSON ( 'NEURÈENÝ', 'NEURÈENÝ', 'NEURÈENÝ', ('NEURÈENÝ'), ('NEURÈENÝ'), ('NEURÈENÝ') ) ;
#10 = AXIS2_PLACEMENT_3D ( 'NONE', #317, #279, #260 ) ;
#11 = VERTEX_POINT ( 'NONE', #100 ) ;
#12 =( NAMED_UNIT ( * ) PLANE_ANGLE_UNIT ( ) SI_UNIT ( $, .RADIAN. ) );
#13 = DIRECTION ( 'NONE',  ( 0.000000000000000000, 0.000000000000000000, 1.000000000000000000 ) ) ;
#14 = DIRECTION ( 'NONE',  ( 1.000000000000000000, 0.000000000000000000, 0.000000000000000000 ) ) ;
#15 = ADVANCED_FACE ( 'NONE', ( #194 ), #227, .T. ) ;
#16 = EDGE_LOOP ( 'NONE', ( #121, #343 ) ) ;
#17 = CC_DESIGN_PERSON_AND_ORGANIZATION_ASSIGNMENT ( #81, #256, ( #337 ) ) ;
#18 = DIRECTION ( 'NONE',  ( 0.000000000000000000, 0.000000000000000000, 1.000000000000000000 ) ) ;
#19 = EDGE_CURVE ( 'NONE', #232, #145, #276, .T. ) ;
#20 = CARTESIAN_POINT ( 'NONE',  ( 0.000000000000000000, 0.000000000000000000, 5.500000000000005329 ) ) ;
#21 = TOROIDAL_SURFACE ( 'NONE', #50, 5.500000000000000000, 0.5000000000000000000 ) ;
#22 = AXIS2_PLACEMENT_3D ( 'NONE', #372, #108, #370 ) ;
#23 = ORIENTED_EDGE ( 'NONE', *, *, #261, .T. ) ;
#24 = CARTESIAN_POINT ( 'NONE',  ( 0.000000000000000000, 0.000000000000000000, 155.0000000000000000 ) ) ;
#25 = CARTESIAN_POINT ( 'NONE',  ( 8.000000000000000000, 9.797174393178825657E-16, 0.000000000000000000 ) ) ;
#26 = DATE_AND_TIME ( #62, #284 ) ;
#27 = DIRECTION ( 'NONE',  ( -0.000000000000000000, -0.000000000000000000, -1.000000000000000000 ) ) ;
#28 = AXIS2_PLACEMENT_3D ( 'NONE', #107, #269, #310 ) ;
#29 = PERSON_AND_ORGANIZATION ( #9, #374 ) ;
#30 = CARTESIAN_POINT ( 'NONE',  ( -5.000000000000000000, 0.000000000000000000, 155.0000000000000000 ) ) ;
#31 = APPLICATION_CONTEXT ( 'configuration controlled 3d designs of mechanical parts and assemblies' ) ;
#32 = ORIENTED_EDGE ( 'NONE', *, *, #188, .T. ) ;
#33 = AXIS2_PLACEMENT_3D ( 'NONE', #293, #298, #67 ) ;
#34 = CC_DESIGN_DATE_AND_TIME_ASSIGNMENT ( #120, #354, ( #369 ) ) ;
#35 = DIRECTION ( 'NONE',  ( 1.000000000000000000, 0.000000000000000000, 0.000000000000000000 ) ) ;
#36 = DIRECTION ( 'NONE',  ( 0.000000000000000000, 0.000000000000000000, 1.000000000000000000 ) ) ;
#37 = VECTOR ( 'NONE', #246, 1000.000000000000000 ) ;
#38 = ORIENTED_EDGE ( 'NONE', *, *, #344, .T. ) ;
#39 = LINE ( 'NONE', #184, #97 ) ;
#40 = ORIENTED_EDGE ( 'NONE', *, *, #364, .T. ) ;
#41 = ADVANCED_FACE ( 'NONE', ( #304, #191 ), #161, .T. ) ;
#42 = FACE_BOUND ( 'NONE', #106, .T. ) ;
#43 = EDGE_LOOP ( 'NONE', ( #86, #6, #124, #274 ) ) ;
#44 = DIRECTION ( 'NONE',  ( -0.000000000000000000, -0.000000000000000000, -1.000000000000000000 ) ) ;
#45 = DIRECTION ( 'NONE',  ( 0.000000000000000000, 0.000000000000000000, 1.000000000000000000 ) ) ;
#46 = LOCAL_TIME ( 11, 7, 4.000000000000000000, #355 ) ;
#47 = CIRCLE ( 'NONE', #247, 3.000000000000000444 ) ;
#48 = CC_DESIGN_PERSON_AND_ORGANIZATION_ASSIGNMENT ( #349, #57, ( #101 ) ) ;
#49 = EDGE_CURVE ( 'NONE', #171, #230, #47, .T. ) ;
#50 = AXIS2_PLACEMENT_3D ( 'NONE', #238, #85, #58 ) ;
#51 = ORIENTED_EDGE ( 'NONE', *, *, #140, .T. ) ;
#52 = DIRECTION ( 'NONE',  ( 0.000000000000000000, 0.000000000000000000, 1.000000000000000000 ) ) ;
#53 = DIRECTION ( 'NONE',  ( 0.000000000000000000, 0.000000000000000000, -1.000000000000000000 ) ) ;
#54 = DATE_AND_TIME ( #83, #46 ) ;
#55 = FACE_OUTER_BOUND ( 'NONE', #64, .T. ) ;
#56 = AXIS2_PLACEMENT_3D ( 'NONE', #342, #53, #174 ) ;
#57 = PERSON_AND_ORGANIZATION_ROLE ( 'creator' ) ;
#58 = DIRECTION ( 'NONE',  ( 1.000000000000000000, 0.000000000000000000, 0.000000000000000000 ) ) ;
#59 = EDGE_LOOP ( 'NONE', ( #32, #94 ) ) ;
#60 = DIRECTION ( 'NONE',  ( 1.000000000000000000, 0.000000000000000000, -0.000000000000000000 ) ) ;
#61 = ORIENTED_EDGE ( 'NONE', *, *, #244, .T. ) ;
#62 = CALENDAR_DATE ( 2022, 10, 7 ) ;
#63 = LINE ( 'NONE', #154, #169 ) ;
#64 = EDGE_LOOP ( 'NONE', ( #292, #150, #92, #180 ) ) ;
#65 = ORIENTED_EDGE ( 'NONE', *, *, #66, .F. ) ;
#66 = EDGE_CURVE ( 'NONE', #294, #268, #82, .T. ) ;
#67 = DIRECTION ( 'NONE',  ( -1.000000000000000000, 0.000000000000000000, 0.000000000000000000 ) ) ;
#68 = VECTOR ( 'NONE', #340, 1000.000000000000000 ) ;
#69 = VERTEX_POINT ( 'NONE', #334 ) ;
#70 = ORIENTED_EDGE ( 'NONE', *, *, #128, .F. ) ;
#71 = CIRCLE ( 'NONE', #368, 5.500000000000000000 ) ;
#72 = PERSON_AND_ORGANIZATION_ROLE ( 'design_owner' ) ;
#73 = CYLINDRICAL_SURFACE ( 'NONE', #114, 8.000000000000000000 ) ;
#74 = CC_DESIGN_APPROVAL ( #250, ( #101 ) ) ;
#75 = DIRECTION ( 'NONE',  ( -1.000000000000000000, 0.000000000000000000, 0.000000000000000000 ) ) ;
#76 = DIRECTION ( 'NONE',  ( 1.000000000000000000, 0.000000000000000000, 0.000000000000000000 ) ) ;
#77 = DIRECTION ( 'NONE',  ( -1.000000000000000000, 1.224646799147351482E-16, 0.000000000000000000 ) ) ;
#78 = AXIS2_PLACEMENT_3D ( 'NONE', #24, #272, #137 ) ;
#79 = ORIENTED_EDGE ( 'NONE', *, *, #140, .F. ) ;
#80 = APPLICATION_PROTOCOL_DEFINITION ( 'international standard', 'config_control_design', 1994, #362 ) ;
#81 = PERSON_AND_ORGANIZATION ( #9, #374 ) ;
#82 = CIRCLE ( 'NONE', #295, 3.000000000000000444 ) ;
#83 = CALENDAR_DATE ( 2022, 10, 7 ) ;
#84 = EDGE_CURVE ( 'NONE', #267, #213, #133, .T. ) ;
#85 = DIRECTION ( 'NONE',  ( 0.000000000000000000, 0.000000000000000000, 1.000000000000000000 ) ) ;
#86 = ORIENTED_EDGE ( 'NONE', *, *, #117, .F. ) ;
#87 = CARTESIAN_POINT ( 'NONE',  ( 0.000000000000000000, 0.000000000000000000, 5.000000000000000000 ) ) ;
#88 = EDGE_LOOP ( 'NONE', ( #252, #288, #299, #320 ) ) ;
#89 = DIRECTION ( 'NONE',  ( -0.000000000000000000, -0.000000000000000000, -1.000000000000000000 ) ) ;
#90 = ORIENTED_EDGE ( 'NONE', *, *, #350, .F. ) ;
#91 = DIRECTION ( 'NONE',  ( 0.000000000000000000, 0.000000000000000000, 1.000000000000000000 ) ) ;
#92 = ORIENTED_EDGE ( 'NONE', *, *, #188, .F. ) ;
#93 = CARTESIAN_POINT ( 'NONE',  ( 0.000000000000000000, 0.000000000000000000, 155.0000000000000000 ) ) ;
#94 = ORIENTED_EDGE ( 'NONE', *, *, #173, .T. ) ;
#95 = ADVANCED_FACE ( 'NONE', ( #129 ), #73, .T. ) ;
#96 = CARTESIAN_POINT ( 'NONE',  ( 0.000000000000000000, 0.000000000000000000, 155.0000000000000000 ) ) ;
#97 = VECTOR ( 'NONE', #356, 1000.000000000000000 ) ;
#98 = DIRECTION ( 'NONE',  ( -0.000000000000000000, -0.000000000000000000, -1.000000000000000000 ) ) ;
#99 = CLOSED_SHELL ( 'NONE', ( #185, #195, #235, #275, #95, #41, #335, #15, #316, #305, #339 ) ) ;
#100 = CARTESIAN_POINT ( 'NONE',  ( -8.000000000000000000, 0.000000000000000000, 5.000000000000000000 ) ) ;
#101 = PRODUCT_DEFINITION ( 'NEZNÁMÝ', '', #337, #193 ) ;
#102 = VECTOR ( 'NONE', #255, 1000.000000000000000 ) ;
#103 = DIRECTION ( 'NONE',  ( 1.000000000000000000, 0.000000000000000000, 0.000000000000000000 ) ) ;
#104 = LOCAL_TIME ( 11, 7, 4.000000000000000000, #345 ) ;
#105 = DIRECTION ( 'NONE',  ( 1.000000000000000000, 0.000000000000000000, 0.000000000000000000 ) ) ;
#106 = EDGE_LOOP ( 'NONE', ( #65, #329 ) ) ;
#107 = CARTESIAN_POINT ( 'NONE',  ( 0.000000000000000000, 0.000000000000000000, 155.0000000000000000 ) ) ;
#108 = DIRECTION ( 'NONE',  ( 0.000000000000000000, -1.000000000000000000, 0.000000000000000000 ) ) ;
#109 = CIRCLE ( 'NONE', #78, 5.000000000000000000 ) ;
#110 = EDGE_LOOP ( 'NONE', ( #90, #70 ) ) ;
#111 = DIRECTION ( 'NONE',  ( 1.000000000000000000, 0.000000000000000000, 0.000000000000000000 ) ) ;
#112 = EDGE_CURVE ( 'NONE', #11, #159, #226, .T. ) ;
#113 = APPROVAL_DATE_TIME ( #377, #237 ) ;
#114 = AXIS2_PLACEMENT_3D ( 'NONE', #303, #44, #367 ) ;
#115 = CARTESIAN_POINT ( 'NONE',  ( 5.500000000000000000, 0.000000000000000000, 5.000000000000002665 ) ) ;
#116 = APPROVAL_STATUS ( 'not_yet_approved' ) ;
#117 = EDGE_CURVE ( 'NONE', #213, #69, #327, .T. ) ;
#118 = CARTESIAN_POINT ( 'NONE',  ( 8.000000000000000000, 9.797174393178825657E-16, 5.000000000000000000 ) ) ;
#119 = AXIS2_PLACEMENT_3D ( 'NONE', #87, #36, #214 ) ;
#120 = DATE_AND_TIME ( #283, #104 ) ;
#121 = ORIENTED_EDGE ( 'NONE', *, *, #344, .F. ) ;
#122 = APPROVAL_DATE_TIME ( #54, #250 ) ;
#123 = CC_DESIGN_PERSON_AND_ORGANIZATION_ASSIGNMENT ( #158, #72, ( #373 ) ) ;
#124 = ORIENTED_EDGE ( 'NONE', *, *, #176, .T. ) ;
#125 = FACE_OUTER_BOUND ( 'NONE', #165, .T. ) ;
#126 = CARTESIAN_POINT ( 'NONE',  ( -3.000000000000000444, 0.000000000000000000, 0.000000000000000000 ) ) ;
#127 = ORIENTED_EDGE ( 'NONE', *, *, #248, .F. ) ;
#128 = EDGE_CURVE ( 'NONE', #145, #159, #348, .T. ) ;
#129 = FACE_OUTER_BOUND ( 'NONE', #88, .T. ) ;
#130 = CIRCLE ( 'NONE', #380, 8.000000000000000000 ) ;
#131 = ORIENTED_EDGE ( 'NONE', *, *, #163, .T. ) ;
#132 = DIRECTION ( 'NONE',  ( 1.000000000000000000, 0.000000000000000000, 0.000000000000000000 ) ) ;
#133 = CIRCLE ( 'NONE', #347, 5.000000000000000000 ) ;
#134 = AXIS2_PLACEMENT_3D ( 'NONE', #302, #202, #363 ) ;
#135 = DIRECTION ( 'NONE',  ( 1.224646799147353207E-16, 1.000000000000000000, -0.000000000000000000 ) ) ;
#136 = ORIENTED_EDGE ( 'NONE', *, *, #128, .T. ) ;
#137 = DIRECTION ( 'NONE',  ( 1.000000000000000000, 0.000000000000000000, 0.000000000000000000 ) ) ;
#138 = CARTESIAN_POINT ( 'NONE',  ( -8.000000000000000000, 0.000000000000000000, 0.000000000000000000 ) ) ;
#139 = COORDINATED_UNIVERSAL_TIME_OFFSET ( 1, 0, .AHEAD. ) ;
#140 = EDGE_CURVE ( 'NONE', #378, #206, #365, .T. ) ;
#141 = CIRCLE ( 'NONE', #119, 8.000000000000000000 ) ;
#142 = APPROVAL_STATUS ( 'not_yet_approved' ) ;
#143 = DATE_AND_TIME ( #379, #257 ) ;
#144 = LINE ( 'NONE', #170, #203 ) ;
#145 = VERTEX_POINT ( 'NONE', #25 ) ;
#146 = CARTESIAN_POINT ( 'NONE',  ( -3.000000000000000444, 0.000000000000000000, 155.0000000000000000 ) ) ;
#147 = ORIENTED_EDGE ( 'NONE', *, *, #84, .T. ) ;
#148 = CIRCLE ( 'NONE', #10, 5.500000000000000000 ) ;
#149 = FACE_OUTER_BOUND ( 'NONE', #196, .T. ) ;
#150 = ORIENTED_EDGE ( 'NONE', *, *, #117, .T. ) ;
#151 = AXIS2_PLACEMENT_3D ( 'NONE', #331, #199, #132 ) ;
#152 = FACE_BOUND ( 'NONE', #16, .T. ) ;
#153 = EDGE_LOOP ( 'NONE', ( #38, #23, #178, #215 ) ) ;
#154 = CARTESIAN_POINT ( 'NONE',  ( 3.000000000000000444, 3.673940397442060361E-16, 155.0000000000000000 ) ) ;
#155 = EDGE_LOOP ( 'NONE', ( #79, #245, #147, #127 ) ) ;
#156 = EDGE_CURVE ( 'NONE', #378, #267, #144, .T. ) ;
#157 = AXIS2_PLACEMENT_3D ( 'NONE', #241, #91, #324 ) ;
#158 = PERSON_AND_ORGANIZATION ( #9, #374 ) ;
#159 = VERTEX_POINT ( 'NONE', #138 ) ;
#160 = CYLINDRICAL_SURFACE ( 'NONE', #134, 3.000000000000000444 ) ;
#161 = PLANE ( 'NONE',  #338 ) ;
#162 = AXIS2_PLACEMENT_3D ( 'NONE', #330, #45, #222 ) ;
#163 = EDGE_CURVE ( 'NONE', #230, #294, #208, .T. ) ;
#164 = CC_DESIGN_APPROVAL ( #237, ( #369 ) ) ;
#165 = EDGE_LOOP ( 'NONE', ( #357, #325, #131, #220 ) ) ;
#166 = AXIS2_PLACEMENT_3D ( 'NONE', #233, #135, #77 ) ;
#167 = DIRECTION ( 'NONE',  ( 1.000000000000000000, 0.000000000000000000, 0.000000000000000000 ) ) ;
#168 = PRODUCT_DEFINITION_SHAPE ( 'NONE', 'NONE',  #101 ) ;
#169 = VECTOR ( 'NONE', #8, 1000.000000000000000 ) ;
#170 = CARTESIAN_POINT ( 'NONE',  ( 5.000000000000000000, 6.123233995736766282E-16, 155.0000000000000000 ) ) ;
#171 = VERTEX_POINT ( 'NONE', #285 ) ;
#172 = APPROVAL_ROLE ( '' ) ;
#173 = EDGE_CURVE ( 'NONE', #69, #187, #148, .T. ) ;
#174 = DIRECTION ( 'NONE',  ( -1.000000000000000000, 0.000000000000000000, 0.000000000000000000 ) ) ;
#175 = SECURITY_CLASSIFICATION_LEVEL ( 'unclassified' ) ;
#176 = EDGE_CURVE ( 'NONE', #267, #187, #277, .T. ) ;
#177 = CARTESIAN_POINT ( 'NONE',  ( -8.000000000000000000, 0.000000000000000000, 5.000000000000000000 ) ) ;
#178 = ORIENTED_EDGE ( 'NONE', *, *, #7, .T. ) ;
#179 = APPROVAL ( #116, 'NEURÈENÝ' ) ;
#180 = ORIENTED_EDGE ( 'NONE', *, *, #176, .F. ) ;
#181 = CARTESIAN_POINT ( 'NONE',  ( 3.000000000000000444, 3.673940397442060361E-16, 0.000000000000000000 ) ) ;
#182 =( GEOMETRIC_REPRESENTATION_CONTEXT ( 3 ) GLOBAL_UNCERTAINTY_ASSIGNED_CONTEXT ( ( #333 ) ) GLOBAL_UNIT_ASSIGNED_CONTEXT ( ( #231, #12, #190 ) ) REPRESENTATION_CONTEXT ( 'NONE', 'WORKASPACE' ) );
#183 = APPROVAL_PERSON_ORGANIZATION ( #207, #179, #351 ) ;
#184 = CARTESIAN_POINT ( 'NONE',  ( -5.000000000000000000, 0.000000000000000000, 155.0000000000000000 ) ) ;
#185 = ADVANCED_FACE ( 'NONE', ( #258 ), #308, .F. ) ;
#186 = DIRECTION ( 'NONE',  ( 0.000000000000000000, 0.000000000000000000, 1.000000000000000000 ) ) ;
#187 = VERTEX_POINT ( 'NONE', #115 ) ;
#188 = EDGE_CURVE ( 'NONE', #187, #69, #71, .T. ) ;
#189 = CIRCLE ( 'NONE', #224, 8.000000000000000000 ) ;
#190 =( NAMED_UNIT ( * ) SI_UNIT ( $, .STERADIAN. ) SOLID_ANGLE_UNIT ( ) );
#191 = FACE_OUTER_BOUND ( 'NONE', #262, .T. ) ;
#192 = CC_DESIGN_PERSON_AND_ORGANIZATION_ASSIGNMENT ( #375, #290, ( #337 ) ) ;
#193 = DESIGN_CONTEXT ( 'detailed design', #31, 'design' ) ;
#194 = FACE_OUTER_BOUND ( 'NONE', #242, .T. ) ;
#195 = ADVANCED_FACE ( 'NONE', ( #55 ), #21, .F. ) ;
#196 = EDGE_LOOP ( 'NONE', ( #40, #51 ) ) ;
#197 = AXIS2_PLACEMENT_3D ( 'NONE', #353, #5, #328 ) ;
#198 = CARTESIAN_POINT ( 'NONE',  ( 0.000000000000000000, 0.000000000000000000, 5.000000000000000000 ) ) ;
#199 = DIRECTION ( 'NONE',  ( -0.000000000000000000, -0.000000000000000000, -1.000000000000000000 ) ) ;
#200 = MANIFOLD_SOLID_BREP ( 'Odebrat vysunutím3', #99 ) ;
#201 = CARTESIAN_POINT ( 'NONE',  ( 0.000000000000000000, 0.000000000000000000, 155.0000000000000000 ) ) ;
#202 = DIRECTION ( 'NONE',  ( 0.000000000000000000, 0.000000000000000000, -1.000000000000000000 ) ) ;
#203 = VECTOR ( 'NONE', #205, 1000.000000000000000 ) ;
#204 = ORIENTED_EDGE ( 'NONE', *, *, #364, .F. ) ;
#205 = DIRECTION ( 'NONE',  ( -0.000000000000000000, -0.000000000000000000, -1.000000000000000000 ) ) ;
#206 = VERTEX_POINT ( 'NONE', #30 ) ;
#207 = PERSON_AND_ORGANIZATION ( #9, #374 ) ;
#208 = LINE ( 'NONE', #313, #102 ) ;
#209 = PERSON_AND_ORGANIZATION ( #9, #374 ) ;
#210 = DIRECTION ( 'NONE',  ( 1.000000000000000000, 0.000000000000000000, 0.000000000000000000 ) ) ;
#211 = AXIS2_PLACEMENT_3D ( 'NONE', #212, #186, #35 ) ;
#212 = CARTESIAN_POINT ( 'NONE',  ( 0.000000000000000000, 0.000000000000000000, 5.500000000000005329 ) ) ;
#213 = VERTEX_POINT ( 'NONE', #286 ) ;
#214 = DIRECTION ( 'NONE',  ( 1.000000000000000000, 0.000000000000000000, 0.000000000000000000 ) ) ;
#215 = ORIENTED_EDGE ( 'NONE', *, *, #163, .F. ) ;
#216 = PERSON_AND_ORGANIZATION ( #9, #374 ) ;
#217 = CARTESIAN_POINT ( 'NONE',  ( 5.000000000000000000, 6.123233995736766282E-16, 5.500000000000005329 ) ) ;
#218 = APPROVAL_PERSON_ORGANIZATION ( #216, #250, #172 ) ;
#219 = CYLINDRICAL_SURFACE ( 'NONE', #33, 8.000000000000000000 ) ;
#220 = ORIENTED_EDGE ( 'NONE', *, *, #66, .T. ) ;
#221 = FACE_OUTER_BOUND ( 'NONE', #110, .T. ) ;
#222 = DIRECTION ( 'NONE',  ( 1.000000000000000000, 0.000000000000000000, 0.000000000000000000 ) ) ;
#223 = DIRECTION ( 'NONE',  ( 1.000000000000000000, 0.000000000000000000, -0.000000000000000000 ) ) ;
#224 = AXIS2_PLACEMENT_3D ( 'NONE', #332, #52, #280 ) ;
#225 = CARTESIAN_POINT ( 'NONE',  ( 8.000000000000000000, 9.797174393178825657E-16, 5.000000000000000000 ) ) ;
#226 = LINE ( 'NONE', #177, #68 ) ;
#227 = CYLINDRICAL_SURFACE ( 'NONE', #287, 5.000000000000000000 ) ;
#228 = AXIS2_PLACEMENT_3D ( 'NONE', #264, #89, #381 ) ;
#229 = LOCAL_TIME ( 11, 7, 4.000000000000000000, #259 ) ;
#230 = VERTEX_POINT ( 'NONE', #146 ) ;
#231 =( LENGTH_UNIT ( ) NAMED_UNIT ( * ) SI_UNIT ( .MILLI., .METRE. ) );
#232 = VERTEX_POINT ( 'NONE', #118 ) ;
#233 = CARTESIAN_POINT ( 'NONE',  ( -5.500000000000000000, 6.735557395310442023E-16, 5.500000000000005329 ) ) ;
#234 = ORIENTED_EDGE ( 'NONE', *, *, #359, .F. ) ;
#235 = ADVANCED_FACE ( 'NONE', ( #326 ), #296, .T. ) ;
#236 = PERSON_AND_ORGANIZATION_ROLE ( 'classification_officer' ) ;
#237 = APPROVAL ( #142, 'NEURÈENÝ' ) ;
#238 = CARTESIAN_POINT ( 'NONE',  ( 0.000000000000000000, 0.000000000000000000, 5.500000000000005329 ) ) ;
#239 = APPLICATION_PROTOCOL_DEFINITION ( 'international standard', 'config_control_design', 1994, #31 ) ;
#240 = APPROVAL_STATUS ( 'not_yet_approved' ) ;
#241 = CARTESIAN_POINT ( 'NONE',  ( 0.000000000000000000, 0.000000000000000000, 5.500000000000005329 ) ) ;
#242 = EDGE_LOOP ( 'NONE', ( #361, #204, #371, #61 ) ) ;
#243 = CIRCLE ( 'NONE', #157, 5.000000000000000000 ) ;
#244 = EDGE_CURVE ( 'NONE', #213, #267, #243, .T. ) ;
#245 = ORIENTED_EDGE ( 'NONE', *, *, #156, .T. ) ;
#246 = DIRECTION ( 'NONE',  ( -0.000000000000000000, -0.000000000000000000, -1.000000000000000000 ) ) ;
#247 = AXIS2_PLACEMENT_3D ( 'NONE', #270, #18, #103 ) ;
#248 = EDGE_CURVE ( 'NONE', #206, #213, #39, .T. ) ;
#249 = ORIENTED_EDGE ( 'NONE', *, *, #359, .T. ) ;
#250 = APPROVAL ( #240, 'NEURÈENÝ' ) ;
#251 = AXIS2_PLACEMENT_3D ( 'NONE', #93, #3, #60 ) ;
#252 = ORIENTED_EDGE ( 'NONE', *, *, #19, .F. ) ;
#253 = CARTESIAN_POINT ( 'NONE',  ( 0.000000000000000000, 0.000000000000000000, 0.000000000000000000 ) ) ;
#254 = EDGE_CURVE ( 'NONE', #11, #232, #141, .T. ) ;
#255 = DIRECTION ( 'NONE',  ( 0.000000000000000000, 0.000000000000000000, -1.000000000000000000 ) ) ;
#256 = PERSON_AND_ORGANIZATION_ROLE ( 'creator' ) ;
#257 = LOCAL_TIME ( 11, 7, 4.000000000000000000, #139 ) ;
#258 = FACE_OUTER_BOUND ( 'NONE', #153, .T. ) ;
#259 = COORDINATED_UNIVERSAL_TIME_OFFSET ( 1, 0, .AHEAD. ) ;
#260 = DIRECTION ( 'NONE',  ( 1.000000000000000000, 0.000000000000000000, 0.000000000000000000 ) ) ;
#261 = EDGE_CURVE ( 'NONE', #171, #268, #63, .T. ) ;
#262 = EDGE_LOOP ( 'NONE', ( #297, #249 ) ) ;
#263 = APPROVAL_ROLE ( '' ) ;
#264 = CARTESIAN_POINT ( 'NONE',  ( 0.000000000000000000, 0.000000000000000000, 155.0000000000000000 ) ) ;
#265 = ORIENTED_EDGE ( 'NONE', *, *, #112, .F. ) ;
#266 = PLANE ( 'NONE',  #197 ) ;
#267 = VERTEX_POINT ( 'NONE', #217 ) ;
#268 = VERTEX_POINT ( 'NONE', #181 ) ;
#269 = DIRECTION ( 'NONE',  ( 0.000000000000000000, 0.000000000000000000, 1.000000000000000000 ) ) ;
#270 = CARTESIAN_POINT ( 'NONE',  ( 0.000000000000000000, 0.000000000000000000, 155.0000000000000000 ) ) ;
#271 = AXIS2_PLACEMENT_3D ( 'NONE', #312, #346, #76 ) ;
#272 = DIRECTION ( 'NONE',  ( 0.000000000000000000, 0.000000000000000000, 1.000000000000000000 ) ) ;
#273 = AXIS2_PLACEMENT_3D ( 'NONE', #201, #376, #210 ) ;
#274 = ORIENTED_EDGE ( 'NONE', *, *, #173, .F. ) ;
#275 = ADVANCED_FACE ( 'NONE', ( #291 ), #219, .T. ) ;
#276 = LINE ( 'NONE', #225, #37 ) ;
#277 = CIRCLE ( 'NONE', #22, 0.5000000000000004441 ) ;
#278 = CC_DESIGN_APPROVAL ( #179, ( #337 ) ) ;
#279 = DIRECTION ( 'NONE',  ( -0.000000000000000000, -0.000000000000000000, -1.000000000000000000 ) ) ;
#280 = DIRECTION ( 'NONE',  ( 1.000000000000000000, 0.000000000000000000, 0.000000000000000000 ) ) ;
#281 = COORDINATED_UNIVERSAL_TIME_OFFSET ( 1, 0, .AHEAD. ) ;
#282 = CARTESIAN_POINT ( 'NONE',  ( 0.000000000000000000, 0.000000000000000000, 5.000000000000000000 ) ) ;
#283 = CALENDAR_DATE ( 2022, 10, 7 ) ;
#284 = LOCAL_TIME ( 11, 7, 4.000000000000000000, #281 ) ;
#285 = CARTESIAN_POINT ( 'NONE',  ( 3.000000000000000444, 3.673940397442060361E-16, 155.0000000000000000 ) ) ;
#286 = CARTESIAN_POINT ( 'NONE',  ( -5.000000000000000000, 0.000000000000000000, 5.500000000000005329 ) ) ;
#287 = AXIS2_PLACEMENT_3D ( 'NONE', #96, #336, #75 ) ;
#288 = ORIENTED_EDGE ( 'NONE', *, *, #254, .F. ) ;
#289 = CC_DESIGN_DATE_AND_TIME_ASSIGNMENT ( #26, #2, ( #101 ) ) ;
#290 = PERSON_AND_ORGANIZATION_ROLE ( 'design_supplier' ) ;
#291 = FACE_OUTER_BOUND ( 'NONE', #358, .T. ) ;
#292 = ORIENTED_EDGE ( 'NONE', *, *, #244, .F. ) ;
#293 = CARTESIAN_POINT ( 'NONE',  ( 0.000000000000000000, 0.000000000000000000, 5.000000000000000000 ) ) ;
#294 = VERTEX_POINT ( 'NONE', #126 ) ;
#295 = AXIS2_PLACEMENT_3D ( 'NONE', #307, #98, #167 ) ;
#296 = CYLINDRICAL_SURFACE ( 'NONE', #228, 5.000000000000000000 ) ;
#297 = ORIENTED_EDGE ( 'NONE', *, *, #254, .T. ) ;
#298 = DIRECTION ( 'NONE',  ( -0.000000000000000000, -0.000000000000000000, -1.000000000000000000 ) ) ;
#299 = ORIENTED_EDGE ( 'NONE', *, *, #112, .T. ) ;
#300 = DIRECTION ( 'NONE',  ( 0.000000000000000000, 0.000000000000000000, 1.000000000000000000 ) ) ;
#301 = CC_DESIGN_PERSON_AND_ORGANIZATION_ASSIGNMENT ( #209, #236, ( #369 ) ) ;
#302 = CARTESIAN_POINT ( 'NONE',  ( 0.000000000000000000, 0.000000000000000000, 155.0000000000000000 ) ) ;
#303 = CARTESIAN_POINT ( 'NONE',  ( 0.000000000000000000, 0.000000000000000000, 5.000000000000000000 ) ) ;
#304 = FACE_BOUND ( 'NONE', #59, .T. ) ;
#305 = ADVANCED_FACE ( 'NONE', ( #321 ), #352, .F. ) ;
#306 = DIRECTION ( 'NONE',  ( 0.000000000000000000, 0.000000000000000000, 1.000000000000000000 ) ) ;
#307 = CARTESIAN_POINT ( 'NONE',  ( 0.000000000000000000, 0.000000000000000000, 0.000000000000000000 ) ) ;
#308 = CYLINDRICAL_SURFACE ( 'NONE', #56, 3.000000000000000444 ) ;
#309 = CIRCLE ( 'NONE', #28, 3.000000000000000444 ) ;
#310 = DIRECTION ( 'NONE',  ( 1.000000000000000000, 0.000000000000000000, 0.000000000000000000 ) ) ;
#311 = CC_DESIGN_SECURITY_CLASSIFICATION ( #369, ( #337 ) ) ;
#312 = CARTESIAN_POINT ( 'NONE',  ( 0.000000000000000000, 0.000000000000000000, 0.000000000000000000 ) ) ;
#313 = CARTESIAN_POINT ( 'NONE',  ( -3.000000000000000444, 0.000000000000000000, 155.0000000000000000 ) ) ;
#314 = CIRCLE ( 'NONE', #151, 3.000000000000000444 ) ;
#315 = APPROVAL_DATE_TIME ( #143, #179 ) ;
#316 = ADVANCED_FACE ( 'NONE', ( #152, #149 ), #360, .T. ) ;
#317 = CARTESIAN_POINT ( 'NONE',  ( 0.000000000000000000, 0.000000000000000000, 5.000000000000000000 ) ) ;
#318 = CALENDAR_DATE ( 2022, 10, 7 ) ;
#319 = APPROVAL_PERSON_ORGANIZATION ( #29, #237, #263 ) ;
#320 = ORIENTED_EDGE ( 'NONE', *, *, #350, .T. ) ;
#321 = FACE_OUTER_BOUND ( 'NONE', #43, .T. ) ;
#322 = ORIENTED_EDGE ( 'NONE', *, *, #19, .T. ) ;
#323 = SHAPE_DEFINITION_REPRESENTATION ( #168, #1 ) ;
#324 = DIRECTION ( 'NONE',  ( 1.000000000000000000, 0.000000000000000000, 0.000000000000000000 ) ) ;
#325 = ORIENTED_EDGE ( 'NONE', *, *, #49, .T. ) ;
#326 = FACE_OUTER_BOUND ( 'NONE', #155, .T. ) ;
#327 = CIRCLE ( 'NONE', #166, 0.5000000000000004441 ) ;
#328 = DIRECTION ( 'NONE',  ( 1.000000000000000000, 0.000000000000000000, -0.000000000000000000 ) ) ;
#329 = ORIENTED_EDGE ( 'NONE', *, *, #7, .F. ) ;
#330 = CARTESIAN_POINT ( 'NONE',  ( 0.000000000000000000, 0.000000000000000000, 0.000000000000000000 ) ) ;
#331 = CARTESIAN_POINT ( 'NONE',  ( 0.000000000000000000, 0.000000000000000000, 0.000000000000000000 ) ) ;
#332 = CARTESIAN_POINT ( 'NONE',  ( 0.000000000000000000, 0.000000000000000000, 5.000000000000000000 ) ) ;
#333 = UNCERTAINTY_MEASURE_WITH_UNIT (LENGTH_MEASURE( 1.000000000000000082E-05 ), #231, 'distance_accuracy_value', 'NONE');
#334 = CARTESIAN_POINT ( 'NONE',  ( -5.500000000000000000, 6.735557395310442023E-16, 5.000000000000002665 ) ) ;
#335 = ADVANCED_FACE ( 'NONE', ( #42, #221 ), #266, .F. ) ;
#336 = DIRECTION ( 'NONE',  ( -0.000000000000000000, -0.000000000000000000, -1.000000000000000000 ) ) ;
#337 = PRODUCT_DEFINITION_FORMATION_WITH_SPECIFIED_SOURCE ( 'LIBOVOLNÝ', '', #373, .NOT_KNOWN. ) ;
#338 = AXIS2_PLACEMENT_3D ( 'NONE', #198, #306, #223 ) ;
#339 = ADVANCED_FACE ( 'NONE', ( #125 ), #160, .F. ) ;
#340 = DIRECTION ( 'NONE',  ( -0.000000000000000000, -0.000000000000000000, -1.000000000000000000 ) ) ;
#341 = MECHANICAL_CONTEXT ( 'NONE', #362, 'mechanical' ) ;
#342 = CARTESIAN_POINT ( 'NONE',  ( 0.000000000000000000, 0.000000000000000000, 155.0000000000000000 ) ) ;
#343 = ORIENTED_EDGE ( 'NONE', *, *, #49, .F. ) ;
#344 = EDGE_CURVE ( 'NONE', #230, #171, #309, .T. ) ;
#345 = COORDINATED_UNIVERSAL_TIME_OFFSET ( 1, 0, .AHEAD. ) ;
#346 = DIRECTION ( 'NONE',  ( 0.000000000000000000, 0.000000000000000000, 1.000000000000000000 ) ) ;
#347 = AXIS2_PLACEMENT_3D ( 'NONE', #20, #300, #14 ) ;
#348 = CIRCLE ( 'NONE', #271, 8.000000000000000000 ) ;
#349 = PERSON_AND_ORGANIZATION ( #9, #374 ) ;
#350 = EDGE_CURVE ( 'NONE', #159, #145, #130, .T. ) ;
#351 = APPROVAL_ROLE ( '' ) ;
#352 = TOROIDAL_SURFACE ( 'NONE', #211, 5.500000000000000000, 0.5000000000000000000 ) ;
#353 = CARTESIAN_POINT ( 'NONE',  ( 0.000000000000000000, 0.000000000000000000, 0.000000000000000000 ) ) ;
#354 = DATE_TIME_ROLE ( 'classification_date' ) ;
#355 = COORDINATED_UNIVERSAL_TIME_OFFSET ( 1, 0, .AHEAD. ) ;
#356 = DIRECTION ( 'NONE',  ( -0.000000000000000000, -0.000000000000000000, -1.000000000000000000 ) ) ;
#357 = ORIENTED_EDGE ( 'NONE', *, *, #261, .F. ) ;
#358 = EDGE_LOOP ( 'NONE', ( #234, #322, #136, #265 ) ) ;
#359 = EDGE_CURVE ( 'NONE', #232, #11, #189, .T. ) ;
#360 = PLANE ( 'NONE',  #251 ) ;
#361 = ORIENTED_EDGE ( 'NONE', *, *, #156, .F. ) ;
#362 = APPLICATION_CONTEXT ( 'configuration controlled 3d designs of mechanical parts and assemblies' ) ;
#363 = DIRECTION ( 'NONE',  ( -1.000000000000000000, 0.000000000000000000, 0.000000000000000000 ) ) ;
#364 = EDGE_CURVE ( 'NONE', #206, #378, #109, .T. ) ;
#365 = CIRCLE ( 'NONE', #273, 5.000000000000000000 ) ;
#366 = CARTESIAN_POINT ( 'NONE',  ( 5.000000000000000000, 6.123233995736766282E-16, 155.0000000000000000 ) ) ;
#367 = DIRECTION ( 'NONE',  ( -1.000000000000000000, 0.000000000000000000, 0.000000000000000000 ) ) ;
#368 = AXIS2_PLACEMENT_3D ( 'NONE', #282, #27, #111 ) ;
#369 = SECURITY_CLASSIFICATION ( '', '', #175 ) ;
#370 = DIRECTION ( 'NONE',  ( 0.000000000000000000, 0.000000000000000000, -1.000000000000000000 ) ) ;
#371 = ORIENTED_EDGE ( 'NONE', *, *, #248, .T. ) ;
#372 = CARTESIAN_POINT ( 'NONE',  ( 5.500000000000000000, 0.000000000000000000, 5.500000000000005329 ) ) ;
#373 = PRODUCT ( 'ef88', 'ef88', '', ( #341 ) ) ;
#374 = ORGANIZATION ( 'NEURÈENÝ', 'NEURÈENÝ', '' ) ;
#375 = PERSON_AND_ORGANIZATION ( #9, #374 ) ;
#376 = DIRECTION ( 'NONE',  ( 0.000000000000000000, 0.000000000000000000, 1.000000000000000000 ) ) ;
#377 = DATE_AND_TIME ( #318, #229 ) ;
#378 = VERTEX_POINT ( 'NONE', #366 ) ;
#379 = CALENDAR_DATE ( 2022, 10, 7 ) ;
#380 = AXIS2_PLACEMENT_3D ( 'NONE', #253, #13, #105 ) ;
#381 = DIRECTION ( 'NONE',  ( -1.000000000000000000, 0.000000000000000000, 0.000000000000000000 ) ) ;
ENDSEC;
END-ISO-10303-21;
