ISO-10303-21;
HEADER;
FILE_DESCRIPTION (( 'STEP AP203' ),
    '1' );
FILE_NAME ('e778.STEP',
    '2022-07-10T09:19:49',
    ( '' ),
    ( '' ),
    'SwSTEP 2.0',
    'SolidWorks 2019',
    '' );
FILE_SCHEMA (( 'CONFIG_CONTROL_DESIGN' ));
ENDSEC;

DATA;
#1 = DIRECTION ( 'NONE',  ( -0.000000000000000000, -0.000000000000000000, -1.000000000000000000 ) ) ;
#2 = CC_DESIGN_DATE_AND_TIME_ASSIGNMENT ( #148, #302, ( #64 ) ) ;
#3 = VECTOR ( 'NONE', #11, 1000.000000000000000 ) ;
#4 = CARTESIAN_POINT ( 'NONE',  ( -2.299999999999999822, 2.816687638038912056E-16, 2.999999999999998668 ) ) ;
#5 = LOCAL_TIME ( 11, 19, 49.00000000000000000, #55 ) ;
#6 = FACE_OUTER_BOUND ( 'NONE', #71, .T. ) ;
#7 = FACE_OUTER_BOUND ( 'NONE', #193, .T. ) ;
#8 = DIRECTION ( 'NONE',  ( 0.000000000000000000, 0.000000000000000000, -1.000000000000000000 ) ) ;
#9 = CC_DESIGN_APPROVAL ( #34, ( #64 ) ) ;
#10 = ORIENTED_EDGE ( 'NONE', *, *, #92, .F. ) ;
#11 = DIRECTION ( 'NONE',  ( -0.000000000000000000, -0.000000000000000000, -1.000000000000000000 ) ) ;
#12 = EDGE_LOOP ( 'NONE', ( #259, #79, #369, #188 ) ) ;
#13 = DIRECTION ( 'NONE',  ( 1.000000000000000000, 0.000000000000000000, -0.000000000000000000 ) ) ;
#14 = VECTOR ( 'NONE', #360, 1000.000000000000000 ) ;
#15 = VERTEX_POINT ( 'NONE', #141 ) ;
#16 = CARTESIAN_POINT ( 'NONE',  ( -2.000000000000000000, 0.000000000000000000, 128.0000000000000000 ) ) ;
#17 = ORIENTED_EDGE ( 'NONE', *, *, #202, .T. ) ;
#18 = APPROVAL_DATE_TIME ( #166, #24 ) ;
#19 = ORIENTED_EDGE ( 'NONE', *, *, #250, .T. ) ;
#20 = CARTESIAN_POINT ( 'NONE',  ( 0.000000000000000000, 0.000000000000000000, 0.000000000000000000 ) ) ;
#21 = ORIENTED_EDGE ( 'NONE', *, *, #196, .F. ) ;
#22 = AXIS2_PLACEMENT_3D ( 'NONE', #25, #111, #118 ) ;
#23 = DIRECTION ( 'NONE',  ( 1.000000000000000000, 0.000000000000000000, 0.000000000000000000 ) ) ;
#24 = APPROVAL ( #201, 'NEURÈENÝ' ) ;
#25 = CARTESIAN_POINT ( 'NONE',  ( 0.000000000000000000, 0.000000000000000000, 3.299999999999997158 ) ) ;
#26 = PERSON_AND_ORGANIZATION ( #327, #293 ) ;
#27 = DIRECTION ( 'NONE',  ( 0.000000000000000000, 0.000000000000000000, 1.000000000000000000 ) ) ;
#28 = DIRECTION ( 'NONE',  ( 1.000000000000000000, 0.000000000000000000, 0.000000000000000000 ) ) ;
#29 = CIRCLE ( 'NONE', #310, 1.000000000000000000 ) ;
#30 = PERSON_AND_ORGANIZATION_ROLE ( 'classification_officer' ) ;
#31 = PERSON_AND_ORGANIZATION ( #327, #293 ) ;
#32 = DIRECTION ( 'NONE',  ( -1.000000000000000000, 0.000000000000000000, 0.000000000000000000 ) ) ;
#33 = AXIS2_PLACEMENT_3D ( 'NONE', #342, #183, #152 ) ;
#34 = APPROVAL ( #143, 'NEURÈENÝ' ) ;
#35 = DIRECTION ( 'NONE',  ( -1.000000000000000000, 0.000000000000000000, 0.000000000000000000 ) ) ;
#36 = DIRECTION ( 'NONE',  ( -0.000000000000000000, -0.000000000000000000, -1.000000000000000000 ) ) ;
#37 = ORIENTED_EDGE ( 'NONE', *, *, #309, .T. ) ;
#38 = CARTESIAN_POINT ( 'NONE',  ( 0.000000000000000000, 0.000000000000000000, 3.000000000000000000 ) ) ;
#39 = VECTOR ( 'NONE', #8, 1000.000000000000000 ) ;
#40 = CARTESIAN_POINT ( 'NONE',  ( 0.000000000000000000, 0.000000000000000000, 0.000000000000000000 ) ) ;
#41 = EDGE_LOOP ( 'NONE', ( #255, #136 ) ) ;
#42 = LINE ( 'NONE', #16, #3 ) ;
#43 = APPLICATION_CONTEXT ( 'configuration controlled 3d designs of mechanical parts and assemblies' ) ;
#44 = ORIENTED_EDGE ( 'NONE', *, *, #158, .F. ) ;
#45 = AXIS2_PLACEMENT_3D ( 'NONE', #208, #235, #84 ) ;
#46 = ORIENTED_EDGE ( 'NONE', *, *, #172, .T. ) ;
#47 = LOCAL_TIME ( 11, 19, 49.00000000000000000, #197 ) ;
#48 = ORIENTED_EDGE ( 'NONE', *, *, #50, .T. ) ;
#49 = CARTESIAN_POINT ( 'NONE',  ( 0.000000000000000000, 0.000000000000000000, 3.000000000000000000 ) ) ;
#50 = EDGE_CURVE ( 'NONE', #195, #287, #135, .T. ) ;
#51 = ORIENTED_EDGE ( 'NONE', *, *, #177, .T. ) ;
#52 = APPLICATION_PROTOCOL_DEFINITION ( 'international standard', 'config_control_design', 1994, #43 ) ;
#53 = CARTESIAN_POINT ( 'NONE',  ( 0.000000000000000000, 0.000000000000000000, 0.000000000000000000 ) ) ;
#54 = AXIS2_PLACEMENT_3D ( 'NONE', #314, #186, #65 ) ;
#55 = COORDINATED_UNIVERSAL_TIME_OFFSET ( 1, 0, .AHEAD. ) ;
#56 = AXIS2_PLACEMENT_3D ( 'NONE', #154, #373, #213 ) ;
#57 = CARTESIAN_POINT ( 'NONE',  ( 2.299999999999999822, 0.000000000000000000, 3.299999999999997158 ) ) ;
#58 = SECURITY_CLASSIFICATION_LEVEL ( 'unclassified' ) ;
#59 = CC_DESIGN_APPROVAL ( #24, ( #87 ) ) ;
#60 = DIRECTION ( 'NONE',  ( -0.000000000000000000, -0.000000000000000000, -1.000000000000000000 ) ) ;
#61 = DIRECTION ( 'NONE',  ( 0.000000000000000000, 0.000000000000000000, 1.000000000000000000 ) ) ;
#62 = ADVANCED_FACE ( 'NONE', ( #380 ), #185, .F. ) ;
#63 = LINE ( 'NONE', #121, #39 ) ;
#64 = SECURITY_CLASSIFICATION ( '', '', #58 ) ;
#65 = DIRECTION ( 'NONE',  ( 1.000000000000000000, 0.000000000000000000, 0.000000000000000000 ) ) ;
#66 = DIRECTION ( 'NONE',  ( 1.000000000000000000, 0.000000000000000000, 0.000000000000000000 ) ) ;
#67 = AXIS2_PLACEMENT_3D ( 'NONE', #297, #27, #28 ) ;
#68 = CARTESIAN_POINT ( 'NONE',  ( 2.000000000000000000, 2.449293598294706414E-16, 128.0000000000000000 ) ) ;
#69 = EDGE_CURVE ( 'NONE', #339, #157, #381, .T. ) ;
#70 = AXIS2_PLACEMENT_3D ( 'NONE', #278, #99, #66 ) ;
#71 = EDGE_LOOP ( 'NONE', ( #376, #252, #345, #102 ) ) ;
#72 = DIRECTION ( 'NONE',  ( -0.000000000000000000, -0.000000000000000000, -1.000000000000000000 ) ) ;
#73 = ORIENTED_EDGE ( 'NONE', *, *, #123, .T. ) ;
#74 =( LENGTH_UNIT ( ) NAMED_UNIT ( * ) SI_UNIT ( .MILLI., .METRE. ) );
#75 = CIRCLE ( 'NONE', #298, 2.000000000000000000 ) ;
#76 = EDGE_LOOP ( 'NONE', ( #107, #289, #282, #21 ) ) ;
#77 = EDGE_CURVE ( 'NONE', #15, #157, #294, .T. ) ;
#78 = DATE_TIME_ROLE ( 'creation_date' ) ;
#79 = ORIENTED_EDGE ( 'NONE', *, *, #179, .T. ) ;
#80 = CIRCLE ( 'NONE', #364, 1.000000000000000000 ) ;
#81 = PERSON_AND_ORGANIZATION ( #327, #293 ) ;
#82 = VERTEX_POINT ( 'NONE', #91 ) ;
#83 =( NAMED_UNIT ( * ) SI_UNIT ( $, .STERADIAN. ) SOLID_ANGLE_UNIT ( ) );
#84 = DIRECTION ( 'NONE',  ( -1.000000000000000000, 0.000000000000000000, 0.000000000000000000 ) ) ;
#85 = AXIS2_PLACEMENT_3D ( 'NONE', #323, #108, #23 ) ;
#86 = CALENDAR_DATE ( 2022, 10, 7 ) ;
#87 = PRODUCT_DEFINITION ( 'NEZNÁMÝ', '', #351, #283 ) ;
#88 = CIRCLE ( 'NONE', #330, 0.2999999999999999334 ) ;
#89 = LOCAL_TIME ( 11, 19, 49.00000000000000000, #260 ) ;
#90 = CARTESIAN_POINT ( 'NONE',  ( 4.000000000000000000, 4.898587196589412829E-16, 3.000000000000000000 ) ) ;
#91 = CARTESIAN_POINT ( 'NONE',  ( 1.000000000000000000, 1.224646799147353207E-16, 128.0000000000000000 ) ) ;
#92 = EDGE_CURVE ( 'NONE', #374, #105, #316, .T. ) ;
#93 = AXIS2_PLACEMENT_3D ( 'NONE', #53, #61, #168 ) ;
#94 = DIRECTION ( 'NONE',  ( 1.000000000000000000, 0.000000000000000000, 0.000000000000000000 ) ) ;
#95 = DIRECTION ( 'NONE',  ( 1.000000000000000000, 0.000000000000000000, 0.000000000000000000 ) ) ;
#96 = CARTESIAN_POINT ( 'NONE',  ( 0.000000000000000000, 0.000000000000000000, 0.000000000000000000 ) ) ;
#97 = FACE_OUTER_BOUND ( 'NONE', #216, .T. ) ;
#98 = ORIENTED_EDGE ( 'NONE', *, *, #284, .T. ) ;
#99 = DIRECTION ( 'NONE',  ( 0.000000000000000000, 0.000000000000000000, 1.000000000000000000 ) ) ;
#100 = EDGE_LOOP ( 'NONE', ( #313, #221 ) ) ;
#101 = CARTESIAN_POINT ( 'NONE',  ( 0.000000000000000000, 0.000000000000000000, 128.0000000000000000 ) ) ;
#102 = ORIENTED_EDGE ( 'NONE', *, *, #237, .T. ) ;
#103 = DIRECTION ( 'NONE',  ( -0.000000000000000000, -0.000000000000000000, -1.000000000000000000 ) ) ;
#104 = ADVANCED_FACE ( 'NONE', ( #242 ), #137, .F. ) ;
#105 = VERTEX_POINT ( 'NONE', #353 ) ;
#106 = CARTESIAN_POINT ( 'NONE',  ( 2.000000000000000000, 2.449293598294706414E-16, 128.0000000000000000 ) ) ;
#107 = ORIENTED_EDGE ( 'NONE', *, *, #115, .F. ) ;
#108 = DIRECTION ( 'NONE',  ( 0.000000000000000000, 0.000000000000000000, 1.000000000000000000 ) ) ;
#109 = FACE_OUTER_BOUND ( 'NONE', #76, .T. ) ;
#110 = DIRECTION ( 'NONE',  ( 1.000000000000000000, 0.000000000000000000, -0.000000000000000000 ) ) ;
#111 = DIRECTION ( 'NONE',  ( 0.000000000000000000, 0.000000000000000000, 1.000000000000000000 ) ) ;
#112 = ADVANCED_FACE ( 'NONE', ( #6 ), #354, .F. ) ;
#113 = PERSON_AND_ORGANIZATION_ROLE ( 'design_supplier' ) ;
#114 = CARTESIAN_POINT ( 'NONE',  ( 0.000000000000000000, 0.000000000000000000, 128.0000000000000000 ) ) ;
#115 = EDGE_CURVE ( 'NONE', #320, #317, #75, .T. ) ;
#116 = PERSON_AND_ORGANIZATION_ROLE ( 'creator' ) ;
#117 =( GEOMETRIC_REPRESENTATION_CONTEXT ( 3 ) GLOBAL_UNCERTAINTY_ASSIGNED_CONTEXT ( ( #370 ) ) GLOBAL_UNIT_ASSIGNED_CONTEXT ( ( #74, #225, #83 ) ) REPRESENTATION_CONTEXT ( 'NONE', 'WORKASPACE' ) );
#118 = DIRECTION ( 'NONE',  ( 1.000000000000000000, 0.000000000000000000, 0.000000000000000000 ) ) ;
#119 = CARTESIAN_POINT ( 'NONE',  ( 1.000000000000000000, 1.224646799147353207E-16, 0.000000000000000000 ) ) ;
#120 = FACE_BOUND ( 'NONE', #100, .T. ) ;
#121 = CARTESIAN_POINT ( 'NONE',  ( 1.000000000000000000, 1.224646799147353207E-16, 128.0000000000000000 ) ) ;
#122 = APPROVAL_PERSON_ORGANIZATION ( #81, #24, #285 ) ;
#123 = EDGE_CURVE ( 'NONE', #15, #124, #346, .T. ) ;
#124 = VERTEX_POINT ( 'NONE', #335 ) ;
#125 = CARTESIAN_POINT ( 'NONE',  ( 0.000000000000000000, 0.000000000000000000, 3.000000000000000000 ) ) ;
#126 = ORIENTED_EDGE ( 'NONE', *, *, #329, .T. ) ;
#127 = CC_DESIGN_DATE_AND_TIME_ASSIGNMENT ( #258, #78, ( #87 ) ) ;
#128 = FACE_OUTER_BOUND ( 'NONE', #12, .T. ) ;
#129 = EDGE_LOOP ( 'NONE', ( #51, #48 ) ) ;
#130 = DIRECTION ( 'NONE',  ( 1.000000000000000000, 0.000000000000000000, -0.000000000000000000 ) ) ;
#131 = ORIENTED_EDGE ( 'NONE', *, *, #250, .F. ) ;
#132 = FACE_OUTER_BOUND ( 'NONE', #276, .T. ) ;
#133 = VERTEX_POINT ( 'NONE', #333 ) ;
#134 = CALENDAR_DATE ( 2022, 10, 7 ) ;
#135 = CIRCLE ( 'NONE', #358, 2.299999999999999822 ) ;
#136 = ORIENTED_EDGE ( 'NONE', *, *, #69, .F. ) ;
#137 = CYLINDRICAL_SURFACE ( 'NONE', #209, 1.000000000000000000 ) ;
#138 = CIRCLE ( 'NONE', #240, 2.299999999999999822 ) ;
#139 = AXIS2_PLACEMENT_3D ( 'NONE', #20, #344, #170 ) ;
#140 = PERSON_AND_ORGANIZATION_ROLE ( 'design_owner' ) ;
#141 = CARTESIAN_POINT ( 'NONE',  ( -4.000000000000000000, 0.000000000000000000, 3.000000000000000000 ) ) ;
#142 = DIRECTION ( 'NONE',  ( 0.000000000000000000, 0.000000000000000000, -1.000000000000000000 ) ) ;
#143 = APPROVAL_STATUS ( 'not_yet_approved' ) ;
#144 = SHAPE_DEFINITION_REPRESENTATION ( #291, #232 ) ;
#145 = ADVANCED_FACE ( 'NONE', ( #109 ), #165, .T. ) ;
#146 = CALENDAR_DATE ( 2022, 10, 7 ) ;
#147 = DIRECTION ( 'NONE',  ( -0.000000000000000000, -0.000000000000000000, -1.000000000000000000 ) ) ;
#148 = DATE_AND_TIME ( #146, #304 ) ;
#149 = APPROVAL_PERSON_ORGANIZATION ( #31, #34, #268 ) ;
#150 = CARTESIAN_POINT ( 'NONE',  ( -4.000000000000000000, 0.000000000000000000, 3.000000000000000000 ) ) ;
#151 = FACE_OUTER_BOUND ( 'NONE', #41, .T. ) ;
#152 = DIRECTION ( 'NONE',  ( 1.000000000000000000, 0.000000000000000000, 0.000000000000000000 ) ) ;
#153 = VERTEX_POINT ( 'NONE', #119 ) ;
#154 = CARTESIAN_POINT ( 'NONE',  ( -2.299999999999999822, 2.816687638038912056E-16, 3.299999999999997158 ) ) ;
#155 = DIRECTION ( 'NONE',  ( 1.000000000000000000, 0.000000000000000000, 0.000000000000000000 ) ) ;
#156 = PRODUCT ( 'e778', 'e778', '', ( #234 ) ) ;
#157 = VERTEX_POINT ( 'NONE', #290 ) ;
#158 = EDGE_CURVE ( 'NONE', #133, #273, #262, .T. ) ;
#159 = DIRECTION ( 'NONE',  ( -1.000000000000000000, 0.000000000000000000, 0.000000000000000000 ) ) ;
#160 = ORIENTED_EDGE ( 'NONE', *, *, #123, .F. ) ;
#161 = CIRCLE ( 'NONE', #33, 2.000000000000000000 ) ;
#162 = ORIENTED_EDGE ( 'NONE', *, *, #219, .T. ) ;
#163 = PERSON_AND_ORGANIZATION_ROLE ( 'creator' ) ;
#164 = ORIENTED_EDGE ( 'NONE', *, *, #219, .F. ) ;
#165 = CYLINDRICAL_SURFACE ( 'NONE', #261, 2.000000000000000000 ) ;
#166 = DATE_AND_TIME ( #296, #5 ) ;
#167 = CC_DESIGN_PERSON_AND_ORGANIZATION_ASSIGNMENT ( #26, #116, ( #351 ) ) ;
#168 = DIRECTION ( 'NONE',  ( 1.000000000000000000, 0.000000000000000000, 0.000000000000000000 ) ) ;
#169 = AXIS2_PLACEMENT_3D ( 'NONE', #101, #366, #13 ) ;
#170 = DIRECTION ( 'NONE',  ( 1.000000000000000000, 0.000000000000000000, 0.000000000000000000 ) ) ;
#171 = DIRECTION ( 'NONE',  ( 0.000000000000000000, -1.000000000000000000, 0.000000000000000000 ) ) ;
#172 = EDGE_CURVE ( 'NONE', #374, #287, #88, .T. ) ;
#173 = AXIS2_PLACEMENT_3D ( 'NONE', #210, #180, #94 ) ;
#174 = TOROIDAL_SURFACE ( 'NONE', #85, 2.299999999999999822, 0.2999999999999999889 ) ;
#175 = APPROVAL_DATE_TIME ( #299, #34 ) ;
#176 = VECTOR ( 'NONE', #147, 1000.000000000000000 ) ;
#177 = EDGE_CURVE ( 'NONE', #287, #195, #138, .T. ) ;
#178 = CARTESIAN_POINT ( 'NONE',  ( 0.000000000000000000, 0.000000000000000000, 128.0000000000000000 ) ) ;
#179 = EDGE_CURVE ( 'NONE', #124, #339, #359, .T. ) ;
#180 = DIRECTION ( 'NONE',  ( 0.000000000000000000, 0.000000000000000000, 1.000000000000000000 ) ) ;
#181 = CARTESIAN_POINT ( 'NONE',  ( 0.000000000000000000, 0.000000000000000000, 128.0000000000000000 ) ) ;
#182 = MANIFOLD_SOLID_BREP ( 'Odebrat vysunutím3', #334 ) ;
#183 = DIRECTION ( 'NONE',  ( 0.000000000000000000, 0.000000000000000000, 1.000000000000000000 ) ) ;
#184 = ORIENTED_EDGE ( 'NONE', *, *, #312, .T. ) ;
#185 = TOROIDAL_SURFACE ( 'NONE', #22, 2.299999999999999822, 0.2999999999999999889 ) ;
#186 = DIRECTION ( 'NONE',  ( 0.000000000000000000, 0.000000000000000000, 1.000000000000000000 ) ) ;
#187 = CYLINDRICAL_SURFACE ( 'NONE', #272, 2.000000000000000000 ) ;
#188 = ORIENTED_EDGE ( 'NONE', *, *, #77, .F. ) ;
#189 = FACE_OUTER_BOUND ( 'NONE', #198, .T. ) ;
#190 = EDGE_CURVE ( 'NONE', #82, #133, #340, .T. ) ;
#191 = EDGE_LOOP ( 'NONE', ( #164, #10, #46, #249 ) ) ;
#192 = APPLICATION_PROTOCOL_DEFINITION ( 'international standard', 'config_control_design', 1994, #349 ) ;
#193 = EDGE_LOOP ( 'NONE', ( #352, #131, #307, #17 ) ) ;
#194 = APPROVAL_ROLE ( '' ) ;
#195 = VERTEX_POINT ( 'NONE', #4 ) ;
#196 = EDGE_CURVE ( 'NONE', #317, #105, #42, .T. ) ;
#197 = COORDINATED_UNIVERSAL_TIME_OFFSET ( 1, 0, .AHEAD. ) ;
#198 = EDGE_LOOP ( 'NONE', ( #315, #160, #378, #37 ) ) ;
#199 = PERSON_AND_ORGANIZATION ( #327, #293 ) ;
#200 = DIRECTION ( 'NONE',  ( 0.000000000000000000, 0.000000000000000000, -1.000000000000000000 ) ) ;
#201 = APPROVAL_STATUS ( 'not_yet_approved' ) ;
#202 = EDGE_CURVE ( 'NONE', #105, #374, #365, .T. ) ;
#203 = CARTESIAN_POINT ( 'NONE',  ( 0.000000000000000000, 0.000000000000000000, 128.0000000000000000 ) ) ;
#204 = CIRCLE ( 'NONE', #56, 0.2999999999999999334 ) ;
#205 = CIRCLE ( 'NONE', #236, 4.000000000000000000 ) ;
#206 = DIRECTION ( 'NONE',  ( 1.000000000000000000, 0.000000000000000000, 0.000000000000000000 ) ) ;
#207 = PERSON_AND_ORGANIZATION ( #327, #293 ) ;
#208 = CARTESIAN_POINT ( 'NONE',  ( 0.000000000000000000, 0.000000000000000000, 128.0000000000000000 ) ) ;
#209 = AXIS2_PLACEMENT_3D ( 'NONE', #114, #266, #303 ) ;
#210 = CARTESIAN_POINT ( 'NONE',  ( 0.000000000000000000, 0.000000000000000000, 3.000000000000000000 ) ) ;
#211 = ADVANCED_FACE ( 'NONE', ( #246, #151 ), #217, .F. ) ;
#212 = APPROVAL_PERSON_ORGANIZATION ( #265, #241, #194 ) ;
#213 = DIRECTION ( 'NONE',  ( -1.000000000000000000, 1.224646799147353207E-16, 0.000000000000000000 ) ) ;
#214 = CYLINDRICAL_SURFACE ( 'NONE', #355, 4.000000000000000000 ) ;
#215 = DIRECTION ( 'NONE',  ( 1.000000000000000000, 0.000000000000000000, 0.000000000000000000 ) ) ;
#216 = EDGE_LOOP ( 'NONE', ( #19, #372 ) ) ;
#217 = PLANE ( 'NONE',  #245 ) ;
#218 = AXIS2_PLACEMENT_3D ( 'NONE', #40, #371, #95 ) ;
#219 = EDGE_CURVE ( 'NONE', #105, #195, #204, .T. ) ;
#220 = LOCAL_TIME ( 11, 19, 49.00000000000000000, #332 ) ;
#221 = ORIENTED_EDGE ( 'NONE', *, *, #190, .F. ) ;
#222 = DIRECTION ( 'NONE',  ( -1.000000000000000000, 0.000000000000000000, 0.000000000000000000 ) ) ;
#223 = ORIENTED_EDGE ( 'NONE', *, *, #172, .F. ) ;
#224 = VECTOR ( 'NONE', #200, 1000.000000000000000 ) ;
#225 =( NAMED_UNIT ( * ) PLANE_ANGLE_UNIT ( ) SI_UNIT ( $, .RADIAN. ) );
#226 = ORIENTED_EDGE ( 'NONE', *, *, #264, .T. ) ;
#227 = PLANE ( 'NONE',  #319 ) ;
#228 = CC_DESIGN_SECURITY_CLASSIFICATION ( #64, ( #351 ) ) ;
#229 = ORIENTED_EDGE ( 'NONE', *, *, #284, .F. ) ;
#230 = AXIS2_PLACEMENT_3D ( 'NONE', #178, #301, #271 ) ;
#231 = CC_DESIGN_PERSON_AND_ORGANIZATION_ASSIGNMENT ( #199, #140, ( #156 ) ) ;
#232 = ADVANCED_BREP_SHAPE_REPRESENTATION ( 'e778', ( #182, #139 ), #117 ) ;
#233 = CC_DESIGN_PERSON_AND_ORGANIZATION_ASSIGNMENT ( #238, #30, ( #64 ) ) ;
#234 = MECHANICAL_CONTEXT ( 'NONE', #43, 'mechanical' ) ;
#235 = DIRECTION ( 'NONE',  ( 0.000000000000000000, 0.000000000000000000, -1.000000000000000000 ) ) ;
#236 = AXIS2_PLACEMENT_3D ( 'NONE', #275, #251, #215 ) ;
#237 = EDGE_CURVE ( 'NONE', #273, #153, #277, .T. ) ;
#238 = PERSON_AND_ORGANIZATION ( #327, #293 ) ;
#239 = DIRECTION ( 'NONE',  ( 1.000000000000000000, 0.000000000000000000, 0.000000000000000000 ) ) ;
#240 = AXIS2_PLACEMENT_3D ( 'NONE', #267, #1, #239 ) ;
#241 = APPROVAL ( #288, 'NEURÈENÝ' ) ;
#242 = FACE_OUTER_BOUND ( 'NONE', #281, .T. ) ;
#243 = DIRECTION ( 'NONE',  ( -0.000000000000000000, -0.000000000000000000, -1.000000000000000000 ) ) ;
#244 = CARTESIAN_POINT ( 'NONE',  ( 0.000000000000000000, 0.000000000000000000, 128.0000000000000000 ) ) ;
#245 = AXIS2_PLACEMENT_3D ( 'NONE', #96, #337, #130 ) ;
#246 = FACE_BOUND ( 'NONE', #322, .T. ) ;
#247 = ADVANCED_FACE ( 'NONE', ( #189 ), #336, .T. ) ;
#248 = DIRECTION ( 'NONE',  ( 1.000000000000000000, 0.000000000000000000, 0.000000000000000000 ) ) ;
#249 = ORIENTED_EDGE ( 'NONE', *, *, #50, .F. ) ;
#250 = EDGE_CURVE ( 'NONE', #317, #320, #161, .T. ) ;
#251 = DIRECTION ( 'NONE',  ( 0.000000000000000000, 0.000000000000000000, 1.000000000000000000 ) ) ;
#252 = ORIENTED_EDGE ( 'NONE', *, *, #190, .T. ) ;
#253 = DIRECTION ( 'NONE',  ( -0.000000000000000000, -0.000000000000000000, -1.000000000000000000 ) ) ;
#254 = VECTOR ( 'NONE', #103, 1000.000000000000000 ) ;
#255 = ORIENTED_EDGE ( 'NONE', *, *, #309, .F. ) ;
#256 = DIRECTION ( 'NONE',  ( 0.000000000000000000, 0.000000000000000000, 1.000000000000000000 ) ) ;
#257 = ORIENTED_EDGE ( 'NONE', *, *, #177, .F. ) ;
#258 = DATE_AND_TIME ( #134, #89 ) ;
#259 = ORIENTED_EDGE ( 'NONE', *, *, #264, .F. ) ;
#260 = COORDINATED_UNIVERSAL_TIME_OFFSET ( 1, 0, .AHEAD. ) ;
#261 = AXIS2_PLACEMENT_3D ( 'NONE', #325, #60, #32 ) ;
#262 = LINE ( 'NONE', #379, #224 ) ;
#263 = CC_DESIGN_PERSON_AND_ORGANIZATION_ASSIGNMENT ( #207, #113, ( #351 ) ) ;
#264 = EDGE_CURVE ( 'NONE', #124, #15, #286, .T. ) ;
#265 = PERSON_AND_ORGANIZATION ( #327, #293 ) ;
#266 = DIRECTION ( 'NONE',  ( 0.000000000000000000, 0.000000000000000000, -1.000000000000000000 ) ) ;
#267 = CARTESIAN_POINT ( 'NONE',  ( 0.000000000000000000, 0.000000000000000000, 3.000000000000000000 ) ) ;
#268 = APPROVAL_ROLE ( '' ) ;
#269 = CC_DESIGN_APPROVAL ( #241, ( #351 ) ) ;
#270 = CC_DESIGN_PERSON_AND_ORGANIZATION_ASSIGNMENT ( #321, #163, ( #87 ) ) ;
#271 = DIRECTION ( 'NONE',  ( 1.000000000000000000, 0.000000000000000000, 0.000000000000000000 ) ) ;
#272 = AXIS2_PLACEMENT_3D ( 'NONE', #244, #72, #159 ) ;
#273 = VERTEX_POINT ( 'NONE', #305 ) ;
#274 = CARTESIAN_POINT ( 'NONE',  ( 0.000000000000000000, 0.000000000000000000, 0.000000000000000000 ) ) ;
#275 = CARTESIAN_POINT ( 'NONE',  ( 0.000000000000000000, 0.000000000000000000, 0.000000000000000000 ) ) ;
#276 = EDGE_LOOP ( 'NONE', ( #73, #226 ) ) ;
#277 = CIRCLE ( 'NONE', #218, 1.000000000000000000 ) ;
#278 = CARTESIAN_POINT ( 'NONE',  ( 0.000000000000000000, 0.000000000000000000, 3.299999999999997158 ) ) ;
#279 = ORIENTED_EDGE ( 'NONE', *, *, #237, .F. ) ;
#280 = CARTESIAN_POINT ( 'NONE',  ( 4.000000000000000000, 4.898587196589412829E-16, 0.000000000000000000 ) ) ;
#281 = EDGE_LOOP ( 'NONE', ( #126, #184, #98, #44 ) ) ;
#282 = ORIENTED_EDGE ( 'NONE', *, *, #92, .T. ) ;
#283 = DESIGN_CONTEXT ( 'detailed design', #349, 'design' ) ;
#284 = EDGE_CURVE ( 'NONE', #153, #273, #80, .T. ) ;
#285 = APPROVAL_ROLE ( '' ) ;
#286 = CIRCLE ( 'NONE', #54, 4.000000000000000000 ) ;
#287 = VERTEX_POINT ( 'NONE', #306 ) ;
#288 = APPROVAL_STATUS ( 'not_yet_approved' ) ;
#289 = ORIENTED_EDGE ( 'NONE', *, *, #357, .T. ) ;
#290 = CARTESIAN_POINT ( 'NONE',  ( -4.000000000000000000, 0.000000000000000000, 0.000000000000000000 ) ) ;
#291 = PRODUCT_DEFINITION_SHAPE ( 'NONE', 'NONE',  #87 ) ;
#292 = APPROVAL_DATE_TIME ( #377, #241 ) ;
#293 = ORGANIZATION ( 'NEURÈENÝ', 'NEURÈENÝ', '' ) ;
#294 = LINE ( 'NONE', #150, #14 ) ;
#295 = ADVANCED_FACE ( 'NONE', ( #128 ), #214, .T. ) ;
#296 = CALENDAR_DATE ( 2022, 10, 7 ) ;
#297 = CARTESIAN_POINT ( 'NONE',  ( 0.000000000000000000, 0.000000000000000000, 3.299999999999997158 ) ) ;
#298 = AXIS2_PLACEMENT_3D ( 'NONE', #203, #361, #331 ) ;
#299 = DATE_AND_TIME ( #86, #220 ) ;
#300 = ADVANCED_FACE ( 'NONE', ( #120, #97 ), #368, .T. ) ;
#301 = DIRECTION ( 'NONE',  ( 0.000000000000000000, 0.000000000000000000, 1.000000000000000000 ) ) ;
#302 = DATE_TIME_ROLE ( 'classification_date' ) ;
#303 = DIRECTION ( 'NONE',  ( -1.000000000000000000, 0.000000000000000000, 0.000000000000000000 ) ) ;
#304 = LOCAL_TIME ( 11, 19, 49.00000000000000000, #326 ) ;
#305 = CARTESIAN_POINT ( 'NONE',  ( -1.000000000000000000, 0.000000000000000000, 0.000000000000000000 ) ) ;
#306 = CARTESIAN_POINT ( 'NONE',  ( 2.299999999999999822, 0.000000000000000000, 2.999999999999998668 ) ) ;
#307 = ORIENTED_EDGE ( 'NONE', *, *, #196, .T. ) ;
#308 = DIRECTION ( 'NONE',  ( -0.000000000000000000, -0.000000000000000000, -1.000000000000000000 ) ) ;
#309 = EDGE_CURVE ( 'NONE', #157, #339, #205, .T. ) ;
#310 = AXIS2_PLACEMENT_3D ( 'NONE', #181, #311, #155 ) ;
#311 = DIRECTION ( 'NONE',  ( 0.000000000000000000, 0.000000000000000000, 1.000000000000000000 ) ) ;
#312 = EDGE_CURVE ( 'NONE', #82, #153, #63, .T. ) ;
#313 = ORIENTED_EDGE ( 'NONE', *, *, #329, .F. ) ;
#314 = CARTESIAN_POINT ( 'NONE',  ( 0.000000000000000000, 0.000000000000000000, 3.000000000000000000 ) ) ;
#315 = ORIENTED_EDGE ( 'NONE', *, *, #179, .F. ) ;
#316 = CIRCLE ( 'NONE', #67, 2.000000000000000000 ) ;
#317 = VERTEX_POINT ( 'NONE', #338 ) ;
#318 = CALENDAR_DATE ( 2022, 10, 7 ) ;
#319 = AXIS2_PLACEMENT_3D ( 'NONE', #49, #256, #110 ) ;
#320 = VERTEX_POINT ( 'NONE', #68 ) ;
#321 = PERSON_AND_ORGANIZATION ( #327, #293 ) ;
#322 = EDGE_LOOP ( 'NONE', ( #279, #229 ) ) ;
#323 = CARTESIAN_POINT ( 'NONE',  ( 0.000000000000000000, 0.000000000000000000, 3.299999999999997158 ) ) ;
#324 = CARTESIAN_POINT ( 'NONE',  ( 0.000000000000000000, 0.000000000000000000, 3.000000000000000000 ) ) ;
#325 = CARTESIAN_POINT ( 'NONE',  ( 0.000000000000000000, 0.000000000000000000, 128.0000000000000000 ) ) ;
#326 = COORDINATED_UNIVERSAL_TIME_OFFSET ( 1, 0, .AHEAD. ) ;
#327 = PERSON ( 'NEURÈENÝ', 'NEURÈENÝ', 'NEURÈENÝ', ('NEURÈENÝ'), ('NEURÈENÝ'), ('NEURÈENÝ') ) ;
#328 = ADVANCED_FACE ( 'NONE', ( #7 ), #187, .T. ) ;
#329 = EDGE_CURVE ( 'NONE', #133, #82, #29, .T. ) ;
#330 = AXIS2_PLACEMENT_3D ( 'NONE', #57, #171, #142 ) ;
#331 = DIRECTION ( 'NONE',  ( 1.000000000000000000, 0.000000000000000000, 0.000000000000000000 ) ) ;
#332 = COORDINATED_UNIVERSAL_TIME_OFFSET ( 1, 0, .AHEAD. ) ;
#333 = CARTESIAN_POINT ( 'NONE',  ( -1.000000000000000000, 0.000000000000000000, 128.0000000000000000 ) ) ;
#334 = CLOSED_SHELL ( 'NONE', ( #104, #62, #145, #295, #247, #363, #211, #328, #300, #367, #112 ) ) ;
#335 = CARTESIAN_POINT ( 'NONE',  ( 4.000000000000000000, 4.898587196589412829E-16, 3.000000000000000000 ) ) ;
#336 = CYLINDRICAL_SURFACE ( 'NONE', #341, 4.000000000000000000 ) ;
#337 = DIRECTION ( 'NONE',  ( 0.000000000000000000, 0.000000000000000000, 1.000000000000000000 ) ) ;
#338 = CARTESIAN_POINT ( 'NONE',  ( -2.000000000000000000, 0.000000000000000000, 128.0000000000000000 ) ) ;
#339 = VERTEX_POINT ( 'NONE', #280 ) ;
#340 = CIRCLE ( 'NONE', #230, 1.000000000000000000 ) ;
#341 = AXIS2_PLACEMENT_3D ( 'NONE', #125, #36, #222 ) ;
#342 = CARTESIAN_POINT ( 'NONE',  ( 0.000000000000000000, 0.000000000000000000, 128.0000000000000000 ) ) ;
#343 = EDGE_LOOP ( 'NONE', ( #348, #162, #257, #223 ) ) ;
#344 = DIRECTION ( 'NONE',  ( 0.000000000000000000, 0.000000000000000000, 1.000000000000000000 ) ) ;
#345 = ORIENTED_EDGE ( 'NONE', *, *, #158, .T. ) ;
#346 = CIRCLE ( 'NONE', #173, 4.000000000000000000 ) ;
#347 = FACE_BOUND ( 'NONE', #129, .T. ) ;
#348 = ORIENTED_EDGE ( 'NONE', *, *, #202, .F. ) ;
#349 = APPLICATION_CONTEXT ( 'configuration controlled 3d designs of mechanical parts and assemblies' ) ;
#350 = FACE_OUTER_BOUND ( 'NONE', #191, .T. ) ;
#351 = PRODUCT_DEFINITION_FORMATION_WITH_SPECIFIED_SOURCE ( 'LIBOVOLNÝ', '', #156, .NOT_KNOWN. ) ;
#352 = ORIENTED_EDGE ( 'NONE', *, *, #357, .F. ) ;
#353 = CARTESIAN_POINT ( 'NONE',  ( -2.000000000000000000, 0.000000000000000000, 3.299999999999997158 ) ) ;
#354 = CYLINDRICAL_SURFACE ( 'NONE', #45, 1.000000000000000000 ) ;
#355 = AXIS2_PLACEMENT_3D ( 'NONE', #38, #253, #35 ) ;
#356 = PRODUCT_RELATED_PRODUCT_CATEGORY ( 'detail', '', ( #156 ) ) ;
#357 = EDGE_CURVE ( 'NONE', #320, #374, #362, .T. ) ;
#358 = AXIS2_PLACEMENT_3D ( 'NONE', #324, #243, #206 ) ;
#359 = LINE ( 'NONE', #90, #176 ) ;
#360 = DIRECTION ( 'NONE',  ( -0.000000000000000000, -0.000000000000000000, -1.000000000000000000 ) ) ;
#361 = DIRECTION ( 'NONE',  ( 0.000000000000000000, 0.000000000000000000, 1.000000000000000000 ) ) ;
#362 = LINE ( 'NONE', #106, #254 ) ;
#363 = ADVANCED_FACE ( 'NONE', ( #347, #132 ), #227, .T. ) ;
#364 = AXIS2_PLACEMENT_3D ( 'NONE', #274, #308, #248 ) ;
#365 = CIRCLE ( 'NONE', #70, 2.000000000000000000 ) ;
#366 = DIRECTION ( 'NONE',  ( 0.000000000000000000, 0.000000000000000000, 1.000000000000000000 ) ) ;
#367 = ADVANCED_FACE ( 'NONE', ( #350 ), #174, .F. ) ;
#368 = PLANE ( 'NONE',  #169 ) ;
#369 = ORIENTED_EDGE ( 'NONE', *, *, #69, .T. ) ;
#370 = UNCERTAINTY_MEASURE_WITH_UNIT (LENGTH_MEASURE( 1.000000000000000082E-05 ), #74, 'distance_accuracy_value', 'NONE');
#371 = DIRECTION ( 'NONE',  ( -0.000000000000000000, -0.000000000000000000, -1.000000000000000000 ) ) ;
#372 = ORIENTED_EDGE ( 'NONE', *, *, #115, .T. ) ;
#373 = DIRECTION ( 'NONE',  ( 1.224646799147353207E-16, 1.000000000000000000, -0.000000000000000000 ) ) ;
#374 = VERTEX_POINT ( 'NONE', #375 ) ;
#375 = CARTESIAN_POINT ( 'NONE',  ( 2.000000000000000000, 2.449293598294706414E-16, 3.299999999999997158 ) ) ;
#376 = ORIENTED_EDGE ( 'NONE', *, *, #312, .F. ) ;
#377 = DATE_AND_TIME ( #318, #47 ) ;
#378 = ORIENTED_EDGE ( 'NONE', *, *, #77, .T. ) ;
#379 = CARTESIAN_POINT ( 'NONE',  ( -1.000000000000000000, 0.000000000000000000, 128.0000000000000000 ) ) ;
#380 = FACE_OUTER_BOUND ( 'NONE', #343, .T. ) ;
#381 = CIRCLE ( 'NONE', #93, 4.000000000000000000 ) ;
ENDSEC;
END-ISO-10303-21;
