ISO-10303-21;
HEADER;
FILE_DESCRIPTION (( 'STEP AP203' ),
    '1' );
FILE_NAME ('1b49.STEP',
    '2022-07-10T08:59:47',
    ( '' ),
    ( '' ),
    'SwSTEP 2.0',
    'SolidWorks 2019',
    '' );
FILE_SCHEMA (( 'CONFIG_CONTROL_DESIGN' ));
ENDSEC;

DATA;
#1 = DIRECTION ( 'NONE',  ( 0.000000000000000000, 0.000000000000000000, 1.000000000000000000 ) ) ;
#2 = UNCERTAINTY_MEASURE_WITH_UNIT (LENGTH_MEASURE( 1.000000000000000082E-05 ), #368, 'distance_accuracy_value', 'NONE');
#3 = VERTEX_POINT ( 'NONE', #87 ) ;
#4 = CARTESIAN_POINT ( 'NONE',  ( 0.000000000000000000, 0.000000000000000000, 7.700000000000012612 ) ) ;
#5 = EDGE_LOOP ( 'NONE', ( #219, #204, #73, #350 ) ) ;
#6 = CC_DESIGN_SECURITY_CLASSIFICATION ( #26, ( #328 ) ) ;
#7 = DIRECTION ( 'NONE',  ( -1.000000000000000000, 0.000000000000000000, 0.000000000000000000 ) ) ;
#8 = ADVANCED_FACE ( 'NONE', ( #48 ), #194, .F. ) ;
#9 = ORIENTED_EDGE ( 'NONE', *, *, #132, .T. ) ;
#10 = DIRECTION ( 'NONE',  ( -0.000000000000000000, -0.000000000000000000, -1.000000000000000000 ) ) ;
#11 = FACE_OUTER_BOUND ( 'NONE', #5, .T. ) ;
#12 = ORGANIZATION ( 'NEURÈENÝ', 'NEURÈENÝ', '' ) ;
#13 = DIRECTION ( 'NONE',  ( -0.000000000000000000, -0.000000000000000000, -1.000000000000000000 ) ) ;
#14 = EDGE_LOOP ( 'NONE', ( #298, #37 ) ) ;
#15 = ADVANCED_FACE ( 'NONE', ( #210 ), #366, .T. ) ;
#16 = DIRECTION ( 'NONE',  ( -0.000000000000000000, -0.000000000000000000, -1.000000000000000000 ) ) ;
#17 = AXIS2_PLACEMENT_3D ( 'NONE', #76, #163, #95 ) ;
#18 = DIRECTION ( 'NONE',  ( 1.000000000000000000, 0.000000000000000000, 0.000000000000000000 ) ) ;
#19 = DIRECTION ( 'NONE',  ( 0.000000000000000000, 0.000000000000000000, 1.000000000000000000 ) ) ;
#20 = CARTESIAN_POINT ( 'NONE',  ( 6.000000000000000888, 7.347880794884119736E-16, 167.0000000000000000 ) ) ;
#21 = DIRECTION ( 'NONE',  ( 0.000000000000000000, 0.000000000000000000, -1.000000000000000000 ) ) ;
#22 = ORIENTED_EDGE ( 'NONE', *, *, #213, .F. ) ;
#23 = EDGE_CURVE ( 'NONE', #145, #122, #128, .T. ) ;
#24 = APPROVAL_ROLE ( '' ) ;
#25 = CARTESIAN_POINT ( 'NONE',  ( 0.000000000000000000, 0.000000000000000000, 0.000000000000000000 ) ) ;
#26 = SECURITY_CLASSIFICATION ( '', '', #112 ) ;
#27 = COORDINATED_UNIVERSAL_TIME_OFFSET ( 1, 0, .AHEAD. ) ;
#28 = CIRCLE ( 'NONE', #82, 8.000000000000000000 ) ;
#29 = DATE_AND_TIME ( #282, #153 ) ;
#30 = EDGE_CURVE ( 'NONE', #101, #159, #65, .T. ) ;
#31 = APPLICATION_CONTEXT ( 'configuration controlled 3d designs of mechanical parts and assemblies' ) ;
#32 = DIRECTION ( 'NONE',  ( 1.000000000000000000, 0.000000000000000000, 0.000000000000000000 ) ) ;
#33 = ORIENTED_EDGE ( 'NONE', *, *, #57, .T. ) ;
#34 = DATE_AND_TIME ( #136, #162 ) ;
#35 = ORIENTED_EDGE ( 'NONE', *, *, #176, .T. ) ;
#36 = LINE ( 'NONE', #331, #245 ) ;
#37 = ORIENTED_EDGE ( 'NONE', *, *, #156, .F. ) ;
#38 = CALENDAR_DATE ( 2022, 10, 7 ) ;
#39 = CARTESIAN_POINT ( 'NONE',  ( 6.000000000000000888, 7.347880794884119736E-16, 167.0000000000000000 ) ) ;
#40 = DATE_AND_TIME ( #38, #109 ) ;
#41 = AXIS2_PLACEMENT_3D ( 'NONE', #237, #13, #365 ) ;
#42 = FACE_OUTER_BOUND ( 'NONE', #189, .T. ) ;
#43 = ORIENTED_EDGE ( 'NONE', *, *, #30, .F. ) ;
#44 = AXIS2_PLACEMENT_3D ( 'NONE', #181, #78, #343 ) ;
#45 = CYLINDRICAL_SURFACE ( 'NONE', #360, 8.000000000000000000 ) ;
#46 = APPLICATION_CONTEXT ( 'configuration controlled 3d designs of mechanical parts and assemblies' ) ;
#47 = CIRCLE ( 'NONE', #249, 8.699999999999999289 ) ;
#48 = FACE_OUTER_BOUND ( 'NONE', #261, .T. ) ;
#49 = DIRECTION ( 'NONE',  ( 1.000000000000000000, 0.000000000000000000, 0.000000000000000000 ) ) ;
#50 = AXIS2_PLACEMENT_3D ( 'NONE', #160, #258, #190 ) ;
#51 = CARTESIAN_POINT ( 'NONE',  ( 8.000000000000000000, 9.797174393178825657E-16, 7.700000000000012612 ) ) ;
#52 = VERTEX_POINT ( 'NONE', #51 ) ;
#53 = PRODUCT ( '1b49', '1b49', '', ( #286 ) ) ;
#54 = CALENDAR_DATE ( 2022, 10, 7 ) ;
#55 = CIRCLE ( 'NONE', #315, 11.00000000000000000 ) ;
#56 = CC_DESIGN_DATE_AND_TIME_ASSIGNMENT ( #29, #351, ( #357 ) ) ;
#57 = EDGE_CURVE ( 'NONE', #354, #171, #332, .T. ) ;
#58 = CARTESIAN_POINT ( 'NONE',  ( 6.000000000000000888, 7.347880794884119736E-16, 0.000000000000000000 ) ) ;
#59 = EDGE_LOOP ( 'NONE', ( #99, #363, #248, #200 ) ) ;
#60 = APPLICATION_PROTOCOL_DEFINITION ( 'international standard', 'config_control_design', 1994, #46 ) ;
#61 = CARTESIAN_POINT ( 'NONE',  ( -11.00000000000000000, 0.000000000000000000, 0.000000000000000000 ) ) ;
#62 = FACE_BOUND ( 'NONE', #69, .T. ) ;
#63 = ADVANCED_FACE ( 'NONE', ( #135 ), #45, .T. ) ;
#64 = ORIENTED_EDGE ( 'NONE', *, *, #170, .T. ) ;
#65 = CIRCLE ( 'NONE', #207, 8.000000000000000000 ) ;
#66 = DIRECTION ( 'NONE',  ( 0.000000000000000000, 0.000000000000000000, 1.000000000000000000 ) ) ;
#67 = VERTEX_POINT ( 'NONE', #269 ) ;
#68 = CARTESIAN_POINT ( 'NONE',  ( 0.000000000000000000, 0.000000000000000000, 167.0000000000000000 ) ) ;
#69 = EDGE_LOOP ( 'NONE', ( #64, #323 ) ) ;
#70 = LOCAL_TIME ( 10, 59, 47.00000000000000000, #345 ) ;
#71 = AXIS2_PLACEMENT_3D ( 'NONE', #83, #133, #279 ) ;
#72 = DIRECTION ( 'NONE',  ( 1.224646799147353207E-16, 1.000000000000000000, -0.000000000000000000 ) ) ;
#73 = ORIENTED_EDGE ( 'NONE', *, *, #322, .T. ) ;
#74 = DIRECTION ( 'NONE',  ( -1.000000000000000000, 0.000000000000000000, 0.000000000000000000 ) ) ;
#75 = ADVANCED_FACE ( 'NONE', ( #11 ), #239, .F. ) ;
#76 = CARTESIAN_POINT ( 'NONE',  ( 0.000000000000000000, 0.000000000000000000, 167.0000000000000000 ) ) ;
#77 = LINE ( 'NONE', #247, #290 ) ;
#78 = DIRECTION ( 'NONE',  ( -0.000000000000000000, -0.000000000000000000, -1.000000000000000000 ) ) ;
#79 = CIRCLE ( 'NONE', #342, 6.000000000000000888 ) ;
#80 = CARTESIAN_POINT ( 'NONE',  ( 0.000000000000000000, 0.000000000000000000, 0.000000000000000000 ) ) ;
#81 = ADVANCED_FACE ( 'NONE', ( #62, #116 ), #284, .T. ) ;
#82 = AXIS2_PLACEMENT_3D ( 'NONE', #198, #353, #319 ) ;
#83 = CARTESIAN_POINT ( 'NONE',  ( 0.000000000000000000, 0.000000000000000000, 167.0000000000000000 ) ) ;
#84 = CC_DESIGN_DATE_AND_TIME_ASSIGNMENT ( #114, #346, ( #26 ) ) ;
#85 = TOROIDAL_SURFACE ( 'NONE', #335, 8.699999999999999289, 0.6999999999999999556 ) ;
#86 = CARTESIAN_POINT ( 'NONE',  ( -11.00000000000000000, 0.000000000000000000, 7.000000000000000000 ) ) ;
#87 = CARTESIAN_POINT ( 'NONE',  ( -6.000000000000000888, 0.000000000000000000, 0.000000000000000000 ) ) ;
#88 = CC_DESIGN_PERSON_AND_ORGANIZATION_ASSIGNMENT ( #348, #317, ( #357 ) ) ;
#89 = APPROVAL_DATE_TIME ( #34, #309 ) ;
#90 = DIRECTION ( 'NONE',  ( 0.000000000000000000, -1.000000000000000000, 0.000000000000000000 ) ) ;
#91 = AXIS2_PLACEMENT_3D ( 'NONE', #271, #106, #74 ) ;
#92 = DATE_AND_TIME ( #54, #256 ) ;
#93 = DIRECTION ( 'NONE',  ( 0.000000000000000000, 0.000000000000000000, -1.000000000000000000 ) ) ;
#94 = PERSON_AND_ORGANIZATION ( #199, #12 ) ;
#95 = DIRECTION ( 'NONE',  ( -1.000000000000000000, 0.000000000000000000, 0.000000000000000000 ) ) ;
#96 = EDGE_LOOP ( 'NONE', ( #318, #152 ) ) ;
#97 = CARTESIAN_POINT ( 'NONE',  ( 0.000000000000000000, 0.000000000000000000, 7.000000000000000000 ) ) ;
#98 = EDGE_CURVE ( 'NONE', #159, #101, #28, .T. ) ;
#99 = ORIENTED_EDGE ( 'NONE', *, *, #98, .F. ) ;
#100 = DIRECTION ( 'NONE',  ( -1.000000000000000000, 1.224646799147353207E-16, 0.000000000000000000 ) ) ;
#101 = VERTEX_POINT ( 'NONE', #251 ) ;
#102 = ORIENTED_EDGE ( 'NONE', *, *, #303, .T. ) ;
#103 = EDGE_CURVE ( 'NONE', #52, #296, #338, .T. ) ;
#104 = ORIENTED_EDGE ( 'NONE', *, *, #292, .F. ) ;
#105 = CIRCLE ( 'NONE', #230, 8.000000000000000000 ) ;
#106 = DIRECTION ( 'NONE',  ( -0.000000000000000000, -0.000000000000000000, -1.000000000000000000 ) ) ;
#107 = PLANE ( 'NONE',  #203 ) ;
#108 = CARTESIAN_POINT ( 'NONE',  ( 0.000000000000000000, 0.000000000000000000, 7.700000000000012612 ) ) ;
#109 = LOCAL_TIME ( 10, 59, 47.00000000000000000, #232 ) ;
#110 = CIRCLE ( 'NONE', #300, 6.000000000000000888 ) ;
#111 = DIRECTION ( 'NONE',  ( -0.000000000000000000, -0.000000000000000000, -1.000000000000000000 ) ) ;
#112 = SECURITY_CLASSIFICATION_LEVEL ( 'unclassified' ) ;
#113 = CARTESIAN_POINT ( 'NONE',  ( 0.000000000000000000, 0.000000000000000000, 7.700000000000012612 ) ) ;
#114 = DATE_AND_TIME ( #252, #70 ) ;
#115 = APPROVAL_DATE_TIME ( #92, #192 ) ;
#116 = FACE_OUTER_BOUND ( 'NONE', #288, .T. ) ;
#117 = VECTOR ( 'NONE', #21, 1000.000000000000000 ) ;
#118 = CC_DESIGN_PERSON_AND_ORGANIZATION_ASSIGNMENT ( #139, #374, ( #328 ) ) ;
#119 = VERTEX_POINT ( 'NONE', #281 ) ;
#120 = CARTESIAN_POINT ( 'NONE',  ( -6.000000000000000888, 0.000000000000000000, 167.0000000000000000 ) ) ;
#121 = ORIENTED_EDGE ( 'NONE', *, *, #23, .T. ) ;
#122 = VERTEX_POINT ( 'NONE', #61 ) ;
#123 = DIRECTION ( 'NONE',  ( 1.000000000000000000, 0.000000000000000000, 0.000000000000000000 ) ) ;
#124 = EDGE_CURVE ( 'NONE', #52, #67, #215, .T. ) ;
#125 = DIRECTION ( 'NONE',  ( -1.000000000000000000, 0.000000000000000000, 0.000000000000000000 ) ) ;
#126 = DIRECTION ( 'NONE',  ( 1.000000000000000000, 0.000000000000000000, 0.000000000000000000 ) ) ;
#127 = AXIS2_PLACEMENT_3D ( 'NONE', #80, #19, #274 ) ;
#128 = LINE ( 'NONE', #86, #142 ) ;
#129 = VERTEX_POINT ( 'NONE', #58 ) ;
#130 = AXIS2_PLACEMENT_3D ( 'NONE', #113, #228, #191 ) ;
#131 = CIRCLE ( 'NONE', #262, 11.00000000000000000 ) ;
#132 = EDGE_CURVE ( 'NONE', #122, #171, #131, .T. ) ;
#133 = DIRECTION ( 'NONE',  ( 0.000000000000000000, 0.000000000000000000, -1.000000000000000000 ) ) ;
#134 = ADVANCED_BREP_SHAPE_REPRESENTATION ( '1b49', ( #186, #50 ), #264 ) ;
#135 = FACE_OUTER_BOUND ( 'NONE', #59, .T. ) ;
#136 = CALENDAR_DATE ( 2022, 10, 7 ) ;
#137 = APPROVAL_STATUS ( 'not_yet_approved' ) ;
#138 = CARTESIAN_POINT ( 'NONE',  ( 0.000000000000000000, 0.000000000000000000, 167.0000000000000000 ) ) ;
#139 = PERSON_AND_ORGANIZATION ( #199, #12 ) ;
#140 = LINE ( 'NONE', #120, #202 ) ;
#141 = ORIENTED_EDGE ( 'NONE', *, *, #240, .T. ) ;
#142 = VECTOR ( 'NONE', #334, 1000.000000000000000 ) ;
#143 = DIRECTION ( 'NONE',  ( 0.000000000000000000, 0.000000000000000000, 1.000000000000000000 ) ) ;
#144 = DIRECTION ( 'NONE',  ( -0.000000000000000000, -0.000000000000000000, -1.000000000000000000 ) ) ;
#145 = VERTEX_POINT ( 'NONE', #165 ) ;
#146 = PRODUCT_RELATED_PRODUCT_CATEGORY ( 'detail', '', ( #53 ) ) ;
#147 = CARTESIAN_POINT ( 'NONE',  ( 0.000000000000000000, 0.000000000000000000, 167.0000000000000000 ) ) ;
#148 = EDGE_LOOP ( 'NONE', ( #175, #358, #121, #9 ) ) ;
#149 = CC_DESIGN_PERSON_AND_ORGANIZATION_ASSIGNMENT ( #376, #220, ( #26 ) ) ;
#150 = CARTESIAN_POINT ( 'NONE',  ( 11.00000000000000000, 1.347111479062088405E-15, 7.000000000000000000 ) ) ;
#151 = DIRECTION ( 'NONE',  ( 1.000000000000000000, 0.000000000000000000, 0.000000000000000000 ) ) ;
#152 = ORIENTED_EDGE ( 'NONE', *, *, #283, .F. ) ;
#153 = LOCAL_TIME ( 10, 59, 47.00000000000000000, #225 ) ;
#154 = FACE_OUTER_BOUND ( 'NONE', #96, .T. ) ;
#155 = CARTESIAN_POINT ( 'NONE',  ( 0.000000000000000000, 0.000000000000000000, 167.0000000000000000 ) ) ;
#156 = EDGE_CURVE ( 'NONE', #301, #361, #184, .T. ) ;
#157 = CIRCLE ( 'NONE', #167, 8.699999999999999289 ) ;
#158 = EDGE_CURVE ( 'NONE', #361, #3, #140, .T. ) ;
#159 = VERTEX_POINT ( 'NONE', #291 ) ;
#160 = CARTESIAN_POINT ( 'NONE',  ( 0.000000000000000000, 0.000000000000000000, 0.000000000000000000 ) ) ;
#161 = PERSON_AND_ORGANIZATION ( #199, #12 ) ;
#162 = LOCAL_TIME ( 10, 59, 47.00000000000000000, #27 ) ;
#163 = DIRECTION ( 'NONE',  ( 0.000000000000000000, 0.000000000000000000, -1.000000000000000000 ) ) ;
#164 = PERSON_AND_ORGANIZATION ( #199, #12 ) ;
#165 = CARTESIAN_POINT ( 'NONE',  ( -11.00000000000000000, 0.000000000000000000, 7.000000000000000000 ) ) ;
#166 = ORIENTED_EDGE ( 'NONE', *, *, #170, .F. ) ;
#167 = AXIS2_PLACEMENT_3D ( 'NONE', #177, #359, #123 ) ;
#168 = ORIENTED_EDGE ( 'NONE', *, *, #158, .T. ) ;
#169 = CARTESIAN_POINT ( 'NONE',  ( 0.000000000000000000, 0.000000000000000000, 167.0000000000000000 ) ) ;
#170 = EDGE_CURVE ( 'NONE', #296, #119, #47, .T. ) ;
#171 = VERTEX_POINT ( 'NONE', #234 ) ;
#172 = AXIS2_PLACEMENT_3D ( 'NONE', #226, #1, #375 ) ;
#173 = APPROVAL_DATE_TIME ( #40, #267 ) ;
#174 = LINE ( 'NONE', #39, #117 ) ;
#175 = ORIENTED_EDGE ( 'NONE', *, *, #57, .F. ) ;
#176 = EDGE_CURVE ( 'NONE', #101, #67, #36, .T. ) ;
#177 = CARTESIAN_POINT ( 'NONE',  ( 0.000000000000000000, 0.000000000000000000, 7.000000000000000000 ) ) ;
#178 = AXIS2_PLACEMENT_3D ( 'NONE', #263, #72, #100 ) ;
#179 = ORIENTED_EDGE ( 'NONE', *, *, #103, .T. ) ;
#180 = DIRECTION ( 'NONE',  ( 0.000000000000000000, 0.000000000000000000, 1.000000000000000000 ) ) ;
#181 = CARTESIAN_POINT ( 'NONE',  ( 0.000000000000000000, 0.000000000000000000, 7.000000000000000000 ) ) ;
#182 = FACE_OUTER_BOUND ( 'NONE', #195, .T. ) ;
#183 = FACE_BOUND ( 'NONE', #242, .T. ) ;
#184 = CIRCLE ( 'NONE', #373, 6.000000000000000888 ) ;
#185 = CIRCLE ( 'NONE', #222, 11.00000000000000000 ) ;
#186 = MANIFOLD_SOLID_BREP ( 'Odebrat vysunutím3', #314 ) ;
#187 = CARTESIAN_POINT ( 'NONE',  ( 0.000000000000000000, 0.000000000000000000, 7.000000000000000000 ) ) ;
#188 = ORIENTED_EDGE ( 'NONE', *, *, #254, .F. ) ;
#189 = EDGE_LOOP ( 'NONE', ( #104, #43, #35, #141 ) ) ;
#190 = DIRECTION ( 'NONE',  ( 1.000000000000000000, 0.000000000000000000, 0.000000000000000000 ) ) ;
#191 = DIRECTION ( 'NONE',  ( 1.000000000000000000, 0.000000000000000000, 0.000000000000000000 ) ) ;
#192 = APPROVAL ( #380, 'NEURÈENÝ' ) ;
#193 = EDGE_CURVE ( 'NONE', #361, #301, #110, .T. ) ;
#194 = TOROIDAL_SURFACE ( 'NONE', #295, 8.699999999999999289, 0.6999999999999999556 ) ;
#195 = EDGE_LOOP ( 'NONE', ( #341, #33, #352, #266 ) ) ;
#196 = PERSON_AND_ORGANIZATION_ROLE ( 'creator' ) ;
#197 = ADVANCED_FACE ( 'NONE', ( #362 ), #85, .F. ) ;
#198 = CARTESIAN_POINT ( 'NONE',  ( 0.000000000000000000, 0.000000000000000000, 167.0000000000000000 ) ) ;
#199 = PERSON ( 'NEURÈENÝ', 'NEURÈENÝ', 'NEURÈENÝ', ('NEURÈENÝ'), ('NEURÈENÝ'), ('NEURÈENÝ') ) ;
#200 = ORIENTED_EDGE ( 'NONE', *, *, #176, .F. ) ;
#201 = SHAPE_DEFINITION_REPRESENTATION ( #324, #134 ) ;
#202 = VECTOR ( 'NONE', #93, 1000.000000000000000 ) ;
#203 = AXIS2_PLACEMENT_3D ( 'NONE', #169, #66, #294 ) ;
#204 = ORIENTED_EDGE ( 'NONE', *, *, #273, .T. ) ;
#205 = CYLINDRICAL_SURFACE ( 'NONE', #91, 11.00000000000000000 ) ;
#206 = ORIENTED_EDGE ( 'NONE', *, *, #273, .F. ) ;
#207 = AXIS2_PLACEMENT_3D ( 'NONE', #155, #275, #18 ) ;
#208 = ORIENTED_EDGE ( 'NONE', *, *, #244, .T. ) ;
#209 = DIRECTION ( 'NONE',  ( 1.000000000000000000, 0.000000000000000000, 0.000000000000000000 ) ) ;
#210 = FACE_OUTER_BOUND ( 'NONE', #148, .T. ) ;
#211 = DIRECTION ( 'NONE',  ( 0.000000000000000000, 0.000000000000000000, 1.000000000000000000 ) ) ;
#212 = CYLINDRICAL_SURFACE ( 'NONE', #71, 6.000000000000000888 ) ;
#213 = EDGE_CURVE ( 'NONE', #119, #296, #157, .T. ) ;
#214 = ADVANCED_FACE ( 'NONE', ( #42 ), #356, .T. ) ;
#215 = CIRCLE ( 'NONE', #130, 8.000000000000000000 ) ;
#216 = CARTESIAN_POINT ( 'NONE',  ( -6.000000000000000888, 0.000000000000000000, 167.0000000000000000 ) ) ;
#217 = APPROVAL_PERSON_ORGANIZATION ( #236, #267, #321 ) ;
#218 = DIRECTION ( 'NONE',  ( 0.000000000000000000, 0.000000000000000000, 1.000000000000000000 ) ) ;
#219 = ORIENTED_EDGE ( 'NONE', *, *, #193, .T. ) ;
#220 = PERSON_AND_ORGANIZATION_ROLE ( 'classification_officer' ) ;
#221 = CC_DESIGN_PERSON_AND_ORGANIZATION_ASSIGNMENT ( #94, #196, ( #328 ) ) ;
#222 = AXIS2_PLACEMENT_3D ( 'NONE', #310, #218, #243 ) ;
#223 = CARTESIAN_POINT ( 'NONE',  ( 8.699999999999999289, 0.000000000000000000, 7.700000000000012612 ) ) ;
#224 = ORIENTED_EDGE ( 'NONE', *, *, #250, .T. ) ;
#225 = COORDINATED_UNIVERSAL_TIME_OFFSET ( 1, 0, .AHEAD. ) ;
#226 = CARTESIAN_POINT ( 'NONE',  ( 0.000000000000000000, 0.000000000000000000, 7.000000000000000000 ) ) ;
#227 = ORIENTED_EDGE ( 'NONE', *, *, #124, .F. ) ;
#228 = DIRECTION ( 'NONE',  ( 0.000000000000000000, 0.000000000000000000, 1.000000000000000000 ) ) ;
#229 = ORIENTED_EDGE ( 'NONE', *, *, #240, .F. ) ;
#230 = AXIS2_PLACEMENT_3D ( 'NONE', #233, #143, #241 ) ;
#231 = ORIENTED_EDGE ( 'NONE', *, *, #103, .F. ) ;
#232 = COORDINATED_UNIVERSAL_TIME_OFFSET ( 1, 0, .AHEAD. ) ;
#233 = CARTESIAN_POINT ( 'NONE',  ( 0.000000000000000000, 0.000000000000000000, 7.700000000000012612 ) ) ;
#234 = CARTESIAN_POINT ( 'NONE',  ( 11.00000000000000000, 1.347111479062088405E-15, 0.000000000000000000 ) ) ;
#235 = DIRECTION ( 'NONE',  ( 1.000000000000000000, 0.000000000000000000, 0.000000000000000000 ) ) ;
#236 = PERSON_AND_ORGANIZATION ( #199, #12 ) ;
#237 = CARTESIAN_POINT ( 'NONE',  ( 0.000000000000000000, 0.000000000000000000, 0.000000000000000000 ) ) ;
#238 = CIRCLE ( 'NONE', #178, 0.6999999999999992895 ) ;
#239 = CYLINDRICAL_SURFACE ( 'NONE', #17, 6.000000000000000888 ) ;
#240 = EDGE_CURVE ( 'NONE', #67, #52, #105, .T. ) ;
#241 = DIRECTION ( 'NONE',  ( 1.000000000000000000, 0.000000000000000000, 0.000000000000000000 ) ) ;
#242 = EDGE_LOOP ( 'NONE', ( #188, #305 ) ) ;
#243 = DIRECTION ( 'NONE',  ( 1.000000000000000000, 0.000000000000000000, 0.000000000000000000 ) ) ;
#244 = EDGE_CURVE ( 'NONE', #67, #119, #238, .T. ) ;
#245 = VECTOR ( 'NONE', #297, 1000.000000000000000 ) ;
#246 = DIRECTION ( 'NONE',  ( 0.000000000000000000, 0.000000000000000000, 1.000000000000000000 ) ) ;
#247 = CARTESIAN_POINT ( 'NONE',  ( 8.000000000000000000, 9.797174393178825657E-16, 167.0000000000000000 ) ) ;
#248 = ORIENTED_EDGE ( 'NONE', *, *, #124, .T. ) ;
#249 = AXIS2_PLACEMENT_3D ( 'NONE', #97, #144, #126 ) ;
#250 = EDGE_CURVE ( 'NONE', #354, #145, #55, .T. ) ;
#251 = CARTESIAN_POINT ( 'NONE',  ( -8.000000000000000000, 0.000000000000000000, 167.0000000000000000 ) ) ;
#252 = CALENDAR_DATE ( 2022, 10, 7 ) ;
#253 = APPLICATION_PROTOCOL_DEFINITION ( 'international standard', 'config_control_design', 1994, #31 ) ;
#254 = EDGE_CURVE ( 'NONE', #3, #129, #304, .T. ) ;
#255 = PERSON_AND_ORGANIZATION ( #199, #12 ) ;
#256 = LOCAL_TIME ( 10, 59, 47.00000000000000000, #377 ) ;
#257 = ORIENTED_EDGE ( 'NONE', *, *, #254, .T. ) ;
#258 = DIRECTION ( 'NONE',  ( 0.000000000000000000, 0.000000000000000000, 1.000000000000000000 ) ) ;
#259 = EDGE_LOOP ( 'NONE', ( #327, #227, #179, #22 ) ) ;
#260 = ADVANCED_FACE ( 'NONE', ( #182 ), #205, .T. ) ;
#261 = EDGE_LOOP ( 'NONE', ( #229, #208, #166, #231 ) ) ;
#262 = AXIS2_PLACEMENT_3D ( 'NONE', #25, #287, #32 ) ;
#263 = CARTESIAN_POINT ( 'NONE',  ( -8.699999999999999289, 1.065442715258197248E-15, 7.700000000000012612 ) ) ;
#264 =( GEOMETRIC_REPRESENTATION_CONTEXT ( 3 ) GLOBAL_UNCERTAINTY_ASSIGNED_CONTEXT ( ( #2 ) ) GLOBAL_UNIT_ASSIGNED_CONTEXT ( ( #368, #336, #340 ) ) REPRESENTATION_CONTEXT ( 'NONE', 'WORKASPACE' ) );
#265 = EDGE_LOOP ( 'NONE', ( #206, #320, #168, #257 ) ) ;
#266 = ORIENTED_EDGE ( 'NONE', *, *, #23, .F. ) ;
#267 = APPROVAL ( #270, 'NEURÈENÝ' ) ;
#268 = ADVANCED_FACE ( 'NONE', ( #325, #367 ), #107, .T. ) ;
#269 = CARTESIAN_POINT ( 'NONE',  ( -8.000000000000000000, 0.000000000000000000, 7.700000000000012612 ) ) ;
#270 = APPROVAL_STATUS ( 'not_yet_approved' ) ;
#271 = CARTESIAN_POINT ( 'NONE',  ( 0.000000000000000000, 0.000000000000000000, 7.000000000000000000 ) ) ;
#272 = CC_DESIGN_APPROVAL ( #267, ( #26 ) ) ;
#273 = EDGE_CURVE ( 'NONE', #301, #129, #174, .T. ) ;
#274 = DIRECTION ( 'NONE',  ( 1.000000000000000000, 0.000000000000000000, -0.000000000000000000 ) ) ;
#275 = DIRECTION ( 'NONE',  ( 0.000000000000000000, 0.000000000000000000, 1.000000000000000000 ) ) ;
#276 = FACE_OUTER_BOUND ( 'NONE', #265, .T. ) ;
#277 = AXIS2_PLACEMENT_3D ( 'NONE', #147, #329, #7 ) ;
#278 = DIRECTION ( 'NONE',  ( -0.000000000000000000, -0.000000000000000000, -1.000000000000000000 ) ) ;
#279 = DIRECTION ( 'NONE',  ( -1.000000000000000000, 0.000000000000000000, 0.000000000000000000 ) ) ;
#280 = PERSON_AND_ORGANIZATION_ROLE ( 'design_owner' ) ;
#281 = CARTESIAN_POINT ( 'NONE',  ( -8.699999999999999289, 1.065442715258197248E-15, 7.000000000000006217 ) ) ;
#282 = CALENDAR_DATE ( 2022, 10, 7 ) ;
#283 = EDGE_CURVE ( 'NONE', #171, #122, #185, .T. ) ;
#284 = PLANE ( 'NONE',  #172 ) ;
#285 = AXIS2_PLACEMENT_3D ( 'NONE', #223, #90, #316 ) ;
#286 = MECHANICAL_CONTEXT ( 'NONE', #31, 'mechanical' ) ;
#287 = DIRECTION ( 'NONE',  ( 0.000000000000000000, 0.000000000000000000, 1.000000000000000000 ) ) ;
#288 = EDGE_LOOP ( 'NONE', ( #102, #224 ) ) ;
#289 = APPROVAL_ROLE ( '' ) ;
#290 = VECTOR ( 'NONE', #278, 1000.000000000000000 ) ;
#291 = CARTESIAN_POINT ( 'NONE',  ( 8.000000000000000000, 9.797174393178825657E-16, 167.0000000000000000 ) ) ;
#292 = EDGE_CURVE ( 'NONE', #159, #52, #77, .T. ) ;
#293 = DESIGN_CONTEXT ( 'detailed design', #46, 'design' ) ;
#294 = DIRECTION ( 'NONE',  ( 1.000000000000000000, 0.000000000000000000, -0.000000000000000000 ) ) ;
#295 = AXIS2_PLACEMENT_3D ( 'NONE', #108, #312, #235 ) ;
#296 = VERTEX_POINT ( 'NONE', #339 ) ;
#297 = DIRECTION ( 'NONE',  ( -0.000000000000000000, -0.000000000000000000, -1.000000000000000000 ) ) ;
#298 = ORIENTED_EDGE ( 'NONE', *, *, #193, .F. ) ;
#299 = DIRECTION ( 'NONE',  ( 0.000000000000000000, 0.000000000000000000, 1.000000000000000000 ) ) ;
#300 = AXIS2_PLACEMENT_3D ( 'NONE', #68, #211, #151 ) ;
#301 = VERTEX_POINT ( 'NONE', #20 ) ;
#302 = DIRECTION ( 'NONE',  ( 1.000000000000000000, 0.000000000000000000, 0.000000000000000000 ) ) ;
#303 = EDGE_CURVE ( 'NONE', #145, #354, #379, .T. ) ;
#304 = CIRCLE ( 'NONE', #41, 6.000000000000000888 ) ;
#305 = ORIENTED_EDGE ( 'NONE', *, *, #322, .F. ) ;
#306 = CARTESIAN_POINT ( 'NONE',  ( 0.000000000000000000, 0.000000000000000000, 0.000000000000000000 ) ) ;
#307 = ADVANCED_FACE ( 'NONE', ( #276 ), #212, .F. ) ;
#308 = DIRECTION ( 'NONE',  ( 1.000000000000000000, 0.000000000000000000, 0.000000000000000000 ) ) ;
#309 = APPROVAL ( #137, 'NEURÈENÝ' ) ;
#310 = CARTESIAN_POINT ( 'NONE',  ( 0.000000000000000000, 0.000000000000000000, 0.000000000000000000 ) ) ;
#311 = CC_DESIGN_APPROVAL ( #309, ( #328 ) ) ;
#312 = DIRECTION ( 'NONE',  ( 0.000000000000000000, 0.000000000000000000, 1.000000000000000000 ) ) ;
#313 = ADVANCED_FACE ( 'NONE', ( #183, #154 ), #371, .F. ) ;
#314 = CLOSED_SHELL ( 'NONE', ( #75, #8, #63, #260, #15, #81, #313, #214, #268, #197, #307 ) ) ;
#315 = AXIS2_PLACEMENT_3D ( 'NONE', #333, #180, #302 ) ;
#316 = DIRECTION ( 'NONE',  ( 0.000000000000000000, 0.000000000000000000, -1.000000000000000000 ) ) ;
#317 = PERSON_AND_ORGANIZATION_ROLE ( 'creator' ) ;
#318 = ORIENTED_EDGE ( 'NONE', *, *, #132, .F. ) ;
#319 = DIRECTION ( 'NONE',  ( 1.000000000000000000, 0.000000000000000000, 0.000000000000000000 ) ) ;
#320 = ORIENTED_EDGE ( 'NONE', *, *, #156, .T. ) ;
#321 = APPROVAL_ROLE ( '' ) ;
#322 = EDGE_CURVE ( 'NONE', #129, #3, #79, .T. ) ;
#323 = ORIENTED_EDGE ( 'NONE', *, *, #213, .T. ) ;
#324 = PRODUCT_DEFINITION_SHAPE ( 'NONE', 'NONE',  #357 ) ;
#325 = FACE_BOUND ( 'NONE', #14, .T. ) ;
#326 = ORIENTED_EDGE ( 'NONE', *, *, #30, .T. ) ;
#327 = ORIENTED_EDGE ( 'NONE', *, *, #244, .F. ) ;
#328 = PRODUCT_DEFINITION_FORMATION_WITH_SPECIFIED_SOURCE ( 'LIBOVOLNÝ', '', #53, .NOT_KNOWN. ) ;
#329 = DIRECTION ( 'NONE',  ( -0.000000000000000000, -0.000000000000000000, -1.000000000000000000 ) ) ;
#330 = EDGE_LOOP ( 'NONE', ( #326, #381 ) ) ;
#331 = CARTESIAN_POINT ( 'NONE',  ( -8.000000000000000000, 0.000000000000000000, 167.0000000000000000 ) ) ;
#332 = LINE ( 'NONE', #150, #344 ) ;
#333 = CARTESIAN_POINT ( 'NONE',  ( 0.000000000000000000, 0.000000000000000000, 7.000000000000000000 ) ) ;
#334 = DIRECTION ( 'NONE',  ( -0.000000000000000000, -0.000000000000000000, -1.000000000000000000 ) ) ;
#335 = AXIS2_PLACEMENT_3D ( 'NONE', #4, #299, #209 ) ;
#336 =( NAMED_UNIT ( * ) PLANE_ANGLE_UNIT ( ) SI_UNIT ( $, .RADIAN. ) );
#337 = CC_DESIGN_PERSON_AND_ORGANIZATION_ASSIGNMENT ( #164, #280, ( #53 ) ) ;
#338 = CIRCLE ( 'NONE', #285, 0.7000000000000000666 ) ;
#339 = CARTESIAN_POINT ( 'NONE',  ( 8.699999999999999289, 0.000000000000000000, 7.000000000000006217 ) ) ;
#340 =( NAMED_UNIT ( * ) SI_UNIT ( $, .STERADIAN. ) SOLID_ANGLE_UNIT ( ) );
#341 = ORIENTED_EDGE ( 'NONE', *, *, #250, .F. ) ;
#342 = AXIS2_PLACEMENT_3D ( 'NONE', #306, #16, #49 ) ;
#343 = DIRECTION ( 'NONE',  ( -1.000000000000000000, 0.000000000000000000, 0.000000000000000000 ) ) ;
#344 = VECTOR ( 'NONE', #10, 1000.000000000000000 ) ;
#345 = COORDINATED_UNIVERSAL_TIME_OFFSET ( 1, 0, .AHEAD. ) ;
#346 = DATE_TIME_ROLE ( 'classification_date' ) ;
#347 = AXIS2_PLACEMENT_3D ( 'NONE', #187, #246, #308 ) ;
#348 = PERSON_AND_ORGANIZATION ( #199, #12 ) ;
#349 = DIRECTION ( 'NONE',  ( 0.000000000000000000, 0.000000000000000000, 1.000000000000000000 ) ) ;
#350 = ORIENTED_EDGE ( 'NONE', *, *, #158, .F. ) ;
#351 = DATE_TIME_ROLE ( 'creation_date' ) ;
#352 = ORIENTED_EDGE ( 'NONE', *, *, #283, .T. ) ;
#353 = DIRECTION ( 'NONE',  ( 0.000000000000000000, 0.000000000000000000, 1.000000000000000000 ) ) ;
#354 = VERTEX_POINT ( 'NONE', #369 ) ;
#355 = APPROVAL_PERSON_ORGANIZATION ( #255, #192, #24 ) ;
#356 = CYLINDRICAL_SURFACE ( 'NONE', #277, 8.000000000000000000 ) ;
#357 = PRODUCT_DEFINITION ( 'NEZNÁMÝ', '', #328, #293 ) ;
#358 = ORIENTED_EDGE ( 'NONE', *, *, #303, .F. ) ;
#359 = DIRECTION ( 'NONE',  ( -0.000000000000000000, -0.000000000000000000, -1.000000000000000000 ) ) ;
#360 = AXIS2_PLACEMENT_3D ( 'NONE', #372, #111, #125 ) ;
#361 = VERTEX_POINT ( 'NONE', #216 ) ;
#362 = FACE_OUTER_BOUND ( 'NONE', #259, .T. ) ;
#363 = ORIENTED_EDGE ( 'NONE', *, *, #292, .T. ) ;
#364 = APPROVAL_PERSON_ORGANIZATION ( #161, #309, #289 ) ;
#365 = DIRECTION ( 'NONE',  ( 1.000000000000000000, 0.000000000000000000, 0.000000000000000000 ) ) ;
#366 = CYLINDRICAL_SURFACE ( 'NONE', #44, 11.00000000000000000 ) ;
#367 = FACE_OUTER_BOUND ( 'NONE', #330, .T. ) ;
#368 =( LENGTH_UNIT ( ) NAMED_UNIT ( * ) SI_UNIT ( .MILLI., .METRE. ) );
#369 = CARTESIAN_POINT ( 'NONE',  ( 11.00000000000000000, 1.347111479062088405E-15, 7.000000000000000000 ) ) ;
#370 = CC_DESIGN_APPROVAL ( #192, ( #357 ) ) ;
#371 = PLANE ( 'NONE',  #127 ) ;
#372 = CARTESIAN_POINT ( 'NONE',  ( 0.000000000000000000, 0.000000000000000000, 167.0000000000000000 ) ) ;
#373 = AXIS2_PLACEMENT_3D ( 'NONE', #138, #349, #378 ) ;
#374 = PERSON_AND_ORGANIZATION_ROLE ( 'design_supplier' ) ;
#375 = DIRECTION ( 'NONE',  ( 1.000000000000000000, 0.000000000000000000, -0.000000000000000000 ) ) ;
#376 = PERSON_AND_ORGANIZATION ( #199, #12 ) ;
#377 = COORDINATED_UNIVERSAL_TIME_OFFSET ( 1, 0, .AHEAD. ) ;
#378 = DIRECTION ( 'NONE',  ( 1.000000000000000000, 0.000000000000000000, 0.000000000000000000 ) ) ;
#379 = CIRCLE ( 'NONE', #347, 11.00000000000000000 ) ;
#380 = APPROVAL_STATUS ( 'not_yet_approved' ) ;
#381 = ORIENTED_EDGE ( 'NONE', *, *, #98, .T. ) ;
ENDSEC;
END-ISO-10303-21;
