ISO-10303-21;
HEADER;
FILE_DESCRIPTION (( 'STEP AP203' ),
    '1' );
FILE_NAME ('ea63.STEP',
    '2022-07-10T09:07:53',
    ( '' ),
    ( '' ),
    'SwSTEP 2.0',
    'SolidWorks 2019',
    '' );
FILE_SCHEMA (( 'CONFIG_CONTROL_DESIGN' ));
ENDSEC;

DATA;
#1 = CC_DESIGN_APPROVAL ( #270, ( #47 ) ) ;
#2 = CARTESIAN_POINT ( 'NONE',  ( 0.000000000000000000, 0.000000000000000000, 205.0000000000000284 ) ) ;
#3 = ORIENTED_EDGE ( 'NONE', *, *, #110, .F. ) ;
#4 = DIRECTION ( 'NONE',  ( -1.000000000000000000, 0.000000000000000000, 0.000000000000000000 ) ) ;
#5 = VERTEX_POINT ( 'NONE', #163 ) ;
#6 = CYLINDRICAL_SURFACE ( 'NONE', #206, 7.000000000000000000 ) ;
#7 = ORIENTED_EDGE ( 'NONE', *, *, #245, .F. ) ;
#8 = LOCAL_TIME ( 11, 7, 53.00000000000000000, #312 ) ;
#9 = FACE_OUTER_BOUND ( 'NONE', #23, .T. ) ;
#10 = CARTESIAN_POINT ( 'NONE',  ( 4.000000000000000000, 4.898587196589412829E-16, 205.0000000000000284 ) ) ;
#11 = EDGE_CURVE ( 'NONE', #57, #294, #366, .T. ) ;
#12 = CYLINDRICAL_SURFACE ( 'NONE', #18, 2.600000000000000089 ) ;
#13 = ORIENTED_EDGE ( 'NONE', *, *, #326, .F. ) ;
#14 = CARTESIAN_POINT ( 'NONE',  ( 0.000000000000000000, 0.000000000000000000, 205.0000000000000284 ) ) ;
#15 = AXIS2_PLACEMENT_3D ( 'NONE', #136, #17, #364 ) ;
#16 = AXIS2_PLACEMENT_3D ( 'NONE', #20, #246, #46 ) ;
#17 = DIRECTION ( 'NONE',  ( 0.000000000000000000, -1.000000000000000000, 0.000000000000000000 ) ) ;
#18 = AXIS2_PLACEMENT_3D ( 'NONE', #355, #185, #4 ) ;
#19 = DIRECTION ( 'NONE',  ( -1.000000000000000000, 0.000000000000000000, 0.000000000000000000 ) ) ;
#20 = CARTESIAN_POINT ( 'NONE',  ( 0.000000000000000000, 0.000000000000000000, 5.500000000000005329 ) ) ;
#21 = EDGE_CURVE ( 'NONE', #31, #215, #34, .T. ) ;
#22 =( LENGTH_UNIT ( ) NAMED_UNIT ( * ) SI_UNIT ( .MILLI., .METRE. ) );
#23 = EDGE_LOOP ( 'NONE', ( #263, #255, #177, #142 ) ) ;
#24 = PRODUCT_DEFINITION_SHAPE ( 'NONE', 'NONE',  #47 ) ;
#25 = CALENDAR_DATE ( 2022, 10, 7 ) ;
#26 = CARTESIAN_POINT ( 'NONE',  ( 0.000000000000000000, 0.000000000000000000, 5.000000000000000000 ) ) ;
#27 = PERSON_AND_ORGANIZATION_ROLE ( 'creator' ) ;
#28 = AXIS2_PLACEMENT_3D ( 'NONE', #311, #224, #116 ) ;
#29 = DIRECTION ( 'NONE',  ( 1.000000000000000000, 0.000000000000000000, 0.000000000000000000 ) ) ;
#30 = DIRECTION ( 'NONE',  ( -0.000000000000000000, -0.000000000000000000, -1.000000000000000000 ) ) ;
#31 = VERTEX_POINT ( 'NONE', #238 ) ;
#32 = APPROVAL_STATUS ( 'not_yet_approved' ) ;
#33 = ORIENTED_EDGE ( 'NONE', *, *, #133, .F. ) ;
#34 = CIRCLE ( 'NONE', #84, 4.000000000000000000 ) ;
#35 = EDGE_CURVE ( 'NONE', #207, #5, #290, .T. ) ;
#36 = AXIS2_PLACEMENT_3D ( 'NONE', #361, #293, #37 ) ;
#37 = DIRECTION ( 'NONE',  ( 1.000000000000000000, 0.000000000000000000, 0.000000000000000000 ) ) ;
#38 = EDGE_LOOP ( 'NONE', ( #33, #202, #98, #292 ) ) ;
#39 = DIRECTION ( 'NONE',  ( 0.000000000000000000, 0.000000000000000000, -1.000000000000000000 ) ) ;
#40 = ORIENTED_EDGE ( 'NONE', *, *, #203, .F. ) ;
#41 = FACE_OUTER_BOUND ( 'NONE', #103, .T. ) ;
#42 = EDGE_LOOP ( 'NONE', ( #241, #7 ) ) ;
#43 = AXIS2_PLACEMENT_3D ( 'NONE', #147, #226, #29 ) ;
#44 = CARTESIAN_POINT ( 'NONE',  ( 0.000000000000000000, 0.000000000000000000, 0.000000000000000000 ) ) ;
#45 = ORIENTED_EDGE ( 'NONE', *, *, #11, .T. ) ;
#46 = DIRECTION ( 'NONE',  ( 1.000000000000000000, 0.000000000000000000, 0.000000000000000000 ) ) ;
#47 = PRODUCT_DEFINITION ( 'NEZNÁMÝ', '', #109, #266 ) ;
#48 = AXIS2_PLACEMENT_3D ( 'NONE', #373, #121, #97 ) ;
#49 = PRODUCT_RELATED_PRODUCT_CATEGORY ( 'detail', '', ( #119 ) ) ;
#50 = DIRECTION ( 'NONE',  ( 1.000000000000000000, 0.000000000000000000, 0.000000000000000000 ) ) ;
#51 = DIRECTION ( 'NONE',  ( -0.000000000000000000, -0.000000000000000000, -1.000000000000000000 ) ) ;
#52 = CARTESIAN_POINT ( 'NONE',  ( 0.000000000000000000, 0.000000000000000000, 0.000000000000000000 ) ) ;
#53 = APPROVAL_STATUS ( 'not_yet_approved' ) ;
#54 = CARTESIAN_POINT ( 'NONE',  ( -2.600000000000000089, 0.000000000000000000, 205.0000000000000284 ) ) ;
#55 = EDGE_CURVE ( 'NONE', #305, #5, #221, .T. ) ;
#56 = AXIS2_PLACEMENT_3D ( 'NONE', #320, #73, #162 ) ;
#57 = VERTEX_POINT ( 'NONE', #327 ) ;
#58 = PERSON_AND_ORGANIZATION ( #358, #369 ) ;
#59 = LINE ( 'NONE', #288, #181 ) ;
#60 = ORIENTED_EDGE ( 'NONE', *, *, #286, .F. ) ;
#61 = EDGE_CURVE ( 'NONE', #31, #305, #193, .T. ) ;
#62 = DIRECTION ( 'NONE',  ( 1.000000000000000000, 0.000000000000000000, 0.000000000000000000 ) ) ;
#63 = ORIENTED_EDGE ( 'NONE', *, *, #245, .T. ) ;
#64 = VECTOR ( 'NONE', #346, 1000.000000000000000 ) ;
#65 = DIRECTION ( 'NONE',  ( -0.000000000000000000, -0.000000000000000000, -1.000000000000000000 ) ) ;
#66 = EDGE_LOOP ( 'NONE', ( #126, #151, #201, #40 ) ) ;
#67 = SHAPE_DEFINITION_REPRESENTATION ( #24, #333 ) ;
#68 = DIRECTION ( 'NONE',  ( 1.000000000000000000, 0.000000000000000000, 0.000000000000000000 ) ) ;
#69 = VERTEX_POINT ( 'NONE', #248 ) ;
#70 = LINE ( 'NONE', #105, #264 ) ;
#71 = EDGE_CURVE ( 'NONE', #169, #154, #145, .T. ) ;
#72 = LINE ( 'NONE', #188, #123 ) ;
#73 = DIRECTION ( 'NONE',  ( -0.000000000000000000, -0.000000000000000000, -1.000000000000000000 ) ) ;
#74 = CIRCLE ( 'NONE', #334, 2.600000000000000089 ) ;
#75 = CARTESIAN_POINT ( 'NONE',  ( 0.000000000000000000, 0.000000000000000000, 205.0000000000000284 ) ) ;
#76 = DIRECTION ( 'NONE',  ( 0.000000000000000000, 0.000000000000000000, 1.000000000000000000 ) ) ;
#77 = ORIENTED_EDGE ( 'NONE', *, *, #171, .T. ) ;
#78 = ADVANCED_FACE ( 'NONE', ( #111, #339 ), #267, .F. ) ;
#79 = CIRCLE ( 'NONE', #342, 7.000000000000000000 ) ;
#80 = DIRECTION ( 'NONE',  ( 1.000000000000000000, 0.000000000000000000, 0.000000000000000000 ) ) ;
#81 = CC_DESIGN_PERSON_AND_ORGANIZATION_ASSIGNMENT ( #120, #27, ( #47 ) ) ;
#82 = SECURITY_CLASSIFICATION_LEVEL ( 'unclassified' ) ;
#83 = DIRECTION ( 'NONE',  ( 0.000000000000000000, 0.000000000000000000, 1.000000000000000000 ) ) ;
#84 = AXIS2_PLACEMENT_3D ( 'NONE', #75, #337, #209 ) ;
#85 = VECTOR ( 'NONE', #65, 1000.000000000000000 ) ;
#86 = DATE_AND_TIME ( #118, #8 ) ;
#87 = CC_DESIGN_PERSON_AND_ORGANIZATION_ASSIGNMENT ( #58, #149, ( #109 ) ) ;
#88 = DATE_AND_TIME ( #348, #141 ) ;
#89 = CARTESIAN_POINT ( 'NONE',  ( 0.000000000000000000, 0.000000000000000000, 205.0000000000000284 ) ) ;
#90 = DATE_AND_TIME ( #25, #258 ) ;
#91 = DIRECTION ( 'NONE',  ( 0.000000000000000000, 0.000000000000000000, 1.000000000000000000 ) ) ;
#92 = PERSON_AND_ORGANIZATION ( #358, #369 ) ;
#93 = CARTESIAN_POINT ( 'NONE',  ( 2.600000000000000089, 3.184081677783118191E-16, 0.000000000000000000 ) ) ;
#94 = ADVANCED_FACE ( 'NONE', ( #9 ), #131, .T. ) ;
#95 = ORIENTED_EDGE ( 'NONE', *, *, #326, .T. ) ;
#96 = APPROVAL_DATE_TIME ( #377, #138 ) ;
#97 = DIRECTION ( 'NONE',  ( 1.000000000000000000, 0.000000000000000000, 0.000000000000000000 ) ) ;
#98 = ORIENTED_EDGE ( 'NONE', *, *, #55, .T. ) ;
#99 = DIRECTION ( 'NONE',  ( -1.000000000000000000, 0.000000000000000000, 0.000000000000000000 ) ) ;
#100 = ORIENTED_EDGE ( 'NONE', *, *, #231, .F. ) ;
#101 = AXIS2_PLACEMENT_3D ( 'NONE', #269, #112, #50 ) ;
#102 = APPROVAL_PERSON_ORGANIZATION ( #287, #138, #256 ) ;
#103 = EDGE_LOOP ( 'NONE', ( #321, #100, #205, #45 ) ) ;
#104 = EDGE_CURVE ( 'NONE', #215, #69, #72, .T. ) ;
#105 = CARTESIAN_POINT ( 'NONE',  ( -7.000000000000000000, 0.000000000000000000, 5.000000000000000000 ) ) ;
#106 = DIRECTION ( 'NONE',  ( -0.000000000000000000, -0.000000000000000000, -1.000000000000000000 ) ) ;
#107 = DIRECTION ( 'NONE',  ( -0.000000000000000000, -0.000000000000000000, -1.000000000000000000 ) ) ;
#108 = CARTESIAN_POINT ( 'NONE',  ( 2.600000000000000089, 3.184081677783118191E-16, 205.0000000000000284 ) ) ;
#109 = PRODUCT_DEFINITION_FORMATION_WITH_SPECIFIED_SOURCE ( 'LIBOVOLNÝ', '', #119, .NOT_KNOWN. ) ;
#110 = EDGE_CURVE ( 'NONE', #232, #158, #277, .T. ) ;
#111 = FACE_BOUND ( 'NONE', #42, .T. ) ;
#112 = DIRECTION ( 'NONE',  ( 0.000000000000000000, 0.000000000000000000, 1.000000000000000000 ) ) ;
#113 = CIRCLE ( 'NONE', #189, 4.000000000000000000 ) ;
#114 = DIRECTION ( 'NONE',  ( -0.000000000000000000, -0.000000000000000000, -1.000000000000000000 ) ) ;
#115 = APPROVAL_DATE_TIME ( #173, #270 ) ;
#116 = DIRECTION ( 'NONE',  ( -1.000000000000000000, 1.224646799147351482E-16, 0.000000000000000000 ) ) ;
#117 = ADVANCED_FACE ( 'NONE', ( #284 ), #367, .F. ) ;
#118 = CALENDAR_DATE ( 2022, 10, 7 ) ;
#119 = PRODUCT ( 'ea63', 'ea63', '', ( #172 ) ) ;
#120 = PERSON_AND_ORGANIZATION ( #358, #369 ) ;
#121 = DIRECTION ( 'NONE',  ( 0.000000000000000000, 0.000000000000000000, 1.000000000000000000 ) ) ;
#122 = ORIENTED_EDGE ( 'NONE', *, *, #104, .T. ) ;
#123 = VECTOR ( 'NONE', #160, 1000.000000000000000 ) ;
#124 = DIRECTION ( 'NONE',  ( -1.000000000000000000, 0.000000000000000000, 0.000000000000000000 ) ) ;
#125 = EDGE_LOOP ( 'NONE', ( #186, #77, #63, #354 ) ) ;
#126 = ORIENTED_EDGE ( 'NONE', *, *, #176, .F. ) ;
#127 = DIRECTION ( 'NONE',  ( 1.000000000000000000, 0.000000000000000000, -0.000000000000000000 ) ) ;
#128 = EDGE_LOOP ( 'NONE', ( #318, #156, #122, #95 ) ) ;
#129 = ADVANCED_FACE ( 'NONE', ( #197 ), #281, .T. ) ;
#130 = AXIS2_PLACEMENT_3D ( 'NONE', #274, #300, #19 ) ;
#131 = CYLINDRICAL_SURFACE ( 'NONE', #217, 4.000000000000000000 ) ;
#132 = CARTESIAN_POINT ( 'NONE',  ( 0.000000000000000000, 0.000000000000000000, 5.000000000000000000 ) ) ;
#133 = EDGE_CURVE ( 'NONE', #69, #207, #349, .T. ) ;
#134 = DIRECTION ( 'NONE',  ( -0.000000000000000000, -0.000000000000000000, -1.000000000000000000 ) ) ;
#135 = CIRCLE ( 'NONE', #56, 2.600000000000000089 ) ;
#136 = CARTESIAN_POINT ( 'NONE',  ( 4.500000000000000888, 0.000000000000000000, 5.500000000000005329 ) ) ;
#137 = CARTESIAN_POINT ( 'NONE',  ( 4.000000000000000000, 4.898587196589412829E-16, 5.500000000000005329 ) ) ;
#138 = APPROVAL ( #32, 'NEURÈENÝ' ) ;
#139 = DIRECTION ( 'NONE',  ( 1.000000000000000000, 0.000000000000000000, -0.000000000000000000 ) ) ;
#140 = APPROVAL_PERSON_ORGANIZATION ( #253, #270, #306 ) ;
#141 = LOCAL_TIME ( 11, 7, 53.00000000000000000, #345 ) ;
#142 = ORIENTED_EDGE ( 'NONE', *, *, #104, .F. ) ;
#143 = DATE_TIME_ROLE ( 'creation_date' ) ;
#144 = EDGE_CURVE ( 'NONE', #158, #169, #148, .T. ) ;
#145 = CIRCLE ( 'NONE', #196, 2.600000000000000089 ) ;
#146 = COORDINATED_UNIVERSAL_TIME_OFFSET ( 1, 0, .AHEAD. ) ;
#147 = CARTESIAN_POINT ( 'NONE',  ( 0.000000000000000000, 0.000000000000000000, 0.000000000000000000 ) ) ;
#148 = LINE ( 'NONE', #54, #64 ) ;
#149 = PERSON_AND_ORGANIZATION_ROLE ( 'design_supplier' ) ;
#150 = DIRECTION ( 'NONE',  ( 1.000000000000000000, 0.000000000000000000, 0.000000000000000000 ) ) ;
#151 = ORIENTED_EDGE ( 'NONE', *, *, #257, .T. ) ;
#152 = CIRCLE ( 'NONE', #251, 7.000000000000000000 ) ;
#153 = PLANE ( 'NONE',  #291 ) ;
#154 = VERTEX_POINT ( 'NONE', #93 ) ;
#155 = DIRECTION ( 'NONE',  ( 0.000000000000000000, 0.000000000000000000, 1.000000000000000000 ) ) ;
#156 = ORIENTED_EDGE ( 'NONE', *, *, #161, .F. ) ;
#157 = CARTESIAN_POINT ( 'NONE',  ( 7.000000000000000000, 8.572527594031473190E-16, 0.000000000000000000 ) ) ;
#158 = VERTEX_POINT ( 'NONE', #227 ) ;
#159 = AXIS2_PLACEMENT_3D ( 'NONE', #14, #370, #139 ) ;
#160 = DIRECTION ( 'NONE',  ( -0.000000000000000000, -0.000000000000000000, -1.000000000000000000 ) ) ;
#161 = EDGE_CURVE ( 'NONE', #215, #31, #113, .T. ) ;
#162 = DIRECTION ( 'NONE',  ( 1.000000000000000000, 0.000000000000000000, 0.000000000000000000 ) ) ;
#163 = CARTESIAN_POINT ( 'NONE',  ( 4.500000000000000888, 0.000000000000000000, 5.000000000000002665 ) ) ;
#164 = FACE_OUTER_BOUND ( 'NONE', #66, .T. ) ;
#165 = CARTESIAN_POINT ( 'NONE',  ( 0.000000000000000000, 0.000000000000000000, 5.000000000000000000 ) ) ;
#166 =( GEOMETRIC_REPRESENTATION_CONTEXT ( 3 ) GLOBAL_UNCERTAINTY_ASSIGNED_CONTEXT ( ( #237 ) ) GLOBAL_UNIT_ASSIGNED_CONTEXT ( ( #22, #276, #368 ) ) REPRESENTATION_CONTEXT ( 'NONE', 'WORKASPACE' ) );
#167 = EDGE_CURVE ( 'NONE', #5, #207, #247, .T. ) ;
#168 = CARTESIAN_POINT ( 'NONE',  ( -7.000000000000000000, 0.000000000000000000, 5.000000000000000000 ) ) ;
#169 = VERTEX_POINT ( 'NONE', #316 ) ;
#170 = LOCAL_TIME ( 11, 7, 53.00000000000000000, #376 ) ;
#171 = EDGE_CURVE ( 'NONE', #232, #154, #59, .T. ) ;
#172 = MECHANICAL_CONTEXT ( 'NONE', #213, 'mechanical' ) ;
#173 = DATE_AND_TIME ( #199, #170 ) ;
#174 = CALENDAR_DATE ( 2022, 10, 7 ) ;
#175 = DIRECTION ( 'NONE',  ( -0.000000000000000000, -0.000000000000000000, -1.000000000000000000 ) ) ;
#176 = EDGE_CURVE ( 'NONE', #178, #381, #152, .T. ) ;
#177 = ORIENTED_EDGE ( 'NONE', *, *, #317, .T. ) ;
#178 = VERTEX_POINT ( 'NONE', #295 ) ;
#179 = FACE_BOUND ( 'NONE', #347, .T. ) ;
#180 = ORIENTED_EDGE ( 'NONE', *, *, #379, .F. ) ;
#181 = VECTOR ( 'NONE', #353, 1000.000000000000000 ) ;
#182 = ADVANCED_FACE ( 'NONE', ( #325 ), #12, .F. ) ;
#183 = CARTESIAN_POINT ( 'NONE',  ( 0.000000000000000000, 0.000000000000000000, 5.000000000000000000 ) ) ;
#184 = ORIENTED_EDGE ( 'NONE', *, *, #167, .F. ) ;
#185 = DIRECTION ( 'NONE',  ( 0.000000000000000000, 0.000000000000000000, -1.000000000000000000 ) ) ;
#186 = ORIENTED_EDGE ( 'NONE', *, *, #379, .T. ) ;
#187 = FACE_OUTER_BOUND ( 'NONE', #38, .T. ) ;
#188 = CARTESIAN_POINT ( 'NONE',  ( -4.000000000000000000, 0.000000000000000000, 205.0000000000000284 ) ) ;
#189 = AXIS2_PLACEMENT_3D ( 'NONE', #230, #91, #62 ) ;
#190 = CARTESIAN_POINT ( 'NONE',  ( 0.000000000000000000, 0.000000000000000000, 205.0000000000000284 ) ) ;
#191 = APPLICATION_CONTEXT ( 'configuration controlled 3d designs of mechanical parts and assemblies' ) ;
#192 = AXIS2_PLACEMENT_3D ( 'NONE', #2, #30, #124 ) ;
#193 = LINE ( 'NONE', #10, #222 ) ;
#194 = ADVANCED_FACE ( 'NONE', ( #187 ), #328, .F. ) ;
#195 = DIRECTION ( 'NONE',  ( 1.000000000000000000, 0.000000000000000000, -0.000000000000000000 ) ) ;
#196 = AXIS2_PLACEMENT_3D ( 'NONE', #371, #114, #220 ) ;
#197 = FACE_OUTER_BOUND ( 'NONE', #128, .T. ) ;
#198 = EDGE_LOOP ( 'NONE', ( #259, #60 ) ) ;
#199 = CALENDAR_DATE ( 2022, 10, 7 ) ;
#200 = DIRECTION ( 'NONE',  ( 1.000000000000000000, 0.000000000000000000, 0.000000000000000000 ) ) ;
#201 = ORIENTED_EDGE ( 'NONE', *, *, #286, .T. ) ;
#202 = ORIENTED_EDGE ( 'NONE', *, *, #317, .F. ) ;
#203 = EDGE_CURVE ( 'NONE', #381, #57, #70, .T. ) ;
#204 = DIRECTION ( 'NONE',  ( 1.000000000000000000, 0.000000000000000000, 0.000000000000000000 ) ) ;
#205 = ORIENTED_EDGE ( 'NONE', *, *, #203, .T. ) ;
#206 = AXIS2_PLACEMENT_3D ( 'NONE', #363, #107, #99 ) ;
#207 = VERTEX_POINT ( 'NONE', #330 ) ;
#208 = CARTESIAN_POINT ( 'NONE',  ( -4.000000000000000000, 0.000000000000000000, 205.0000000000000284 ) ) ;
#209 = DIRECTION ( 'NONE',  ( 1.000000000000000000, 0.000000000000000000, 0.000000000000000000 ) ) ;
#210 = CC_DESIGN_PERSON_AND_ORGANIZATION_ASSIGNMENT ( #92, #338, ( #119 ) ) ;
#211 = CLOSED_SHELL ( 'NONE', ( #223, #117, #94, #304, #239, #275, #78, #129, #350, #194, #182 ) ) ;
#212 = CARTESIAN_POINT ( 'NONE',  ( 7.000000000000000000, 8.572527594031473190E-16, 5.000000000000000000 ) ) ;
#213 = APPLICATION_CONTEXT ( 'configuration controlled 3d designs of mechanical parts and assemblies' ) ;
#214 = DIRECTION ( 'NONE',  ( 1.000000000000000000, 0.000000000000000000, 0.000000000000000000 ) ) ;
#215 = VERTEX_POINT ( 'NONE', #208 ) ;
#216 = CC_DESIGN_PERSON_AND_ORGANIZATION_ASSIGNMENT ( #283, #280, ( #109 ) ) ;
#217 = AXIS2_PLACEMENT_3D ( 'NONE', #362, #106, #324 ) ;
#218 = FACE_BOUND ( 'NONE', #323, .T. ) ;
#219 = PLANE ( 'NONE',  #159 ) ;
#220 = DIRECTION ( 'NONE',  ( 1.000000000000000000, 0.000000000000000000, 0.000000000000000000 ) ) ;
#221 = CIRCLE ( 'NONE', #15, 0.5000000000000004441 ) ;
#222 = VECTOR ( 'NONE', #51, 1000.000000000000000 ) ;
#223 = ADVANCED_FACE ( 'NONE', ( #365 ), #242, .F. ) ;
#224 = DIRECTION ( 'NONE',  ( 1.224646799147353207E-16, 1.000000000000000000, -0.000000000000000000 ) ) ;
#225 = ORIENTED_EDGE ( 'NONE', *, *, #144, .T. ) ;
#226 = DIRECTION ( 'NONE',  ( 0.000000000000000000, 0.000000000000000000, 1.000000000000000000 ) ) ;
#227 = CARTESIAN_POINT ( 'NONE',  ( -2.600000000000000089, 0.000000000000000000, 205.0000000000000284 ) ) ;
#228 = CIRCLE ( 'NONE', #236, 7.000000000000000000 ) ;
#229 = EDGE_LOOP ( 'NONE', ( #319, #352, #225, #262 ) ) ;
#230 = CARTESIAN_POINT ( 'NONE',  ( 0.000000000000000000, 0.000000000000000000, 205.0000000000000284 ) ) ;
#231 = EDGE_CURVE ( 'NONE', #381, #178, #228, .T. ) ;
#232 = VERTEX_POINT ( 'NONE', #108 ) ;
#233 = ORIENTED_EDGE ( 'NONE', *, *, #176, .T. ) ;
#234 = CARTESIAN_POINT ( 'NONE',  ( 0.000000000000000000, 0.000000000000000000, 0.000000000000000000 ) ) ;
#235 = EDGE_LOOP ( 'NONE', ( #314, #233 ) ) ;
#236 = AXIS2_PLACEMENT_3D ( 'NONE', #132, #155, #240 ) ;
#237 = UNCERTAINTY_MEASURE_WITH_UNIT (LENGTH_MEASURE( 1.000000000000000082E-05 ), #22, 'distance_accuracy_value', 'NONE');
#238 = CARTESIAN_POINT ( 'NONE',  ( 4.000000000000000000, 4.898587196589412829E-16, 205.0000000000000284 ) ) ;
#239 = ADVANCED_FACE ( 'NONE', ( #41 ), #6, .T. ) ;
#240 = DIRECTION ( 'NONE',  ( 1.000000000000000000, 0.000000000000000000, 0.000000000000000000 ) ) ;
#241 = ORIENTED_EDGE ( 'NONE', *, *, #71, .F. ) ;
#242 = CYLINDRICAL_SURFACE ( 'NONE', #313, 2.600000000000000089 ) ;
#243 = DIRECTION ( 'NONE',  ( 1.000000000000000000, 0.000000000000000000, 0.000000000000000000 ) ) ;
#244 = AXIS2_PLACEMENT_3D ( 'NONE', #279, #175, #200 ) ;
#245 = EDGE_CURVE ( 'NONE', #154, #169, #135, .T. ) ;
#246 = DIRECTION ( 'NONE',  ( 0.000000000000000000, 0.000000000000000000, 1.000000000000000000 ) ) ;
#247 = CIRCLE ( 'NONE', #244, 4.500000000000000888 ) ;
#248 = CARTESIAN_POINT ( 'NONE',  ( -4.000000000000000000, 0.000000000000000000, 5.500000000000005329 ) ) ;
#249 = DIRECTION ( 'NONE',  ( 0.000000000000000000, 0.000000000000000000, 1.000000000000000000 ) ) ;
#250 = DATE_TIME_ROLE ( 'classification_date' ) ;
#251 = AXIS2_PLACEMENT_3D ( 'NONE', #26, #249, #204 ) ;
#252 = CC_DESIGN_DATE_AND_TIME_ASSIGNMENT ( #88, #250, ( #329 ) ) ;
#253 = PERSON_AND_ORGANIZATION ( #358, #369 ) ;
#254 = PERSON_AND_ORGANIZATION_ROLE ( 'classification_officer' ) ;
#255 = ORIENTED_EDGE ( 'NONE', *, *, #61, .T. ) ;
#256 = APPROVAL_ROLE ( '' ) ;
#257 = EDGE_CURVE ( 'NONE', #178, #294, #268, .T. ) ;
#258 = LOCAL_TIME ( 11, 7, 53.00000000000000000, #372 ) ;
#259 = ORIENTED_EDGE ( 'NONE', *, *, #11, .F. ) ;
#260 = ORIENTED_EDGE ( 'NONE', *, *, #55, .F. ) ;
#261 = DIRECTION ( 'NONE',  ( 0.000000000000000000, 0.000000000000000000, 1.000000000000000000 ) ) ;
#262 = ORIENTED_EDGE ( 'NONE', *, *, #71, .T. ) ;
#263 = ORIENTED_EDGE ( 'NONE', *, *, #21, .F. ) ;
#264 = VECTOR ( 'NONE', #322, 1000.000000000000000 ) ;
#265 = CC_DESIGN_PERSON_AND_ORGANIZATION_ASSIGNMENT ( #380, #254, ( #329 ) ) ;
#266 = DESIGN_CONTEXT ( 'detailed design', #191, 'design' ) ;
#267 = PLANE ( 'NONE',  #298 ) ;
#268 = LINE ( 'NONE', #212, #85 ) ;
#269 = CARTESIAN_POINT ( 'NONE',  ( 0.000000000000000000, 0.000000000000000000, 5.500000000000005329 ) ) ;
#270 = APPROVAL ( #341, 'NEURÈENÝ' ) ;
#271 = DIRECTION ( 'NONE',  ( 0.000000000000000000, 0.000000000000000000, 1.000000000000000000 ) ) ;
#272 = CIRCLE ( 'NONE', #16, 4.000000000000000000 ) ;
#273 = FACE_OUTER_BOUND ( 'NONE', #299, .T. ) ;
#274 = CARTESIAN_POINT ( 'NONE',  ( 0.000000000000000000, 0.000000000000000000, 5.000000000000000000 ) ) ;
#275 = ADVANCED_FACE ( 'NONE', ( #179, #289 ), #153, .T. ) ;
#276 =( NAMED_UNIT ( * ) PLANE_ANGLE_UNIT ( ) SI_UNIT ( $, .RADIAN. ) );
#277 = CIRCLE ( 'NONE', #359, 2.600000000000000089 ) ;
#278 = APPLICATION_PROTOCOL_DEFINITION ( 'international standard', 'config_control_design', 1994, #191 ) ;
#279 = CARTESIAN_POINT ( 'NONE',  ( 0.000000000000000000, 0.000000000000000000, 5.000000000000000000 ) ) ;
#280 = PERSON_AND_ORGANIZATION_ROLE ( 'creator' ) ;
#281 = CYLINDRICAL_SURFACE ( 'NONE', #192, 4.000000000000000000 ) ;
#282 = CC_DESIGN_DATE_AND_TIME_ASSIGNMENT ( #90, #143, ( #47 ) ) ;
#283 = PERSON_AND_ORGANIZATION ( #358, #369 ) ;
#284 = FACE_OUTER_BOUND ( 'NONE', #356, .T. ) ;
#285 = ORIENTED_EDGE ( 'NONE', *, *, #21, .T. ) ;
#286 = EDGE_CURVE ( 'NONE', #294, #57, #79, .T. ) ;
#287 = PERSON_AND_ORGANIZATION ( #358, #369 ) ;
#288 = CARTESIAN_POINT ( 'NONE',  ( 2.600000000000000089, 3.184081677783118191E-16, 205.0000000000000284 ) ) ;
#289 = FACE_OUTER_BOUND ( 'NONE', #235, .T. ) ;
#290 = CIRCLE ( 'NONE', #340, 4.500000000000000888 ) ;
#291 = AXIS2_PLACEMENT_3D ( 'NONE', #183, #261, #127 ) ;
#292 = ORIENTED_EDGE ( 'NONE', *, *, #35, .F. ) ;
#293 = DIRECTION ( 'NONE',  ( 0.000000000000000000, 0.000000000000000000, 1.000000000000000000 ) ) ;
#294 = VERTEX_POINT ( 'NONE', #157 ) ;
#295 = CARTESIAN_POINT ( 'NONE',  ( 7.000000000000000000, 8.572527594031473190E-16, 5.000000000000000000 ) ) ;
#296 = ORIENTED_EDGE ( 'NONE', *, *, #167, .T. ) ;
#297 = DIRECTION ( 'NONE',  ( -1.000000000000000000, 0.000000000000000000, 0.000000000000000000 ) ) ;
#298 = AXIS2_PLACEMENT_3D ( 'NONE', #44, #83, #195 ) ;
#299 = EDGE_LOOP ( 'NONE', ( #331, #285 ) ) ;
#300 = DIRECTION ( 'NONE',  ( -0.000000000000000000, -0.000000000000000000, -1.000000000000000000 ) ) ;
#301 = CIRCLE ( 'NONE', #101, 4.000000000000000000 ) ;
#302 = LOCAL_TIME ( 11, 7, 53.00000000000000000, #146 ) ;
#303 = CYLINDRICAL_SURFACE ( 'NONE', #130, 7.000000000000000000 ) ;
#304 = ADVANCED_FACE ( 'NONE', ( #164 ), #303, .T. ) ;
#305 = VERTEX_POINT ( 'NONE', #137 ) ;
#306 = APPROVAL_ROLE ( '' ) ;
#307 = APPROVAL_PERSON_ORGANIZATION ( #309, #336, #315 ) ;
#308 = ORIENTED_EDGE ( 'NONE', *, *, #133, .T. ) ;
#309 = PERSON_AND_ORGANIZATION ( #358, #369 ) ;
#310 = MANIFOLD_SOLID_BREP ( 'Odebrat vysunutím3', #211 ) ;
#311 = CARTESIAN_POINT ( 'NONE',  ( -4.500000000000000888, 5.510910596163089556E-16, 5.500000000000005329 ) ) ;
#312 = COORDINATED_UNIVERSAL_TIME_OFFSET ( 1, 0, .AHEAD. ) ;
#313 = AXIS2_PLACEMENT_3D ( 'NONE', #190, #39, #297 ) ;
#314 = ORIENTED_EDGE ( 'NONE', *, *, #231, .T. ) ;
#315 = APPROVAL_ROLE ( '' ) ;
#316 = CARTESIAN_POINT ( 'NONE',  ( -2.600000000000000089, 0.000000000000000000, 0.000000000000000000 ) ) ;
#317 = EDGE_CURVE ( 'NONE', #305, #69, #272, .T. ) ;
#318 = ORIENTED_EDGE ( 'NONE', *, *, #61, .F. ) ;
#319 = ORIENTED_EDGE ( 'NONE', *, *, #171, .F. ) ;
#320 = CARTESIAN_POINT ( 'NONE',  ( 0.000000000000000000, 0.000000000000000000, 0.000000000000000000 ) ) ;
#321 = ORIENTED_EDGE ( 'NONE', *, *, #257, .F. ) ;
#322 = DIRECTION ( 'NONE',  ( -0.000000000000000000, -0.000000000000000000, -1.000000000000000000 ) ) ;
#323 = EDGE_LOOP ( 'NONE', ( #180, #3 ) ) ;
#324 = DIRECTION ( 'NONE',  ( -1.000000000000000000, 0.000000000000000000, 0.000000000000000000 ) ) ;
#325 = FACE_OUTER_BOUND ( 'NONE', #229, .T. ) ;
#326 = EDGE_CURVE ( 'NONE', #69, #305, #301, .T. ) ;
#327 = CARTESIAN_POINT ( 'NONE',  ( -7.000000000000000000, 0.000000000000000000, 0.000000000000000000 ) ) ;
#328 = TOROIDAL_SURFACE ( 'NONE', #36, 4.500000000000000888, 0.5000000000000000000 ) ;
#329 = SECURITY_CLASSIFICATION ( '', '', #82 ) ;
#330 = CARTESIAN_POINT ( 'NONE',  ( -4.500000000000000888, 5.510910596163088569E-16, 5.000000000000002665 ) ) ;
#331 = ORIENTED_EDGE ( 'NONE', *, *, #161, .T. ) ;
#332 = APPLICATION_PROTOCOL_DEFINITION ( 'international standard', 'config_control_design', 1994, #213 ) ;
#333 = ADVANCED_BREP_SHAPE_REPRESENTATION ( 'ea63', ( #310, #43 ), #166 ) ;
#334 = AXIS2_PLACEMENT_3D ( 'NONE', #335, #76, #214 ) ;
#335 = CARTESIAN_POINT ( 'NONE',  ( 0.000000000000000000, 0.000000000000000000, 205.0000000000000284 ) ) ;
#336 = APPROVAL ( #53, 'NEURÈENÝ' ) ;
#337 = DIRECTION ( 'NONE',  ( 0.000000000000000000, 0.000000000000000000, 1.000000000000000000 ) ) ;
#338 = PERSON_AND_ORGANIZATION_ROLE ( 'design_owner' ) ;
#339 = FACE_OUTER_BOUND ( 'NONE', #198, .T. ) ;
#340 = AXIS2_PLACEMENT_3D ( 'NONE', #165, #134, #243 ) ;
#341 = APPROVAL_STATUS ( 'not_yet_approved' ) ;
#342 = AXIS2_PLACEMENT_3D ( 'NONE', #234, #357, #68 ) ;
#343 = CC_DESIGN_SECURITY_CLASSIFICATION ( #329, ( #109 ) ) ;
#344 = APPROVAL_DATE_TIME ( #86, #336 ) ;
#345 = COORDINATED_UNIVERSAL_TIME_OFFSET ( 1, 0, .AHEAD. ) ;
#346 = DIRECTION ( 'NONE',  ( 0.000000000000000000, 0.000000000000000000, -1.000000000000000000 ) ) ;
#347 = EDGE_LOOP ( 'NONE', ( #296, #360 ) ) ;
#348 = CALENDAR_DATE ( 2022, 10, 7 ) ;
#349 = CIRCLE ( 'NONE', #28, 0.5000000000000004441 ) ;
#350 = ADVANCED_FACE ( 'NONE', ( #218, #273 ), #219, .T. ) ;
#351 = CC_DESIGN_APPROVAL ( #138, ( #329 ) ) ;
#352 = ORIENTED_EDGE ( 'NONE', *, *, #110, .T. ) ;
#353 = DIRECTION ( 'NONE',  ( 0.000000000000000000, 0.000000000000000000, -1.000000000000000000 ) ) ;
#354 = ORIENTED_EDGE ( 'NONE', *, *, #144, .F. ) ;
#355 = CARTESIAN_POINT ( 'NONE',  ( 0.000000000000000000, 0.000000000000000000, 205.0000000000000284 ) ) ;
#356 = EDGE_LOOP ( 'NONE', ( #13, #308, #184, #260 ) ) ;
#357 = DIRECTION ( 'NONE',  ( 0.000000000000000000, 0.000000000000000000, 1.000000000000000000 ) ) ;
#358 = PERSON ( 'NEURÈENÝ', 'NEURÈENÝ', 'NEURÈENÝ', ('NEURÈENÝ'), ('NEURÈENÝ'), ('NEURÈENÝ') ) ;
#359 = AXIS2_PLACEMENT_3D ( 'NONE', #89, #378, #150 ) ;
#360 = ORIENTED_EDGE ( 'NONE', *, *, #35, .T. ) ;
#361 = CARTESIAN_POINT ( 'NONE',  ( 0.000000000000000000, 0.000000000000000000, 5.500000000000005329 ) ) ;
#362 = CARTESIAN_POINT ( 'NONE',  ( 0.000000000000000000, 0.000000000000000000, 205.0000000000000284 ) ) ;
#363 = CARTESIAN_POINT ( 'NONE',  ( 0.000000000000000000, 0.000000000000000000, 5.000000000000000000 ) ) ;
#364 = DIRECTION ( 'NONE',  ( 0.000000000000000000, 0.000000000000000000, -1.000000000000000000 ) ) ;
#365 = FACE_OUTER_BOUND ( 'NONE', #125, .T. ) ;
#366 = CIRCLE ( 'NONE', #374, 7.000000000000000000 ) ;
#367 = TOROIDAL_SURFACE ( 'NONE', #48, 4.500000000000000888, 0.5000000000000000000 ) ;
#368 =( NAMED_UNIT ( * ) SI_UNIT ( $, .STERADIAN. ) SOLID_ANGLE_UNIT ( ) );
#369 = ORGANIZATION ( 'NEURÈENÝ', 'NEURÈENÝ', '' ) ;
#370 = DIRECTION ( 'NONE',  ( 0.000000000000000000, 0.000000000000000000, 1.000000000000000000 ) ) ;
#371 = CARTESIAN_POINT ( 'NONE',  ( 0.000000000000000000, 0.000000000000000000, 0.000000000000000000 ) ) ;
#372 = COORDINATED_UNIVERSAL_TIME_OFFSET ( 1, 0, .AHEAD. ) ;
#373 = CARTESIAN_POINT ( 'NONE',  ( 0.000000000000000000, 0.000000000000000000, 5.500000000000005329 ) ) ;
#374 = AXIS2_PLACEMENT_3D ( 'NONE', #52, #271, #80 ) ;
#375 = CC_DESIGN_APPROVAL ( #336, ( #109 ) ) ;
#376 = COORDINATED_UNIVERSAL_TIME_OFFSET ( 1, 0, .AHEAD. ) ;
#377 = DATE_AND_TIME ( #174, #302 ) ;
#378 = DIRECTION ( 'NONE',  ( 0.000000000000000000, 0.000000000000000000, 1.000000000000000000 ) ) ;
#379 = EDGE_CURVE ( 'NONE', #158, #232, #74, .T. ) ;
#380 = PERSON_AND_ORGANIZATION ( #358, #369 ) ;
#381 = VERTEX_POINT ( 'NONE', #168 ) ;
ENDSEC;
END-ISO-10303-21;
