ISO-10303-21;
HEADER;
FILE_DESCRIPTION (( 'STEP AP203' ),
    '1' );
FILE_NAME ('2367.STEP',
    '2022-07-10T09:16:28',
    ( '' ),
    ( '' ),
    'SwSTEP 2.0',
    'SolidWorks 2019',
    '' );
FILE_SCHEMA (( 'CONFIG_CONTROL_DESIGN' ));
ENDSEC;

DATA;
#1 = EDGE_LOOP ( 'NONE', ( #302, #355, #321, #315 ) ) ;
#2 = DIRECTION ( 'NONE',  ( -1.000000000000000000, 0.000000000000000000, 0.000000000000000000 ) ) ;
#3 = FACE_OUTER_BOUND ( 'NONE', #166, .T. ) ;
#4 = CYLINDRICAL_SURFACE ( 'NONE', #308, 2.500000000000000000 ) ;
#5 = CARTESIAN_POINT ( 'NONE',  ( 0.000000000000000000, 0.000000000000000000, 128.0000000000000000 ) ) ;
#6 = APPLICATION_CONTEXT ( 'configuration controlled 3d designs of mechanical parts and assemblies' ) ;
#7 = VECTOR ( 'NONE', #369, 1000.000000000000000 ) ;
#8 = DIRECTION ( 'NONE',  ( -0.000000000000000000, -0.000000000000000000, -1.000000000000000000 ) ) ;
#9 = DIRECTION ( 'NONE',  ( 1.000000000000000000, 0.000000000000000000, 0.000000000000000000 ) ) ;
#10 = CARTESIAN_POINT ( 'NONE',  ( -2.500000000000000000, 0.000000000000000000, 128.0000000000000000 ) ) ;
#11 = FACE_OUTER_BOUND ( 'NONE', #232, .T. ) ;
#12 = EDGE_CURVE ( 'NONE', #164, #329, #203, .T. ) ;
#13 = CARTESIAN_POINT ( 'NONE',  ( 0.000000000000000000, 0.000000000000000000, 3.000000000000000000 ) ) ;
#14 = AXIS2_PLACEMENT_3D ( 'NONE', #244, #306, #31 ) ;
#15 = DIRECTION ( 'NONE',  ( 0.000000000000000000, 0.000000000000000000, 1.000000000000000000 ) ) ;
#16 = CIRCLE ( 'NONE', #362, 2.500000000000000000 ) ;
#17 = LOCAL_TIME ( 11, 16, 28.00000000000000000, #182 ) ;
#18 = ORIENTED_EDGE ( 'NONE', *, *, #36, .F. ) ;
#19 = PERSON_AND_ORGANIZATION ( #64, #87 ) ;
#20 = ORIENTED_EDGE ( 'NONE', *, *, #279, .T. ) ;
#21 = ORIENTED_EDGE ( 'NONE', *, *, #173, .F. ) ;
#22 = ORIENTED_EDGE ( 'NONE', *, *, #97, .T. ) ;
#23 = VERTEX_POINT ( 'NONE', #159 ) ;
#24 = CC_DESIGN_PERSON_AND_ORGANIZATION_ASSIGNMENT ( #177, #84, ( #193 ) ) ;
#25 = VECTOR ( 'NONE', #246, 1000.000000000000000 ) ;
#26 = SHAPE_DEFINITION_REPRESENTATION ( #314, #168 ) ;
#27 = CARTESIAN_POINT ( 'NONE',  ( 0.000000000000000000, 0.000000000000000000, 3.299999999999997158 ) ) ;
#28 = ADVANCED_FACE ( 'NONE', ( #3 ), #90, .T. ) ;
#29 = DIRECTION ( 'NONE',  ( 0.000000000000000000, 0.000000000000000000, -1.000000000000000000 ) ) ;
#30 = APPROVAL ( #56, 'NEURÈENÝ' ) ;
#31 = DIRECTION ( 'NONE',  ( -1.000000000000000000, 0.000000000000000000, 0.000000000000000000 ) ) ;
#32 = CARTESIAN_POINT ( 'NONE',  ( 1.600000000000000089, 1.959434878635765230E-16, 0.000000000000000000 ) ) ;
#33 = DIRECTION ( 'NONE',  ( -1.000000000000000000, 0.000000000000000000, 0.000000000000000000 ) ) ;
#34 = AXIS2_PLACEMENT_3D ( 'NONE', #251, #73, #222 ) ;
#35 = DIRECTION ( 'NONE',  ( 1.000000000000000000, 0.000000000000000000, 0.000000000000000000 ) ) ;
#36 = EDGE_CURVE ( 'NONE', #260, #52, #154, .T. ) ;
#37 = CARTESIAN_POINT ( 'NONE',  ( -1.600000000000000089, 0.000000000000000000, 128.0000000000000000 ) ) ;
#38 = CARTESIAN_POINT ( 'NONE',  ( -2.500000000000000000, 0.000000000000000000, 128.0000000000000000 ) ) ;
#39 = EDGE_LOOP ( 'NONE', ( #172, #319 ) ) ;
#40 = VECTOR ( 'NONE', #104, 1000.000000000000000 ) ;
#41 = DIRECTION ( 'NONE',  ( 0.000000000000000000, 0.000000000000000000, -1.000000000000000000 ) ) ;
#42 = VERTEX_POINT ( 'NONE', #331 ) ;
#43 = CC_DESIGN_DATE_AND_TIME_ASSIGNMENT ( #322, #146, ( #374 ) ) ;
#44 = DIRECTION ( 'NONE',  ( 1.000000000000000000, 0.000000000000000000, 0.000000000000000000 ) ) ;
#45 = CARTESIAN_POINT ( 'NONE',  ( -2.500000000000000000, 0.000000000000000000, 3.299999999999997158 ) ) ;
#46 = ADVANCED_FACE ( 'NONE', ( #126 ), #307, .F. ) ;
#47 = EDGE_LOOP ( 'NONE', ( #257, #214 ) ) ;
#48 = CARTESIAN_POINT ( 'NONE',  ( 0.000000000000000000, 0.000000000000000000, 0.000000000000000000 ) ) ;
#49 = ORIENTED_EDGE ( 'NONE', *, *, #109, .T. ) ;
#50 = APPROVAL_DATE_TIME ( #211, #99 ) ;
#51 = ORIENTED_EDGE ( 'NONE', *, *, #153, .T. ) ;
#52 = VERTEX_POINT ( 'NONE', #32 ) ;
#53 = CIRCLE ( 'NONE', #94, 5.000000000000000000 ) ;
#54 = PERSON_AND_ORGANIZATION ( #64, #87 ) ;
#55 = ORIENTED_EDGE ( 'NONE', *, *, #311, .T. ) ;
#56 = APPROVAL_STATUS ( 'not_yet_approved' ) ;
#57 = DIRECTION ( 'NONE',  ( -0.000000000000000000, -0.000000000000000000, -1.000000000000000000 ) ) ;
#58 = EDGE_CURVE ( 'NONE', #134, #42, #216, .T. ) ;
#59 = DIRECTION ( 'NONE',  ( 0.000000000000000000, 0.000000000000000000, 1.000000000000000000 ) ) ;
#60 = CC_DESIGN_SECURITY_CLASSIFICATION ( #356, ( #193 ) ) ;
#61 = EDGE_CURVE ( 'NONE', #375, #42, #77, .T. ) ;
#62 = CARTESIAN_POINT ( 'NONE',  ( 0.000000000000000000, 0.000000000000000000, 3.000000000000000000 ) ) ;
#63 = DESIGN_CONTEXT ( 'detailed design', #227, 'design' ) ;
#64 = PERSON ( 'NEURÈENÝ', 'NEURÈENÝ', 'NEURÈENÝ', ('NEURÈENÝ'), ('NEURÈENÝ'), ('NEURÈENÝ') ) ;
#65 = CARTESIAN_POINT ( 'NONE',  ( 0.000000000000000000, 0.000000000000000000, 0.000000000000000000 ) ) ;
#66 = VECTOR ( 'NONE', #191, 1000.000000000000000 ) ;
#67 = CARTESIAN_POINT ( 'NONE',  ( 2.500000000000000000, 3.061616997868383141E-16, 128.0000000000000000 ) ) ;
#68 = AXIS2_PLACEMENT_3D ( 'NONE', #131, #282, #196 ) ;
#69 = DIRECTION ( 'NONE',  ( 1.000000000000000000, 0.000000000000000000, 0.000000000000000000 ) ) ;
#70 = FACE_BOUND ( 'NONE', #81, .T. ) ;
#71 = ORIENTED_EDGE ( 'NONE', *, *, #112, .F. ) ;
#72 = DIRECTION ( 'NONE',  ( 0.000000000000000000, 0.000000000000000000, 1.000000000000000000 ) ) ;
#73 = DIRECTION ( 'NONE',  ( 0.000000000000000000, 0.000000000000000000, 1.000000000000000000 ) ) ;
#74 =( LENGTH_UNIT ( ) NAMED_UNIT ( * ) SI_UNIT ( .MILLI., .METRE. ) );
#75 = CARTESIAN_POINT ( 'NONE',  ( 0.000000000000000000, 0.000000000000000000, 3.000000000000000000 ) ) ;
#76 =( NAMED_UNIT ( * ) PLANE_ANGLE_UNIT ( ) SI_UNIT ( $, .RADIAN. ) );
#77 = CIRCLE ( 'NONE', #120, 2.500000000000000000 ) ;
#78 = ORIENTED_EDGE ( 'NONE', *, *, #173, .T. ) ;
#79 = ORIENTED_EDGE ( 'NONE', *, *, #267, .F. ) ;
#80 = PERSON_AND_ORGANIZATION_ROLE ( 'creator' ) ;
#81 = EDGE_LOOP ( 'NONE', ( #269, #121 ) ) ;
#82 = EDGE_CURVE ( 'NONE', #351, #205, #130, .T. ) ;
#83 = ORIENTED_EDGE ( 'NONE', *, *, #91, .T. ) ;
#84 = PERSON_AND_ORGANIZATION_ROLE ( 'design_supplier' ) ;
#85 = CIRCLE ( 'NONE', #247, 5.000000000000000000 ) ;
#86 = ORIENTED_EDGE ( 'NONE', *, *, #109, .F. ) ;
#87 = ORGANIZATION ( 'NEURÈENÝ', 'NEURÈENÝ', '' ) ;
#88 = MANIFOLD_SOLID_BREP ( 'Odebrat vysunutím3', #365 ) ;
#89 = MECHANICAL_CONTEXT ( 'NONE', #6, 'mechanical' ) ;
#90 = CYLINDRICAL_SURFACE ( 'NONE', #275, 5.000000000000000000 ) ;
#91 = EDGE_CURVE ( 'NONE', #164, #293, #93, .T. ) ;
#92 = FACE_OUTER_BOUND ( 'NONE', #47, .T. ) ;
#93 = LINE ( 'NONE', #334, #66 ) ;
#94 = AXIS2_PLACEMENT_3D ( 'NONE', #316, #202, #44 ) ;
#95 = PRODUCT ( '2367', '2367', '', ( #89 ) ) ;
#96 = DIRECTION ( 'NONE',  ( 1.000000000000000000, 0.000000000000000000, 0.000000000000000000 ) ) ;
#97 = EDGE_CURVE ( 'NONE', #205, #351, #288, .T. ) ;
#98 = CARTESIAN_POINT ( 'NONE',  ( 2.500000000000000000, 3.061616997868383141E-16, 128.0000000000000000 ) ) ;
#99 = APPROVAL ( #179, 'NEURÈENÝ' ) ;
#100 = AXIS2_PLACEMENT_3D ( 'NONE', #336, #158, #281 ) ;
#101 = ADVANCED_FACE ( 'NONE', ( #248 ), #347, .F. ) ;
#102 = CARTESIAN_POINT ( 'NONE',  ( 0.000000000000000000, 0.000000000000000000, 128.0000000000000000 ) ) ;
#103 = CARTESIAN_POINT ( 'NONE',  ( 2.799999999999999822, 0.000000000000000000, 2.999999999999998668 ) ) ;
#104 = DIRECTION ( 'NONE',  ( -0.000000000000000000, -0.000000000000000000, -1.000000000000000000 ) ) ;
#105 = CC_DESIGN_PERSON_AND_ORGANIZATION_ASSIGNMENT ( #119, #80, ( #374 ) ) ;
#106 = DIRECTION ( 'NONE',  ( 1.000000000000000000, 0.000000000000000000, 0.000000000000000000 ) ) ;
#107 = DIRECTION ( 'NONE',  ( 0.000000000000000000, 0.000000000000000000, 1.000000000000000000 ) ) ;
#108 = CIRCLE ( 'NONE', #123, 1.600000000000000089 ) ;
#109 = EDGE_CURVE ( 'NONE', #42, #351, #243, .T. ) ;
#110 = CARTESIAN_POINT ( 'NONE',  ( -5.000000000000000000, 0.000000000000000000, 3.000000000000000000 ) ) ;
#111 = DATE_AND_TIME ( #209, #171 ) ;
#112 = EDGE_CURVE ( 'NONE', #42, #375, #16, .T. ) ;
#113 = ADVANCED_FACE ( 'NONE', ( #155 ), #149, .T. ) ;
#114 = ORIENTED_EDGE ( 'NONE', *, *, #58, .T. ) ;
#115 = APPROVAL_DATE_TIME ( #111, #30 ) ;
#116 = AXIS2_PLACEMENT_3D ( 'NONE', #339, #343, #69 ) ;
#117 = ORIENTED_EDGE ( 'NONE', *, *, #36, .T. ) ;
#118 = CARTESIAN_POINT ( 'NONE',  ( 0.000000000000000000, 0.000000000000000000, 3.000000000000000000 ) ) ;
#119 = PERSON_AND_ORGANIZATION ( #64, #87 ) ;
#120 = AXIS2_PLACEMENT_3D ( 'NONE', #27, #192, #9 ) ;
#121 = ORIENTED_EDGE ( 'NONE', *, *, #204, .F. ) ;
#122 = DATE_AND_TIME ( #381, #261 ) ;
#123 = AXIS2_PLACEMENT_3D ( 'NONE', #344, #107, #367 ) ;
#124 = ORIENTED_EDGE ( 'NONE', *, *, #82, .F. ) ;
#125 = CARTESIAN_POINT ( 'NONE',  ( 0.000000000000000000, 0.000000000000000000, 3.000000000000000000 ) ) ;
#126 = FACE_OUTER_BOUND ( 'NONE', #241, .T. ) ;
#127 = PLANE ( 'NONE',  #291 ) ;
#128 = DIRECTION ( 'NONE',  ( -0.000000000000000000, -0.000000000000000000, -1.000000000000000000 ) ) ;
#129 = DIRECTION ( 'NONE',  ( 0.000000000000000000, 0.000000000000000000, 1.000000000000000000 ) ) ;
#130 = CIRCLE ( 'NONE', #237, 2.799999999999999822 ) ;
#131 = CARTESIAN_POINT ( 'NONE',  ( 0.000000000000000000, 0.000000000000000000, 128.0000000000000000 ) ) ;
#132 = DIRECTION ( 'NONE',  ( 1.224646799147353207E-16, 1.000000000000000000, -0.000000000000000000 ) ) ;
#133 = PLANE ( 'NONE',  #284 ) ;
#134 = VERTEX_POINT ( 'NONE', #98 ) ;
#135 = LINE ( 'NONE', #10, #40 ) ;
#136 = CIRCLE ( 'NONE', #328, 0.2999999999999999334 ) ;
#137 = ORIENTED_EDGE ( 'NONE', *, *, #204, .T. ) ;
#138 = PERSON_AND_ORGANIZATION ( #64, #87 ) ;
#139 = EDGE_LOOP ( 'NONE', ( #55, #78 ) ) ;
#140 = CC_DESIGN_PERSON_AND_ORGANIZATION_ASSIGNMENT ( #138, #259, ( #193 ) ) ;
#141 = TOROIDAL_SURFACE ( 'NONE', #116, 2.799999999999999822, 0.2999999999999999889 ) ;
#142 = ORIENTED_EDGE ( 'NONE', *, *, #82, .T. ) ;
#143 = COORDINATED_UNIVERSAL_TIME_OFFSET ( 1, 0, .AHEAD. ) ;
#144 = EDGE_LOOP ( 'NONE', ( #79, #71, #49, #207 ) ) ;
#145 = ADVANCED_FACE ( 'NONE', ( #359, #364 ), #127, .T. ) ;
#146 = DATE_TIME_ROLE ( 'creation_date' ) ;
#147 = DIRECTION ( 'NONE',  ( 0.000000000000000000, 0.000000000000000000, 1.000000000000000000 ) ) ;
#148 = LOCAL_TIME ( 11, 16, 28.00000000000000000, #231 ) ;
#149 = CYLINDRICAL_SURFACE ( 'NONE', #206, 2.500000000000000000 ) ;
#150 = CIRCLE ( 'NONE', #68, 2.500000000000000000 ) ;
#151 = CARTESIAN_POINT ( 'NONE',  ( -5.000000000000000000, 0.000000000000000000, 3.000000000000000000 ) ) ;
#152 = DIRECTION ( 'NONE',  ( -1.000000000000000000, 0.000000000000000000, 0.000000000000000000 ) ) ;
#153 = EDGE_CURVE ( 'NONE', #52, #260, #226, .T. ) ;
#154 = CIRCLE ( 'NONE', #353, 1.600000000000000089 ) ;
#155 = FACE_OUTER_BOUND ( 'NONE', #285, .T. ) ;
#156 = UNCERTAINTY_MEASURE_WITH_UNIT (LENGTH_MEASURE( 1.000000000000000082E-05 ), #74, 'distance_accuracy_value', 'NONE');
#157 = DIRECTION ( 'NONE',  ( 1.000000000000000000, 0.000000000000000000, 0.000000000000000000 ) ) ;
#158 = DIRECTION ( 'NONE',  ( 0.000000000000000000, 0.000000000000000000, 1.000000000000000000 ) ) ;
#159 = CARTESIAN_POINT ( 'NONE',  ( -1.600000000000000089, 0.000000000000000000, 128.0000000000000000 ) ) ;
#160 = CYLINDRICAL_SURFACE ( 'NONE', #278, 5.000000000000000000 ) ;
#161 = DIRECTION ( 'NONE',  ( 0.000000000000000000, 0.000000000000000000, -1.000000000000000000 ) ) ;
#162 = AXIS2_PLACEMENT_3D ( 'NONE', #333, #59, #188 ) ;
#163 = FACE_OUTER_BOUND ( 'NONE', #1, .T. ) ;
#164 = VERTEX_POINT ( 'NONE', #305 ) ;
#165 = CARTESIAN_POINT ( 'NONE',  ( 1.600000000000000089, 1.959434878635765230E-16, 128.0000000000000000 ) ) ;
#166 = EDGE_LOOP ( 'NONE', ( #300, #83, #235, #198 ) ) ;
#167 = AXIS2_PLACEMENT_3D ( 'NONE', #62, #309, #35 ) ;
#168 = ADVANCED_BREP_SHAPE_REPRESENTATION ( '2367', ( #88, #255 ), #180 ) ;
#169 = ADVANCED_FACE ( 'NONE', ( #242, #92 ), #217, .F. ) ;
#170 = APPROVAL_PERSON_ORGANIZATION ( #294, #30, #354 ) ;
#171 = LOCAL_TIME ( 11, 16, 28.00000000000000000, #377 ) ;
#172 = ORIENTED_EDGE ( 'NONE', *, *, #249, .T. ) ;
#173 = EDGE_CURVE ( 'NONE', #134, #295, #150, .T. ) ;
#174 = PERSON_AND_ORGANIZATION ( #64, #87 ) ;
#175 = ORIENTED_EDGE ( 'NONE', *, *, #213, .F. ) ;
#176 = EDGE_CURVE ( 'NONE', #23, #260, #197, .T. ) ;
#177 = PERSON_AND_ORGANIZATION ( #64, #87 ) ;
#178 = ORIENTED_EDGE ( 'NONE', *, *, #61, .F. ) ;
#179 = APPROVAL_STATUS ( 'not_yet_approved' ) ;
#180 =( GEOMETRIC_REPRESENTATION_CONTEXT ( 3 ) GLOBAL_UNCERTAINTY_ASSIGNED_CONTEXT ( ( #156 ) ) GLOBAL_UNIT_ASSIGNED_CONTEXT ( ( #74, #76, #290 ) ) REPRESENTATION_CONTEXT ( 'NONE', 'WORKASPACE' ) );
#181 = ORIENTED_EDGE ( 'NONE', *, *, #213, .T. ) ;
#182 = COORDINATED_UNIVERSAL_TIME_OFFSET ( 1, 0, .AHEAD. ) ;
#183 = ADVANCED_FACE ( 'NONE', ( #163 ), #160, .T. ) ;
#184 = ORIENTED_EDGE ( 'NONE', *, *, #176, .T. ) ;
#185 = APPROVAL_ROLE ( '' ) ;
#186 = DIRECTION ( 'NONE',  ( 1.000000000000000000, 0.000000000000000000, 0.000000000000000000 ) ) ;
#187 = EDGE_CURVE ( 'NONE', #293, #326, #53, .T. ) ;
#188 = DIRECTION ( 'NONE',  ( 1.000000000000000000, 0.000000000000000000, -0.000000000000000000 ) ) ;
#189 = CARTESIAN_POINT ( 'NONE',  ( 0.000000000000000000, 0.000000000000000000, 0.000000000000000000 ) ) ;
#190 = APPROVAL ( #268, 'NEURÈENÝ' ) ;
#191 = DIRECTION ( 'NONE',  ( -0.000000000000000000, -0.000000000000000000, -1.000000000000000000 ) ) ;
#192 = DIRECTION ( 'NONE',  ( 0.000000000000000000, 0.000000000000000000, 1.000000000000000000 ) ) ;
#193 = PRODUCT_DEFINITION_FORMATION_WITH_SPECIFIED_SOURCE ( 'LIBOVOLNÝ', '', #95, .NOT_KNOWN. ) ;
#194 = APPROVAL_PERSON_ORGANIZATION ( #19, #99, #296 ) ;
#195 = CARTESIAN_POINT ( 'NONE',  ( -5.000000000000000000, 0.000000000000000000, 0.000000000000000000 ) ) ;
#196 = DIRECTION ( 'NONE',  ( 1.000000000000000000, 0.000000000000000000, 0.000000000000000000 ) ) ;
#197 = LINE ( 'NONE', #37, #219 ) ;
#198 = ORIENTED_EDGE ( 'NONE', *, *, #348, .F. ) ;
#199 = EDGE_CURVE ( 'NONE', #229, #52, #286, .T. ) ;
#200 = CARTESIAN_POINT ( 'NONE',  ( 0.000000000000000000, 0.000000000000000000, 128.0000000000000000 ) ) ;
#201 = AXIS2_PLACEMENT_3D ( 'NONE', #318, #72, #106 ) ;
#202 = DIRECTION ( 'NONE',  ( 0.000000000000000000, 0.000000000000000000, 1.000000000000000000 ) ) ;
#203 = CIRCLE ( 'NONE', #332, 5.000000000000000000 ) ;
#204 = EDGE_CURVE ( 'NONE', #229, #23, #108, .T. ) ;
#205 = VERTEX_POINT ( 'NONE', #370 ) ;
#206 = AXIS2_PLACEMENT_3D ( 'NONE', #5, #57, #2 ) ;
#207 = ORIENTED_EDGE ( 'NONE', *, *, #97, .F. ) ;
#208 = ORIENTED_EDGE ( 'NONE', *, *, #112, .T. ) ;
#209 = CALENDAR_DATE ( 2022, 10, 7 ) ;
#210 = ORIENTED_EDGE ( 'NONE', *, *, #176, .F. ) ;
#211 = DATE_AND_TIME ( #298, #17 ) ;
#212 = APPROVAL_PERSON_ORGANIZATION ( #54, #190, #185 ) ;
#213 = EDGE_CURVE ( 'NONE', #295, #375, #135, .T. ) ;
#214 = ORIENTED_EDGE ( 'NONE', *, *, #187, .F. ) ;
#215 = SECURITY_CLASSIFICATION_LEVEL ( 'unclassified' ) ;
#216 = LINE ( 'NONE', #67, #25 ) ;
#217 = PLANE ( 'NONE',  #162 ) ;
#218 = CARTESIAN_POINT ( 'NONE',  ( 2.799999999999999822, 0.000000000000000000, 3.299999999999997158 ) ) ;
#219 = VECTOR ( 'NONE', #161, 1000.000000000000000 ) ;
#220 = DIRECTION ( 'NONE',  ( 1.000000000000000000, 0.000000000000000000, 0.000000000000000000 ) ) ;
#221 = DIRECTION ( 'NONE',  ( -0.000000000000000000, -0.000000000000000000, -1.000000000000000000 ) ) ;
#222 = DIRECTION ( 'NONE',  ( 1.000000000000000000, 0.000000000000000000, 0.000000000000000000 ) ) ;
#223 = CARTESIAN_POINT ( 'NONE',  ( 1.600000000000000089, 1.959434878635765230E-16, 128.0000000000000000 ) ) ;
#224 = LINE ( 'NONE', #110, #320 ) ;
#225 = DIRECTION ( 'NONE',  ( -1.000000000000000000, 1.224646799147353207E-16, 0.000000000000000000 ) ) ;
#226 = CIRCLE ( 'NONE', #299, 1.600000000000000089 ) ;
#227 = APPLICATION_CONTEXT ( 'configuration controlled 3d designs of mechanical parts and assemblies' ) ;
#228 = DATE_TIME_ROLE ( 'classification_date' ) ;
#229 = VERTEX_POINT ( 'NONE', #223 ) ;
#230 = CC_DESIGN_APPROVAL ( #190, ( #356 ) ) ;
#231 = COORDINATED_UNIVERSAL_TIME_OFFSET ( 1, 0, .AHEAD. ) ;
#232 = EDGE_LOOP ( 'NONE', ( #20, #238, #51, #210 ) ) ;
#233 = ADVANCED_FACE ( 'NONE', ( #70, #287 ), #133, .T. ) ;
#234 = CALENDAR_DATE ( 2022, 10, 7 ) ;
#235 = ORIENTED_EDGE ( 'NONE', *, *, #187, .T. ) ;
#236 = PERSON_AND_ORGANIZATION_ROLE ( 'classification_officer' ) ;
#237 = AXIS2_PLACEMENT_3D ( 'NONE', #274, #360, #96 ) ;
#238 = ORIENTED_EDGE ( 'NONE', *, *, #199, .T. ) ;
#239 = CC_DESIGN_PERSON_AND_ORGANIZATION_ASSIGNMENT ( #174, #379, ( #95 ) ) ;
#240 = AXIS2_PLACEMENT_3D ( 'NONE', #200, #41, #33 ) ;
#241 = EDGE_LOOP ( 'NONE', ( #323, #137, #184, #117 ) ) ;
#242 = FACE_BOUND ( 'NONE', #265, .T. ) ;
#243 = CIRCLE ( 'NONE', #376, 0.2999999999999999334 ) ;
#244 = CARTESIAN_POINT ( 'NONE',  ( 0.000000000000000000, 0.000000000000000000, 128.0000000000000000 ) ) ;
#245 = CARTESIAN_POINT ( 'NONE',  ( 0.000000000000000000, 0.000000000000000000, 128.0000000000000000 ) ) ;
#246 = DIRECTION ( 'NONE',  ( -0.000000000000000000, -0.000000000000000000, -1.000000000000000000 ) ) ;
#247 = AXIS2_PLACEMENT_3D ( 'NONE', #75, #15, #310 ) ;
#248 = FACE_OUTER_BOUND ( 'NONE', #144, .T. ) ;
#249 = EDGE_CURVE ( 'NONE', #329, #164, #85, .T. ) ;
#250 = CARTESIAN_POINT ( 'NONE',  ( -2.799999999999999822, 3.429011037612588783E-16, 3.299999999999997158 ) ) ;
#251 = CARTESIAN_POINT ( 'NONE',  ( 0.000000000000000000, 0.000000000000000000, 128.0000000000000000 ) ) ;
#252 = DIRECTION ( 'NONE',  ( -1.000000000000000000, 0.000000000000000000, 0.000000000000000000 ) ) ;
#253 = CARTESIAN_POINT ( 'NONE',  ( -1.600000000000000089, 0.000000000000000000, 0.000000000000000000 ) ) ;
#254 = LOCAL_TIME ( 11, 16, 28.00000000000000000, #143 ) ;
#255 = AXIS2_PLACEMENT_3D ( 'NONE', #48, #372, #327 ) ;
#256 = DIRECTION ( 'NONE',  ( -0.000000000000000000, -0.000000000000000000, -1.000000000000000000 ) ) ;
#257 = ORIENTED_EDGE ( 'NONE', *, *, #371, .F. ) ;
#258 = AXIS2_PLACEMENT_3D ( 'NONE', #280, #129, #220 ) ;
#259 = PERSON_AND_ORGANIZATION_ROLE ( 'creator' ) ;
#260 = VERTEX_POINT ( 'NONE', #253 ) ;
#261 = LOCAL_TIME ( 11, 16, 28.00000000000000000, #304 ) ;
#262 = CIRCLE ( 'NONE', #34, 1.600000000000000089 ) ;
#263 = EDGE_LOOP ( 'NONE', ( #142, #22 ) ) ;
#264 = APPLICATION_PROTOCOL_DEFINITION ( 'international standard', 'config_control_design', 1994, #227 ) ;
#265 = EDGE_LOOP ( 'NONE', ( #18, #342 ) ) ;
#266 = PRODUCT_RELATED_PRODUCT_CATEGORY ( 'detail', '', ( #95 ) ) ;
#267 = EDGE_CURVE ( 'NONE', #375, #205, #136, .T. ) ;
#268 = APPROVAL_STATUS ( 'not_yet_approved' ) ;
#269 = ORIENTED_EDGE ( 'NONE', *, *, #279, .F. ) ;
#270 = CIRCLE ( 'NONE', #100, 2.500000000000000000 ) ;
#271 = CARTESIAN_POINT ( 'NONE',  ( 0.000000000000000000, 0.000000000000000000, 3.299999999999997158 ) ) ;
#272 = ADVANCED_FACE ( 'NONE', ( #366 ), #141, .F. ) ;
#273 = FACE_OUTER_BOUND ( 'NONE', #349, .T. ) ;
#274 = CARTESIAN_POINT ( 'NONE',  ( 0.000000000000000000, 0.000000000000000000, 3.000000000000000000 ) ) ;
#275 = AXIS2_PLACEMENT_3D ( 'NONE', #337, #8, #152 ) ;
#276 = DIRECTION ( 'NONE',  ( 0.000000000000000000, -1.000000000000000000, 0.000000000000000000 ) ) ;
#277 = DIRECTION ( 'NONE',  ( 0.000000000000000000, 0.000000000000000000, 1.000000000000000000 ) ) ;
#278 = AXIS2_PLACEMENT_3D ( 'NONE', #13, #341, #252 ) ;
#279 = EDGE_CURVE ( 'NONE', #23, #229, #262, .T. ) ;
#280 = CARTESIAN_POINT ( 'NONE',  ( 0.000000000000000000, 0.000000000000000000, 3.299999999999997158 ) ) ;
#281 = DIRECTION ( 'NONE',  ( 1.000000000000000000, 0.000000000000000000, 0.000000000000000000 ) ) ;
#282 = DIRECTION ( 'NONE',  ( 0.000000000000000000, 0.000000000000000000, 1.000000000000000000 ) ) ;
#283 = DIRECTION ( 'NONE',  ( 0.000000000000000000, 0.000000000000000000, 1.000000000000000000 ) ) ;
#284 = AXIS2_PLACEMENT_3D ( 'NONE', #102, #283, #317 ) ;
#285 = EDGE_LOOP ( 'NONE', ( #21, #114, #208, #175 ) ) ;
#286 = LINE ( 'NONE', #165, #7 ) ;
#287 = FACE_OUTER_BOUND ( 'NONE', #139, .T. ) ;
#288 = CIRCLE ( 'NONE', #167, 2.799999999999999822 ) ;
#289 = EDGE_LOOP ( 'NONE', ( #178, #373, #124, #86 ) ) ;
#290 =( NAMED_UNIT ( * ) SI_UNIT ( $, .STERADIAN. ) SOLID_ANGLE_UNIT ( ) );
#291 = AXIS2_PLACEMENT_3D ( 'NONE', #125, #277, #363 ) ;
#292 = CC_DESIGN_APPROVAL ( #99, ( #374 ) ) ;
#293 = VERTEX_POINT ( 'NONE', #313 ) ;
#294 = PERSON_AND_ORGANIZATION ( #64, #87 ) ;
#295 = VERTEX_POINT ( 'NONE', #38 ) ;
#296 = APPROVAL_ROLE ( '' ) ;
#297 = ORIENTED_EDGE ( 'NONE', *, *, #58, .F. ) ;
#298 = CALENDAR_DATE ( 2022, 10, 7 ) ;
#299 = AXIS2_PLACEMENT_3D ( 'NONE', #65, #221, #186 ) ;
#300 = ORIENTED_EDGE ( 'NONE', *, *, #12, .F. ) ;
#301 = PERSON_AND_ORGANIZATION ( #64, #87 ) ;
#302 = ORIENTED_EDGE ( 'NONE', *, *, #91, .F. ) ;
#303 = ADVANCED_FACE ( 'NONE', ( #11 ), #368, .F. ) ;
#304 = COORDINATED_UNIVERSAL_TIME_OFFSET ( 1, 0, .AHEAD. ) ;
#305 = CARTESIAN_POINT ( 'NONE',  ( 5.000000000000000000, 6.123233995736766282E-16, 3.000000000000000000 ) ) ;
#306 = DIRECTION ( 'NONE',  ( 0.000000000000000000, 0.000000000000000000, -1.000000000000000000 ) ) ;
#307 = CYLINDRICAL_SURFACE ( 'NONE', #14, 1.600000000000000089 ) ;
#308 = AXIS2_PLACEMENT_3D ( 'NONE', #245, #340, #345 ) ;
#309 = DIRECTION ( 'NONE',  ( -0.000000000000000000, -0.000000000000000000, -1.000000000000000000 ) ) ;
#310 = DIRECTION ( 'NONE',  ( 1.000000000000000000, 0.000000000000000000, 0.000000000000000000 ) ) ;
#311 = EDGE_CURVE ( 'NONE', #295, #134, #270, .T. ) ;
#312 = APPLICATION_PROTOCOL_DEFINITION ( 'international standard', 'config_control_design', 1994, #6 ) ;
#313 = CARTESIAN_POINT ( 'NONE',  ( 5.000000000000000000, 6.123233995736766282E-16, 0.000000000000000000 ) ) ;
#314 = PRODUCT_DEFINITION_SHAPE ( 'NONE', 'NONE',  #374 ) ;
#315 = ORIENTED_EDGE ( 'NONE', *, *, #371, .T. ) ;
#316 = CARTESIAN_POINT ( 'NONE',  ( 0.000000000000000000, 0.000000000000000000, 0.000000000000000000 ) ) ;
#317 = DIRECTION ( 'NONE',  ( 1.000000000000000000, 0.000000000000000000, -0.000000000000000000 ) ) ;
#318 = CARTESIAN_POINT ( 'NONE',  ( 0.000000000000000000, 0.000000000000000000, 0.000000000000000000 ) ) ;
#319 = ORIENTED_EDGE ( 'NONE', *, *, #12, .T. ) ;
#320 = VECTOR ( 'NONE', #256, 1000.000000000000000 ) ;
#321 = ORIENTED_EDGE ( 'NONE', *, *, #348, .T. ) ;
#322 = DATE_AND_TIME ( #234, #254 ) ;
#323 = ORIENTED_EDGE ( 'NONE', *, *, #199, .F. ) ;
#324 = CC_DESIGN_DATE_AND_TIME_ASSIGNMENT ( #330, #228, ( #356 ) ) ;
#325 = APPROVAL_DATE_TIME ( #122, #190 ) ;
#326 = VERTEX_POINT ( 'NONE', #195 ) ;
#327 = DIRECTION ( 'NONE',  ( 1.000000000000000000, 0.000000000000000000, 0.000000000000000000 ) ) ;
#328 = AXIS2_PLACEMENT_3D ( 'NONE', #250, #132, #225 ) ;
#329 = VERTEX_POINT ( 'NONE', #151 ) ;
#330 = DATE_AND_TIME ( #350, #148 ) ;
#331 = CARTESIAN_POINT ( 'NONE',  ( 2.500000000000000000, 3.061616997868383141E-16, 3.299999999999997158 ) ) ;
#332 = AXIS2_PLACEMENT_3D ( 'NONE', #118, #147, #352 ) ;
#333 = CARTESIAN_POINT ( 'NONE',  ( 0.000000000000000000, 0.000000000000000000, 0.000000000000000000 ) ) ;
#334 = CARTESIAN_POINT ( 'NONE',  ( 5.000000000000000000, 6.123233995736766282E-16, 3.000000000000000000 ) ) ;
#335 = ADVANCED_FACE ( 'NONE', ( #273 ), #4, .T. ) ;
#336 = CARTESIAN_POINT ( 'NONE',  ( 0.000000000000000000, 0.000000000000000000, 128.0000000000000000 ) ) ;
#337 = CARTESIAN_POINT ( 'NONE',  ( 0.000000000000000000, 0.000000000000000000, 3.000000000000000000 ) ) ;
#338 = DIRECTION ( 'NONE',  ( 1.000000000000000000, 0.000000000000000000, 0.000000000000000000 ) ) ;
#339 = CARTESIAN_POINT ( 'NONE',  ( 0.000000000000000000, 0.000000000000000000, 3.299999999999997158 ) ) ;
#340 = DIRECTION ( 'NONE',  ( -0.000000000000000000, -0.000000000000000000, -1.000000000000000000 ) ) ;
#341 = DIRECTION ( 'NONE',  ( -0.000000000000000000, -0.000000000000000000, -1.000000000000000000 ) ) ;
#342 = ORIENTED_EDGE ( 'NONE', *, *, #153, .F. ) ;
#343 = DIRECTION ( 'NONE',  ( 0.000000000000000000, 0.000000000000000000, 1.000000000000000000 ) ) ;
#344 = CARTESIAN_POINT ( 'NONE',  ( 0.000000000000000000, 0.000000000000000000, 128.0000000000000000 ) ) ;
#345 = DIRECTION ( 'NONE',  ( -1.000000000000000000, 0.000000000000000000, 0.000000000000000000 ) ) ;
#346 = CC_DESIGN_PERSON_AND_ORGANIZATION_ASSIGNMENT ( #301, #236, ( #356 ) ) ;
#347 = TOROIDAL_SURFACE ( 'NONE', #258, 2.799999999999999822, 0.2999999999999999889 ) ;
#348 = EDGE_CURVE ( 'NONE', #329, #326, #224, .T. ) ;
#349 = EDGE_LOOP ( 'NONE', ( #297, #378, #181, #380 ) ) ;
#350 = CALENDAR_DATE ( 2022, 10, 7 ) ;
#351 = VERTEX_POINT ( 'NONE', #103 ) ;
#352 = DIRECTION ( 'NONE',  ( 1.000000000000000000, 0.000000000000000000, 0.000000000000000000 ) ) ;
#353 = AXIS2_PLACEMENT_3D ( 'NONE', #189, #128, #338 ) ;
#354 = APPROVAL_ROLE ( '' ) ;
#355 = ORIENTED_EDGE ( 'NONE', *, *, #249, .F. ) ;
#356 = SECURITY_CLASSIFICATION ( '', '', #215 ) ;
#357 = CIRCLE ( 'NONE', #201, 5.000000000000000000 ) ;
#358 = DIRECTION ( 'NONE',  ( 0.000000000000000000, 0.000000000000000000, 1.000000000000000000 ) ) ;
#359 = FACE_BOUND ( 'NONE', #263, .T. ) ;
#360 = DIRECTION ( 'NONE',  ( -0.000000000000000000, -0.000000000000000000, -1.000000000000000000 ) ) ;
#361 = CC_DESIGN_APPROVAL ( #30, ( #193 ) ) ;
#362 = AXIS2_PLACEMENT_3D ( 'NONE', #271, #358, #157 ) ;
#363 = DIRECTION ( 'NONE',  ( 1.000000000000000000, 0.000000000000000000, -0.000000000000000000 ) ) ;
#364 = FACE_OUTER_BOUND ( 'NONE', #39, .T. ) ;
#365 = CLOSED_SHELL ( 'NONE', ( #303, #272, #113, #28, #183, #145, #169, #335, #233, #101, #46 ) ) ;
#366 = FACE_OUTER_BOUND ( 'NONE', #289, .T. ) ;
#367 = DIRECTION ( 'NONE',  ( 1.000000000000000000, 0.000000000000000000, 0.000000000000000000 ) ) ;
#368 = CYLINDRICAL_SURFACE ( 'NONE', #240, 1.600000000000000089 ) ;
#369 = DIRECTION ( 'NONE',  ( 0.000000000000000000, 0.000000000000000000, -1.000000000000000000 ) ) ;
#370 = CARTESIAN_POINT ( 'NONE',  ( -2.799999999999999822, 3.429011037612589276E-16, 2.999999999999998668 ) ) ;
#371 = EDGE_CURVE ( 'NONE', #326, #293, #357, .T. ) ;
#372 = DIRECTION ( 'NONE',  ( 0.000000000000000000, 0.000000000000000000, 1.000000000000000000 ) ) ;
#373 = ORIENTED_EDGE ( 'NONE', *, *, #267, .T. ) ;
#374 = PRODUCT_DEFINITION ( 'NEZNÁMÝ', '', #193, #63 ) ;
#375 = VERTEX_POINT ( 'NONE', #45 ) ;
#376 = AXIS2_PLACEMENT_3D ( 'NONE', #218, #276, #29 ) ;
#377 = COORDINATED_UNIVERSAL_TIME_OFFSET ( 1, 0, .AHEAD. ) ;
#378 = ORIENTED_EDGE ( 'NONE', *, *, #311, .F. ) ;
#379 = PERSON_AND_ORGANIZATION_ROLE ( 'design_owner' ) ;
#380 = ORIENTED_EDGE ( 'NONE', *, *, #61, .T. ) ;
#381 = CALENDAR_DATE ( 2022, 10, 7 ) ;
ENDSEC;
END-ISO-10303-21;
