ISO-10303-21;
HEADER;
FILE_DESCRIPTION (( 'STEP AP203' ),
    '1' );
FILE_NAME ('1f10.STEP',
    '2022-07-10T09:06:06',
    ( '' ),
    ( '' ),
    'SwSTEP 2.0',
    'SolidWorks 2019',
    '' );
FILE_SCHEMA (( 'CONFIG_CONTROL_DESIGN' ));
ENDSEC;

DATA;
#1 = CARTESIAN_POINT ( 'NONE',  ( 8.000000000000000000, 9.797174393178825657E-16, 5.000000000000000000 ) ) ;
#2 = AXIS2_PLACEMENT_3D ( 'NONE', #255, #308, #364 ) ;
#3 = DIRECTION ( 'NONE',  ( 1.000000000000000000, 0.000000000000000000, 0.000000000000000000 ) ) ;
#4 = ADVANCED_FACE ( 'NONE', ( #229 ), #234, .T. ) ;
#5 = DIRECTION ( 'NONE',  ( -0.000000000000000000, -0.000000000000000000, -1.000000000000000000 ) ) ;
#6 = DIRECTION ( 'NONE',  ( 0.000000000000000000, 0.000000000000000000, 1.000000000000000000 ) ) ;
#7 = AXIS2_PLACEMENT_3D ( 'NONE', #81, #145, #377 ) ;
#8 = COORDINATED_UNIVERSAL_TIME_OFFSET ( 1, 0, .AHEAD. ) ;
#9 = DIRECTION ( 'NONE',  ( -1.000000000000000000, 0.000000000000000000, 0.000000000000000000 ) ) ;
#10 = ORIENTED_EDGE ( 'NONE', *, *, #64, .F. ) ;
#11 = PERSON_AND_ORGANIZATION ( #33, #208 ) ;
#12 = ORIENTED_EDGE ( 'NONE', *, *, #59, .T. ) ;
#13 = EDGE_LOOP ( 'NONE', ( #137, #46, #135, #38 ) ) ;
#14 = CARTESIAN_POINT ( 'NONE',  ( 0.000000000000000000, 0.000000000000000000, 205.0000000000000284 ) ) ;
#15 = ORIENTED_EDGE ( 'NONE', *, *, #107, .T. ) ;
#16 = ADVANCED_FACE ( 'NONE', ( #52 ), #206, .T. ) ;
#17 = PERSON_AND_ORGANIZATION_ROLE ( 'creator' ) ;
#18 = VERTEX_POINT ( 'NONE', #321 ) ;
#19 = VERTEX_POINT ( 'NONE', #109 ) ;
#20 = CARTESIAN_POINT ( 'NONE',  ( 0.000000000000000000, 0.000000000000000000, 5.000000000000000000 ) ) ;
#21 = CARTESIAN_POINT ( 'NONE',  ( 0.000000000000000000, 0.000000000000000000, 5.000000000000000000 ) ) ;
#22 = DIRECTION ( 'NONE',  ( -0.000000000000000000, -0.000000000000000000, -1.000000000000000000 ) ) ;
#23 = AXIS2_PLACEMENT_3D ( 'NONE', #66, #94, #197 ) ;
#24 = CARTESIAN_POINT ( 'NONE',  ( 8.000000000000000000, 9.797174393178825657E-16, 5.000000000000000000 ) ) ;
#25 = EDGE_CURVE ( 'NONE', #306, #225, #174, .T. ) ;
#26 = DIRECTION ( 'NONE',  ( -0.000000000000000000, -0.000000000000000000, -1.000000000000000000 ) ) ;
#27 = CARTESIAN_POINT ( 'NONE',  ( 3.000000000000000444, 3.673940397442060361E-16, 205.0000000000000284 ) ) ;
#28 = CIRCLE ( 'NONE', #82, 5.500000000000000000 ) ;
#29 = CARTESIAN_POINT ( 'NONE',  ( -8.000000000000000000, 0.000000000000000000, 0.000000000000000000 ) ) ;
#30 = DIRECTION ( 'NONE',  ( 0.000000000000000000, 0.000000000000000000, 1.000000000000000000 ) ) ;
#31 = CC_DESIGN_PERSON_AND_ORGANIZATION_ASSIGNMENT ( #243, #65, ( #214 ) ) ;
#32 = DATE_TIME_ROLE ( 'classification_date' ) ;
#33 = PERSON ( 'NEURÈENÝ', 'NEURÈENÝ', 'NEURÈENÝ', ('NEURÈENÝ'), ('NEURÈENÝ'), ('NEURÈENÝ') ) ;
#34 = FACE_BOUND ( 'NONE', #73, .T. ) ;
#35 = LOCAL_TIME ( 11, 6, 6.000000000000000000, #125 ) ;
#36 = CALENDAR_DATE ( 2022, 10, 7 ) ;
#37 = ADVANCED_FACE ( 'NONE', ( #349 ), #294, .T. ) ;
#38 = ORIENTED_EDGE ( 'NONE', *, *, #141, .F. ) ;
#39 = CARTESIAN_POINT ( 'NONE',  ( 0.000000000000000000, 0.000000000000000000, 0.000000000000000000 ) ) ;
#40 = VERTEX_POINT ( 'NONE', #51 ) ;
#41 = PERSON_AND_ORGANIZATION ( #33, #208 ) ;
#42 = VERTEX_POINT ( 'NONE', #201 ) ;
#43 = CIRCLE ( 'NONE', #74, 3.000000000000000444 ) ;
#44 = APPROVAL_DATE_TIME ( #312, #309 ) ;
#45 = ORIENTED_EDGE ( 'NONE', *, *, #87, .T. ) ;
#46 = ORIENTED_EDGE ( 'NONE', *, *, #25, .T. ) ;
#47 = APPLICATION_CONTEXT ( 'configuration controlled 3d designs of mechanical parts and assemblies' ) ;
#48 = DIRECTION ( 'NONE',  ( -0.000000000000000000, -0.000000000000000000, -1.000000000000000000 ) ) ;
#49 = LOCAL_TIME ( 11, 6, 6.000000000000000000, #147 ) ;
#50 = EDGE_CURVE ( 'NONE', #331, #306, #231, .T. ) ;
#51 = CARTESIAN_POINT ( 'NONE',  ( 3.000000000000000444, 3.673940397442060361E-16, 0.000000000000000000 ) ) ;
#52 = FACE_OUTER_BOUND ( 'NONE', #101, .T. ) ;
#53 = DIRECTION ( 'NONE',  ( 0.000000000000000000, 0.000000000000000000, 1.000000000000000000 ) ) ;
#54 = CIRCLE ( 'NONE', #265, 5.000000000000000000 ) ;
#55 = DIRECTION ( 'NONE',  ( -0.000000000000000000, -0.000000000000000000, -1.000000000000000000 ) ) ;
#56 = CARTESIAN_POINT ( 'NONE',  ( 0.000000000000000000, 0.000000000000000000, 0.000000000000000000 ) ) ;
#57 = APPROVAL_DATE_TIME ( #117, #110 ) ;
#58 = CARTESIAN_POINT ( 'NONE',  ( 0.000000000000000000, 0.000000000000000000, 205.0000000000000284 ) ) ;
#59 = EDGE_CURVE ( 'NONE', #167, #96, #270, .T. ) ;
#60 = CARTESIAN_POINT ( 'NONE',  ( 5.000000000000000000, 6.123233995736766282E-16, 205.0000000000000284 ) ) ;
#61 = APPROVAL_ROLE ( '' ) ;
#62 = MANIFOLD_SOLID_BREP ( 'Odebrat vysunutím3', #181 ) ;
#63 = CARTESIAN_POINT ( 'NONE',  ( 0.000000000000000000, 0.000000000000000000, 205.0000000000000284 ) ) ;
#64 = EDGE_CURVE ( 'NONE', #159, #40, #220, .T. ) ;
#65 = PERSON_AND_ORGANIZATION_ROLE ( 'creator' ) ;
#66 = CARTESIAN_POINT ( 'NONE',  ( 0.000000000000000000, 0.000000000000000000, 5.500000000000005329 ) ) ;
#67 =( GEOMETRIC_REPRESENTATION_CONTEXT ( 3 ) GLOBAL_UNCERTAINTY_ASSIGNED_CONTEXT ( ( #129 ) ) GLOBAL_UNIT_ASSIGNED_CONTEXT ( ( #157, #305, #134 ) ) REPRESENTATION_CONTEXT ( 'NONE', 'WORKASPACE' ) );
#68 = ORIENTED_EDGE ( 'NONE', *, *, #262, .F. ) ;
#69 = ORIENTED_EDGE ( 'NONE', *, *, #80, .F. ) ;
#70 = CARTESIAN_POINT ( 'NONE',  ( -5.000000000000000000, 0.000000000000000000, 5.500000000000005329 ) ) ;
#71 = ORIENTED_EDGE ( 'NONE', *, *, #64, .T. ) ;
#72 = CALENDAR_DATE ( 2022, 10, 7 ) ;
#73 = EDGE_LOOP ( 'NONE', ( #199, #291 ) ) ;
#74 = AXIS2_PLACEMENT_3D ( 'NONE', #380, #53, #376 ) ;
#75 = LOCAL_TIME ( 11, 6, 6.000000000000000000, #324 ) ;
#76 = ORIENTED_EDGE ( 'NONE', *, *, #151, .T. ) ;
#77 = DIRECTION ( 'NONE',  ( -0.000000000000000000, -0.000000000000000000, -1.000000000000000000 ) ) ;
#78 = CARTESIAN_POINT ( 'NONE',  ( 0.000000000000000000, 0.000000000000000000, 5.000000000000000000 ) ) ;
#79 = CARTESIAN_POINT ( 'NONE',  ( -8.000000000000000000, 0.000000000000000000, 5.000000000000000000 ) ) ;
#80 = EDGE_CURVE ( 'NONE', #363, #96, #176, .T. ) ;
#81 = CARTESIAN_POINT ( 'NONE',  ( 0.000000000000000000, 0.000000000000000000, 5.500000000000005329 ) ) ;
#82 = AXIS2_PLACEMENT_3D ( 'NONE', #293, #5, #209 ) ;
#83 = APPROVAL_PERSON_ORGANIZATION ( #326, #187, #61 ) ;
#84 = FACE_OUTER_BOUND ( 'NONE', #200, .T. ) ;
#85 = PERSON_AND_ORGANIZATION ( #33, #208 ) ;
#86 = DIRECTION ( 'NONE',  ( 0.000000000000000000, 0.000000000000000000, -1.000000000000000000 ) ) ;
#87 = EDGE_CURVE ( 'NONE', #19, #18, #43, .T. ) ;
#88 = DIRECTION ( 'NONE',  ( 1.000000000000000000, 0.000000000000000000, -0.000000000000000000 ) ) ;
#89 = CYLINDRICAL_SURFACE ( 'NONE', #247, 3.000000000000000444 ) ;
#90 = APPROVAL_STATUS ( 'not_yet_approved' ) ;
#91 = ADVANCED_FACE ( 'NONE', ( #178 ), #121, .F. ) ;
#92 = DIRECTION ( 'NONE',  ( 1.000000000000000000, 0.000000000000000000, 0.000000000000000000 ) ) ;
#93 = PRODUCT ( '1f10', '1f10', '', ( #333 ) ) ;
#94 = DIRECTION ( 'NONE',  ( 0.000000000000000000, 0.000000000000000000, 1.000000000000000000 ) ) ;
#95 = AXIS2_PLACEMENT_3D ( 'NONE', #111, #202, #344 ) ;
#96 = VERTEX_POINT ( 'NONE', #142 ) ;
#97 = ORIENTED_EDGE ( 'NONE', *, *, #362, .T. ) ;
#98 = CC_DESIGN_PERSON_AND_ORGANIZATION_ASSIGNMENT ( #149, #180, ( #214 ) ) ;
#99 = DIRECTION ( 'NONE',  ( 1.000000000000000000, 0.000000000000000000, 0.000000000000000000 ) ) ;
#100 = ORIENTED_EDGE ( 'NONE', *, *, #50, .T. ) ;
#101 = EDGE_LOOP ( 'NONE', ( #132, #127, #287, #374 ) ) ;
#102 = CIRCLE ( 'NONE', #372, 8.000000000000000000 ) ;
#103 = EDGE_LOOP ( 'NONE', ( #336, #224, #290, #196 ) ) ;
#104 = DIRECTION ( 'NONE',  ( 0.000000000000000000, 0.000000000000000000, 1.000000000000000000 ) ) ;
#105 = FACE_OUTER_BOUND ( 'NONE', #195, .T. ) ;
#106 = AXIS2_PLACEMENT_3D ( 'NONE', #319, #230, #205 ) ;
#107 = EDGE_CURVE ( 'NONE', #306, #331, #154, .T. ) ;
#108 = CIRCLE ( 'NONE', #203, 5.000000000000000000 ) ;
#109 = CARTESIAN_POINT ( 'NONE',  ( 3.000000000000000444, 3.673940397442060361E-16, 205.0000000000000284 ) ) ;
#110 = APPROVAL ( #90, 'NEURÈENÝ' ) ;
#111 = CARTESIAN_POINT ( 'NONE',  ( -5.500000000000000000, 6.735557395310442023E-16, 5.500000000000005329 ) ) ;
#112 = CARTESIAN_POINT ( 'NONE',  ( 0.000000000000000000, 0.000000000000000000, 205.0000000000000284 ) ) ;
#113 = AXIS2_PLACEMENT_3D ( 'NONE', #357, #123, #92 ) ;
#114 = CARTESIAN_POINT ( 'NONE',  ( 5.000000000000000000, 6.123233995736766282E-16, 205.0000000000000284 ) ) ;
#115 = PRODUCT_RELATED_PRODUCT_CATEGORY ( 'detail', '', ( #93 ) ) ;
#116 = ADVANCED_BREP_SHAPE_REPRESENTATION ( '1f10', ( #62, #303 ), #67 ) ;
#117 = DATE_AND_TIME ( #36, #75 ) ;
#118 = FACE_OUTER_BOUND ( 'NONE', #359, .T. ) ;
#119 = FACE_BOUND ( 'NONE', #133, .T. ) ;
#120 = EDGE_CURVE ( 'NONE', #225, #246, #102, .T. ) ;
#121 = TOROIDAL_SURFACE ( 'NONE', #7, 5.500000000000000000, 0.5000000000000000000 ) ;
#122 = AXIS2_PLACEMENT_3D ( 'NONE', #360, #300, #88 ) ;
#123 = DIRECTION ( 'NONE',  ( 0.000000000000000000, 0.000000000000000000, 1.000000000000000000 ) ) ;
#124 = APPROVAL_DATE_TIME ( #276, #187 ) ;
#125 = COORDINATED_UNIVERSAL_TIME_OFFSET ( 1, 0, .AHEAD. ) ;
#126 = DIRECTION ( 'NONE',  ( 1.000000000000000000, 0.000000000000000000, -0.000000000000000000 ) ) ;
#127 = ORIENTED_EDGE ( 'NONE', *, *, #50, .F. ) ;
#128 = PRODUCT_DEFINITION_SHAPE ( 'NONE', 'NONE',  #193 ) ;
#129 = UNCERTAINTY_MEASURE_WITH_UNIT (LENGTH_MEASURE( 1.000000000000000082E-05 ), #157, 'distance_accuracy_value', 'NONE');
#130 = AXIS2_PLACEMENT_3D ( 'NONE', #63, #146, #235 ) ;
#131 = VECTOR ( 'NONE', #277, 1000.000000000000000 ) ;
#132 = ORIENTED_EDGE ( 'NONE', *, *, #25, .F. ) ;
#133 = EDGE_LOOP ( 'NONE', ( #12, #165 ) ) ;
#134 =( NAMED_UNIT ( * ) SI_UNIT ( $, .STERADIAN. ) SOLID_ANGLE_UNIT ( ) );
#135 = ORIENTED_EDGE ( 'NONE', *, *, #120, .T. ) ;
#136 = ADVANCED_FACE ( 'NONE', ( #105 ), #381, .F. ) ;
#137 = ORIENTED_EDGE ( 'NONE', *, *, #107, .F. ) ;
#138 = AXIS2_PLACEMENT_3D ( 'NONE', #20, #77, #379 ) ;
#139 = DIRECTION ( 'NONE',  ( -1.000000000000000000, 0.000000000000000000, 0.000000000000000000 ) ) ;
#140 = DIRECTION ( 'NONE',  ( 1.000000000000000000, 0.000000000000000000, 0.000000000000000000 ) ) ;
#141 = EDGE_CURVE ( 'NONE', #331, #246, #347, .T. ) ;
#142 = CARTESIAN_POINT ( 'NONE',  ( -5.500000000000000000, 6.735557395310442023E-16, 5.000000000000002665 ) ) ;
#143 = AXIS2_PLACEMENT_3D ( 'NONE', #355, #296, #327 ) ;
#144 = CARTESIAN_POINT ( 'NONE',  ( -5.000000000000000000, 0.000000000000000000, 205.0000000000000284 ) ) ;
#145 = DIRECTION ( 'NONE',  ( 0.000000000000000000, 0.000000000000000000, 1.000000000000000000 ) ) ;
#146 = DIRECTION ( 'NONE',  ( -0.000000000000000000, -0.000000000000000000, -1.000000000000000000 ) ) ;
#147 = COORDINATED_UNIVERSAL_TIME_OFFSET ( 1, 0, .AHEAD. ) ;
#148 = FACE_OUTER_BOUND ( 'NONE', #250, .T. ) ;
#149 = PERSON_AND_ORGANIZATION ( #33, #208 ) ;
#150 = DIRECTION ( 'NONE',  ( 1.000000000000000000, 0.000000000000000000, 0.000000000000000000 ) ) ;
#151 = EDGE_CURVE ( 'NONE', #192, #363, #204, .T. ) ;
#152 = LINE ( 'NONE', #114, #131 ) ;
#153 = CALENDAR_DATE ( 2022, 10, 7 ) ;
#154 = CIRCLE ( 'NONE', #226, 8.000000000000000000 ) ;
#155 = FACE_OUTER_BOUND ( 'NONE', #365, .T. ) ;
#156 = APPROVAL_ROLE ( '' ) ;
#157 =( LENGTH_UNIT ( ) NAMED_UNIT ( * ) SI_UNIT ( .MILLI., .METRE. ) );
#158 = ORIENTED_EDGE ( 'NONE', *, *, #318, .T. ) ;
#159 = VERTEX_POINT ( 'NONE', #168 ) ;
#160 = FACE_OUTER_BOUND ( 'NONE', #256, .T. ) ;
#161 = CC_DESIGN_SECURITY_CLASSIFICATION ( #221, ( #214 ) ) ;
#162 = AXIS2_PLACEMENT_3D ( 'NONE', #325, #6, #184 ) ;
#163 = ORIENTED_EDGE ( 'NONE', *, *, #262, .T. ) ;
#164 = COORDINATED_UNIVERSAL_TIME_OFFSET ( 1, 0, .AHEAD. ) ;
#165 = ORIENTED_EDGE ( 'NONE', *, *, #166, .T. ) ;
#166 = EDGE_CURVE ( 'NONE', #96, #167, #28, .T. ) ;
#167 = VERTEX_POINT ( 'NONE', #237 ) ;
#168 = CARTESIAN_POINT ( 'NONE',  ( -3.000000000000000444, 0.000000000000000000, 0.000000000000000000 ) ) ;
#169 = AXIS2_PLACEMENT_3D ( 'NONE', #263, #104, #233 ) ;
#170 = AXIS2_PLACEMENT_3D ( 'NONE', #335, #194, #126 ) ;
#171 = ADVANCED_FACE ( 'NONE', ( #118 ), #89, .F. ) ;
#172 = DIRECTION ( 'NONE',  ( 1.000000000000000000, 0.000000000000000000, 0.000000000000000000 ) ) ;
#173 = CC_DESIGN_PERSON_AND_ORGANIZATION_ASSIGNMENT ( #41, #286, ( #93 ) ) ;
#174 = LINE ( 'NONE', #24, #241 ) ;
#175 = DIRECTION ( 'NONE',  ( 0.000000000000000000, 0.000000000000000000, 1.000000000000000000 ) ) ;
#176 = CIRCLE ( 'NONE', #95, 0.5000000000000004441 ) ;
#177 = APPROVAL_PERSON_ORGANIZATION ( #274, #110, #156 ) ;
#178 = FACE_OUTER_BOUND ( 'NONE', #103, .T. ) ;
#179 = DIRECTION ( 'NONE',  ( -0.000000000000000000, -0.000000000000000000, -1.000000000000000000 ) ) ;
#180 = PERSON_AND_ORGANIZATION_ROLE ( 'design_supplier' ) ;
#181 = CLOSED_SHELL ( 'NONE', ( #171, #91, #183, #37, #16, #266, #251, #4, #345, #356, #136 ) ) ;
#182 = PERSON_AND_ORGANIZATION_ROLE ( 'classification_officer' ) ;
#183 = ADVANCED_FACE ( 'NONE', ( #351 ), #217, .T. ) ;
#184 = DIRECTION ( 'NONE',  ( 1.000000000000000000, 0.000000000000000000, 0.000000000000000000 ) ) ;
#185 = CARTESIAN_POINT ( 'NONE',  ( -8.000000000000000000, 0.000000000000000000, 5.000000000000000000 ) ) ;
#186 = ORIENTED_EDGE ( 'NONE', *, *, #332, .T. ) ;
#187 = APPROVAL ( #218, 'NEURÈENÝ' ) ;
#188 = DIRECTION ( 'NONE',  ( 1.000000000000000000, 0.000000000000000000, -0.000000000000000000 ) ) ;
#189 = DATE_AND_TIME ( #210, #49 ) ;
#190 = AXIS2_PLACEMENT_3D ( 'NONE', #56, #244, #188 ) ;
#191 = CIRCLE ( 'NONE', #143, 5.000000000000000000 ) ;
#192 = VERTEX_POINT ( 'NONE', #328 ) ;
#193 = PRODUCT_DEFINITION ( 'NEZNÁMÝ', '', #214, #307 ) ;
#194 = DIRECTION ( 'NONE',  ( 0.000000000000000000, 0.000000000000000000, 1.000000000000000000 ) ) ;
#195 = EDGE_LOOP ( 'NONE', ( #253, #45, #259, #71 ) ) ;
#196 = ORIENTED_EDGE ( 'NONE', *, *, #323, .F. ) ;
#197 = DIRECTION ( 'NONE',  ( 1.000000000000000000, 0.000000000000000000, 0.000000000000000000 ) ) ;
#198 = CIRCLE ( 'NONE', #2, 3.000000000000000444 ) ;
#199 = ORIENTED_EDGE ( 'NONE', *, *, #353, .F. ) ;
#200 = EDGE_LOOP ( 'NONE', ( #219, #223 ) ) ;
#201 = CARTESIAN_POINT ( 'NONE',  ( 5.000000000000000000, 6.123233995736766282E-16, 5.500000000000005329 ) ) ;
#202 = DIRECTION ( 'NONE',  ( 1.224646799147353207E-16, 1.000000000000000000, -0.000000000000000000 ) ) ;
#203 = AXIS2_PLACEMENT_3D ( 'NONE', #299, #30, #150 ) ;
#204 = LINE ( 'NONE', #144, #257 ) ;
#205 = DIRECTION ( 'NONE',  ( 1.000000000000000000, 0.000000000000000000, 0.000000000000000000 ) ) ;
#206 = CYLINDRICAL_SURFACE ( 'NONE', #138, 8.000000000000000000 ) ;
#207 = AXIS2_PLACEMENT_3D ( 'NONE', #112, #295, #343 ) ;
#208 = ORGANIZATION ( 'NEURÈENÝ', 'NEURÈENÝ', '' ) ;
#209 = DIRECTION ( 'NONE',  ( 1.000000000000000000, 0.000000000000000000, 0.000000000000000000 ) ) ;
#210 = CALENDAR_DATE ( 2022, 10, 7 ) ;
#211 = LINE ( 'NONE', #27, #232 ) ;
#212 = LINE ( 'NONE', #275, #292 ) ;
#213 = AXIS2_PLACEMENT_3D ( 'NONE', #21, #22, #139 ) ;
#214 = PRODUCT_DEFINITION_FORMATION_WITH_SPECIFIED_SOURCE ( 'LIBOVOLNÝ', '', #93, .NOT_KNOWN. ) ;
#215 = PLANE ( 'NONE',  #122 ) ;
#216 = ORIENTED_EDGE ( 'NONE', *, *, #260, .T. ) ;
#217 = CYLINDRICAL_SURFACE ( 'NONE', #130, 5.000000000000000000 ) ;
#218 = APPROVAL_STATUS ( 'not_yet_approved' ) ;
#219 = ORIENTED_EDGE ( 'NONE', *, *, #342, .F. ) ;
#220 = CIRCLE ( 'NONE', #106, 3.000000000000000444 ) ;
#221 = SECURITY_CLASSIFICATION ( '', '', #272 ) ;
#222 = APPLICATION_PROTOCOL_DEFINITION ( 'international standard', 'config_control_design', 1994, #375 ) ;
#223 = ORIENTED_EDGE ( 'NONE', *, *, #120, .F. ) ;
#224 = ORIENTED_EDGE ( 'NONE', *, *, #80, .T. ) ;
#225 = VERTEX_POINT ( 'NONE', #298 ) ;
#226 = AXIS2_PLACEMENT_3D ( 'NONE', #78, #268, #261 ) ;
#227 = ORIENTED_EDGE ( 'NONE', *, *, #353, .T. ) ;
#228 = ORIENTED_EDGE ( 'NONE', *, *, #260, .F. ) ;
#229 = FACE_OUTER_BOUND ( 'NONE', #283, .T. ) ;
#230 = DIRECTION ( 'NONE',  ( -0.000000000000000000, -0.000000000000000000, -1.000000000000000000 ) ) ;
#231 = CIRCLE ( 'NONE', #169, 8.000000000000000000 ) ;
#232 = VECTOR ( 'NONE', #269, 1000.000000000000000 ) ;
#233 = DIRECTION ( 'NONE',  ( 1.000000000000000000, 0.000000000000000000, 0.000000000000000000 ) ) ;
#234 = CYLINDRICAL_SURFACE ( 'NONE', #316, 5.000000000000000000 ) ;
#235 = DIRECTION ( 'NONE',  ( -1.000000000000000000, 0.000000000000000000, 0.000000000000000000 ) ) ;
#236 = CARTESIAN_POINT ( 'NONE',  ( 5.500000000000000000, 0.000000000000000000, 5.500000000000005329 ) ) ;
#237 = CARTESIAN_POINT ( 'NONE',  ( 5.500000000000000000, 0.000000000000000000, 5.000000000000002665 ) ) ;
#238 = CC_DESIGN_PERSON_AND_ORGANIZATION_ASSIGNMENT ( #289, #17, ( #193 ) ) ;
#239 = DATE_TIME_ROLE ( 'creation_date' ) ;
#240 = PLANE ( 'NONE',  #190 ) ;
#241 = VECTOR ( 'NONE', #26, 1000.000000000000000 ) ;
#242 = APPROVAL_PERSON_ORGANIZATION ( #11, #309, #337 ) ;
#243 = PERSON_AND_ORGANIZATION ( #33, #208 ) ;
#244 = DIRECTION ( 'NONE',  ( 0.000000000000000000, 0.000000000000000000, 1.000000000000000000 ) ) ;
#245 = DIRECTION ( 'NONE',  ( 0.000000000000000000, 0.000000000000000000, 1.000000000000000000 ) ) ;
#246 = VERTEX_POINT ( 'NONE', #29 ) ;
#247 = AXIS2_PLACEMENT_3D ( 'NONE', #58, #322, #9 ) ;
#248 = CIRCLE ( 'NONE', #113, 8.000000000000000000 ) ;
#249 = DIRECTION ( 'NONE',  ( 0.000000000000000000, 0.000000000000000000, 1.000000000000000000 ) ) ;
#250 = EDGE_LOOP ( 'NONE', ( #100, #15 ) ) ;
#251 = ADVANCED_FACE ( 'NONE', ( #329, #84 ), #240, .F. ) ;
#252 = APPLICATION_PROTOCOL_DEFINITION ( 'international standard', 'config_control_design', 1994, #47 ) ;
#253 = ORIENTED_EDGE ( 'NONE', *, *, #297, .F. ) ;
#254 = CC_DESIGN_DATE_AND_TIME_ASSIGNMENT ( #361, #239, ( #193 ) ) ;
#255 = CARTESIAN_POINT ( 'NONE',  ( 0.000000000000000000, 0.000000000000000000, 205.0000000000000284 ) ) ;
#256 = EDGE_LOOP ( 'NONE', ( #69, #370, #301, #313 ) ) ;
#257 = VECTOR ( 'NONE', #48, 1000.000000000000000 ) ;
#258 = TOROIDAL_SURFACE ( 'NONE', #23, 5.500000000000000000, 0.5000000000000000000 ) ;
#259 = ORIENTED_EDGE ( 'NONE', *, *, #279, .T. ) ;
#260 = EDGE_CURVE ( 'NONE', #40, #159, #346, .T. ) ;
#261 = DIRECTION ( 'NONE',  ( 1.000000000000000000, 0.000000000000000000, 0.000000000000000000 ) ) ;
#262 = EDGE_CURVE ( 'NONE', #192, #334, #191, .T. ) ;
#263 = CARTESIAN_POINT ( 'NONE',  ( 0.000000000000000000, 0.000000000000000000, 5.000000000000000000 ) ) ;
#264 = CARTESIAN_POINT ( 'NONE',  ( 0.000000000000000000, 0.000000000000000000, 205.0000000000000284 ) ) ;
#265 = AXIS2_PLACEMENT_3D ( 'NONE', #14, #245, #99 ) ;
#266 = ADVANCED_FACE ( 'NONE', ( #119, #148 ), #215, .T. ) ;
#267 = CARTESIAN_POINT ( 'NONE',  ( 0.000000000000000000, 0.000000000000000000, 5.000000000000000000 ) ) ;
#268 = DIRECTION ( 'NONE',  ( 0.000000000000000000, 0.000000000000000000, 1.000000000000000000 ) ) ;
#269 = DIRECTION ( 'NONE',  ( 0.000000000000000000, 0.000000000000000000, -1.000000000000000000 ) ) ;
#270 = CIRCLE ( 'NONE', #284, 5.500000000000000000 ) ;
#271 = CC_DESIGN_APPROVAL ( #110, ( #221 ) ) ;
#272 = SECURITY_CLASSIFICATION_LEVEL ( 'unclassified' ) ;
#273 = DIRECTION ( 'NONE',  ( 0.000000000000000000, 0.000000000000000000, -1.000000000000000000 ) ) ;
#274 = PERSON_AND_ORGANIZATION ( #33, #208 ) ;
#275 = CARTESIAN_POINT ( 'NONE',  ( -3.000000000000000444, 0.000000000000000000, 205.0000000000000284 ) ) ;
#276 = DATE_AND_TIME ( #330, #352 ) ;
#277 = DIRECTION ( 'NONE',  ( -0.000000000000000000, -0.000000000000000000, -1.000000000000000000 ) ) ;
#278 = CIRCLE ( 'NONE', #311, 0.5000000000000004441 ) ;
#279 = EDGE_CURVE ( 'NONE', #18, #159, #212, .T. ) ;
#280 = PLANE ( 'NONE',  #170 ) ;
#281 = SHAPE_DEFINITION_REPRESENTATION ( #128, #116 ) ;
#282 = ORIENTED_EDGE ( 'NONE', *, *, #297, .T. ) ;
#283 = EDGE_LOOP ( 'NONE', ( #338, #68, #76, #310 ) ) ;
#284 = AXIS2_PLACEMENT_3D ( 'NONE', #267, #55, #172 ) ;
#285 = AXIS2_PLACEMENT_3D ( 'NONE', #302, #179, #3 ) ;
#286 = PERSON_AND_ORGANIZATION_ROLE ( 'design_owner' ) ;
#287 = ORIENTED_EDGE ( 'NONE', *, *, #141, .T. ) ;
#288 = CC_DESIGN_DATE_AND_TIME_ASSIGNMENT ( #189, #32, ( #221 ) ) ;
#289 = PERSON_AND_ORGANIZATION ( #33, #208 ) ;
#290 = ORIENTED_EDGE ( 'NONE', *, *, #59, .F. ) ;
#291 = ORIENTED_EDGE ( 'NONE', *, *, #87, .F. ) ;
#292 = VECTOR ( 'NONE', #86, 1000.000000000000000 ) ;
#293 = CARTESIAN_POINT ( 'NONE',  ( 0.000000000000000000, 0.000000000000000000, 5.000000000000000000 ) ) ;
#294 = CYLINDRICAL_SURFACE ( 'NONE', #213, 8.000000000000000000 ) ;
#295 = DIRECTION ( 'NONE',  ( 0.000000000000000000, 0.000000000000000000, -1.000000000000000000 ) ) ;
#296 = DIRECTION ( 'NONE',  ( 0.000000000000000000, 0.000000000000000000, 1.000000000000000000 ) ) ;
#297 = EDGE_CURVE ( 'NONE', #19, #40, #211, .T. ) ;
#298 = CARTESIAN_POINT ( 'NONE',  ( 8.000000000000000000, 9.797174393178825657E-16, 0.000000000000000000 ) ) ;
#299 = CARTESIAN_POINT ( 'NONE',  ( 0.000000000000000000, 0.000000000000000000, 5.500000000000005329 ) ) ;
#300 = DIRECTION ( 'NONE',  ( 0.000000000000000000, 0.000000000000000000, 1.000000000000000000 ) ) ;
#301 = ORIENTED_EDGE ( 'NONE', *, *, #323, .T. ) ;
#302 = CARTESIAN_POINT ( 'NONE',  ( 0.000000000000000000, 0.000000000000000000, 0.000000000000000000 ) ) ;
#303 = AXIS2_PLACEMENT_3D ( 'NONE', #39, #249, #367 ) ;
#304 = ORIENTED_EDGE ( 'NONE', *, *, #362, .F. ) ;
#305 =( NAMED_UNIT ( * ) PLANE_ANGLE_UNIT ( ) SI_UNIT ( $, .RADIAN. ) );
#306 = VERTEX_POINT ( 'NONE', #1 ) ;
#307 = DESIGN_CONTEXT ( 'detailed design', #47, 'design' ) ;
#308 = DIRECTION ( 'NONE',  ( 0.000000000000000000, 0.000000000000000000, 1.000000000000000000 ) ) ;
#309 = APPROVAL ( #369, 'NEURÈENÝ' ) ;
#310 = ORIENTED_EDGE ( 'NONE', *, *, #340, .T. ) ;
#311 = AXIS2_PLACEMENT_3D ( 'NONE', #236, #354, #273 ) ;
#312 = DATE_AND_TIME ( #72, #378 ) ;
#313 = ORIENTED_EDGE ( 'NONE', *, *, #166, .F. ) ;
#314 = EDGE_LOOP ( 'NONE', ( #304, #158, #186, #341 ) ) ;
#315 = DIRECTION ( 'NONE',  ( -0.000000000000000000, -0.000000000000000000, -1.000000000000000000 ) ) ;
#316 = AXIS2_PLACEMENT_3D ( 'NONE', #264, #317, #350 ) ;
#317 = DIRECTION ( 'NONE',  ( -0.000000000000000000, -0.000000000000000000, -1.000000000000000000 ) ) ;
#318 = EDGE_CURVE ( 'NONE', #334, #42, #152, .T. ) ;
#319 = CARTESIAN_POINT ( 'NONE',  ( 0.000000000000000000, 0.000000000000000000, 0.000000000000000000 ) ) ;
#320 = CARTESIAN_POINT ( 'NONE',  ( 0.000000000000000000, 0.000000000000000000, 0.000000000000000000 ) ) ;
#321 = CARTESIAN_POINT ( 'NONE',  ( -3.000000000000000444, 0.000000000000000000, 205.0000000000000284 ) ) ;
#322 = DIRECTION ( 'NONE',  ( 0.000000000000000000, 0.000000000000000000, -1.000000000000000000 ) ) ;
#323 = EDGE_CURVE ( 'NONE', #42, #167, #278, .T. ) ;
#324 = COORDINATED_UNIVERSAL_TIME_OFFSET ( 1, 0, .AHEAD. ) ;
#325 = CARTESIAN_POINT ( 'NONE',  ( 0.000000000000000000, 0.000000000000000000, 5.500000000000005329 ) ) ;
#326 = PERSON_AND_ORGANIZATION ( #33, #208 ) ;
#327 = DIRECTION ( 'NONE',  ( 1.000000000000000000, 0.000000000000000000, 0.000000000000000000 ) ) ;
#328 = CARTESIAN_POINT ( 'NONE',  ( -5.000000000000000000, 0.000000000000000000, 205.0000000000000284 ) ) ;
#329 = FACE_BOUND ( 'NONE', #371, .T. ) ;
#330 = CALENDAR_DATE ( 2022, 10, 7 ) ;
#331 = VERTEX_POINT ( 'NONE', #185 ) ;
#332 = EDGE_CURVE ( 'NONE', #42, #363, #358, .T. ) ;
#333 = MECHANICAL_CONTEXT ( 'NONE', #375, 'mechanical' ) ;
#334 = VERTEX_POINT ( 'NONE', #60 ) ;
#335 = CARTESIAN_POINT ( 'NONE',  ( 0.000000000000000000, 0.000000000000000000, 205.0000000000000284 ) ) ;
#336 = ORIENTED_EDGE ( 'NONE', *, *, #340, .F. ) ;
#337 = APPROVAL_ROLE ( '' ) ;
#338 = ORIENTED_EDGE ( 'NONE', *, *, #318, .F. ) ;
#339 = CC_DESIGN_APPROVAL ( #187, ( #214 ) ) ;
#340 = EDGE_CURVE ( 'NONE', #363, #42, #108, .T. ) ;
#341 = ORIENTED_EDGE ( 'NONE', *, *, #151, .F. ) ;
#342 = EDGE_CURVE ( 'NONE', #246, #225, #248, .T. ) ;
#343 = DIRECTION ( 'NONE',  ( -1.000000000000000000, 0.000000000000000000, 0.000000000000000000 ) ) ;
#344 = DIRECTION ( 'NONE',  ( -1.000000000000000000, 1.224646799147351482E-16, 0.000000000000000000 ) ) ;
#345 = ADVANCED_FACE ( 'NONE', ( #34, #155 ), #280, .T. ) ;
#346 = CIRCLE ( 'NONE', #285, 3.000000000000000444 ) ;
#347 = LINE ( 'NONE', #79, #366 ) ;
#348 = CC_DESIGN_PERSON_AND_ORGANIZATION_ASSIGNMENT ( #85, #182, ( #221 ) ) ;
#349 = FACE_OUTER_BOUND ( 'NONE', #13, .T. ) ;
#350 = DIRECTION ( 'NONE',  ( -1.000000000000000000, 0.000000000000000000, 0.000000000000000000 ) ) ;
#351 = FACE_OUTER_BOUND ( 'NONE', #314, .T. ) ;
#352 = LOCAL_TIME ( 11, 6, 6.000000000000000000, #8 ) ;
#353 = EDGE_CURVE ( 'NONE', #18, #19, #198, .T. ) ;
#354 = DIRECTION ( 'NONE',  ( 0.000000000000000000, -1.000000000000000000, 0.000000000000000000 ) ) ;
#355 = CARTESIAN_POINT ( 'NONE',  ( 0.000000000000000000, 0.000000000000000000, 205.0000000000000284 ) ) ;
#356 = ADVANCED_FACE ( 'NONE', ( #160 ), #258, .F. ) ;
#357 = CARTESIAN_POINT ( 'NONE',  ( 0.000000000000000000, 0.000000000000000000, 0.000000000000000000 ) ) ;
#358 = CIRCLE ( 'NONE', #162, 5.000000000000000000 ) ;
#359 = EDGE_LOOP ( 'NONE', ( #227, #282, #216, #368 ) ) ;
#360 = CARTESIAN_POINT ( 'NONE',  ( 0.000000000000000000, 0.000000000000000000, 5.000000000000000000 ) ) ;
#361 = DATE_AND_TIME ( #153, #35 ) ;
#362 = EDGE_CURVE ( 'NONE', #334, #192, #54, .T. ) ;
#363 = VERTEX_POINT ( 'NONE', #70 ) ;
#364 = DIRECTION ( 'NONE',  ( 1.000000000000000000, 0.000000000000000000, 0.000000000000000000 ) ) ;
#365 = EDGE_LOOP ( 'NONE', ( #163, #97 ) ) ;
#366 = VECTOR ( 'NONE', #315, 1000.000000000000000 ) ;
#367 = DIRECTION ( 'NONE',  ( 1.000000000000000000, 0.000000000000000000, 0.000000000000000000 ) ) ;
#368 = ORIENTED_EDGE ( 'NONE', *, *, #279, .F. ) ;
#369 = APPROVAL_STATUS ( 'not_yet_approved' ) ;
#370 = ORIENTED_EDGE ( 'NONE', *, *, #332, .F. ) ;
#371 = EDGE_LOOP ( 'NONE', ( #10, #228 ) ) ;
#372 = AXIS2_PLACEMENT_3D ( 'NONE', #320, #175, #140 ) ;
#373 = CC_DESIGN_APPROVAL ( #309, ( #193 ) ) ;
#374 = ORIENTED_EDGE ( 'NONE', *, *, #342, .T. ) ;
#375 = APPLICATION_CONTEXT ( 'configuration controlled 3d designs of mechanical parts and assemblies' ) ;
#376 = DIRECTION ( 'NONE',  ( 1.000000000000000000, 0.000000000000000000, 0.000000000000000000 ) ) ;
#377 = DIRECTION ( 'NONE',  ( 1.000000000000000000, 0.000000000000000000, 0.000000000000000000 ) ) ;
#378 = LOCAL_TIME ( 11, 6, 6.000000000000000000, #164 ) ;
#379 = DIRECTION ( 'NONE',  ( -1.000000000000000000, 0.000000000000000000, 0.000000000000000000 ) ) ;
#380 = CARTESIAN_POINT ( 'NONE',  ( 0.000000000000000000, 0.000000000000000000, 205.0000000000000284 ) ) ;
#381 = CYLINDRICAL_SURFACE ( 'NONE', #207, 3.000000000000000444 ) ;
ENDSEC;
END-ISO-10303-21;
