ISO-10303-21;
HEADER;
FILE_DESCRIPTION (( 'STEP AP203' ),
    '1' );
FILE_NAME ('2d5b.STEP',
    '2022-07-10T09:10:03',
    ( '' ),
    ( '' ),
    'SwSTEP 2.0',
    'SolidWorks 2019',
    '' );
FILE_SCHEMA (( 'CONFIG_CONTROL_DESIGN' ));
ENDSEC;

DATA;
#1 = DIRECTION ( 'NONE',  ( -0.000000000000000000, -0.000000000000000000, -1.000000000000000000 ) ) ;
#2 = ADVANCED_FACE ( 'NONE', ( #226 ), #327, .T. ) ;
#3 = CARTESIAN_POINT ( 'NONE',  ( 7.000000000000000000, 8.572527594031473190E-16, 5.000000000000000000 ) ) ;
#4 = DIRECTION ( 'NONE',  ( 0.000000000000000000, 0.000000000000000000, 1.000000000000000000 ) ) ;
#5 = EDGE_CURVE ( 'NONE', #216, #209, #310, .T. ) ;
#6 = CIRCLE ( 'NONE', #53, 2.500000000000000000 ) ;
#7 = AXIS2_PLACEMENT_3D ( 'NONE', #90, #295, #364 ) ;
#8 = APPROVAL_ROLE ( '' ) ;
#9 = PERSON_AND_ORGANIZATION_ROLE ( 'design_supplier' ) ;
#10 = DIRECTION ( 'NONE',  ( -0.000000000000000000, -0.000000000000000000, -1.000000000000000000 ) ) ;
#11 = APPROVAL_ROLE ( '' ) ;
#12 = SECURITY_CLASSIFICATION ( '', '', #115 ) ;
#13 = FACE_OUTER_BOUND ( 'NONE', #27, .T. ) ;
#14 = EDGE_CURVE ( 'NONE', #70, #216, #38, .T. ) ;
#15 = CALENDAR_DATE ( 2022, 10, 7 ) ;
#16 = ORIENTED_EDGE ( 'NONE', *, *, #239, .T. ) ;
#17 = CARTESIAN_POINT ( 'NONE',  ( 4.500000000000000888, 0.000000000000000000, 5.500000000000005329 ) ) ;
#18 = ORIENTED_EDGE ( 'NONE', *, *, #336, .F. ) ;
#19 = CC_DESIGN_APPROVAL ( #94, ( #99 ) ) ;
#20 = CARTESIAN_POINT ( 'NONE',  ( 7.000000000000000000, 8.572527594031473190E-16, 5.000000000000000000 ) ) ;
#21 = EDGE_CURVE ( 'NONE', #205, #340, #356, .T. ) ;
#22 = LINE ( 'NONE', #222, #206 ) ;
#23 = SHAPE_DEFINITION_REPRESENTATION ( #201, #103 ) ;
#24 = CLOSED_SHELL ( 'NONE', ( #321, #165, #263, #46, #291, #112, #247, #2, #77, #252, #131 ) ) ;
#25 = CARTESIAN_POINT ( 'NONE',  ( -4.500000000000000888, 5.510910596163088569E-16, 5.000000000000002665 ) ) ;
#26 = TOROIDAL_SURFACE ( 'NONE', #67, 4.500000000000000888, 0.5000000000000000000 ) ;
#27 = EDGE_LOOP ( 'NONE', ( #189, #180 ) ) ;
#28 = DIRECTION ( 'NONE',  ( 0.000000000000000000, 0.000000000000000000, 1.000000000000000000 ) ) ;
#29 = DIRECTION ( 'NONE',  ( -0.000000000000000000, -0.000000000000000000, -1.000000000000000000 ) ) ;
#30 = PRODUCT_DEFINITION_FORMATION_WITH_SPECIFIED_SOURCE ( 'LIBOVOLNÝ', '', #166, .NOT_KNOWN. ) ;
#31 = EDGE_LOOP ( 'NONE', ( #259, #200 ) ) ;
#32 = LINE ( 'NONE', #58, #312 ) ;
#33 = AXIS2_PLACEMENT_3D ( 'NONE', #344, #132, #49 ) ;
#34 = CC_DESIGN_PERSON_AND_ORGANIZATION_ASSIGNMENT ( #329, #9, ( #30 ) ) ;
#35 = FACE_BOUND ( 'NONE', #308, .T. ) ;
#36 = DIRECTION ( 'NONE',  ( 0.000000000000000000, 0.000000000000000000, 1.000000000000000000 ) ) ;
#37 = CALENDAR_DATE ( 2022, 10, 7 ) ;
#38 = LINE ( 'NONE', #185, #130 ) ;
#39 = PERSON ( 'NEURÈENÝ', 'NEURÈENÝ', 'NEURÈENÝ', ('NEURÈENÝ'), ('NEURÈENÝ'), ('NEURÈENÝ') ) ;
#40 = CALENDAR_DATE ( 2022, 10, 7 ) ;
#41 = FACE_OUTER_BOUND ( 'NONE', #104, .T. ) ;
#42 = PERSON_AND_ORGANIZATION_ROLE ( 'classification_officer' ) ;
#43 = APPROVAL_DATE_TIME ( #114, #94 ) ;
#44 = CARTESIAN_POINT ( 'NONE',  ( 0.000000000000000000, 0.000000000000000000, 105.0000000000000142 ) ) ;
#45 = ORIENTED_EDGE ( 'NONE', *, *, #375, .F. ) ;
#46 = ADVANCED_FACE ( 'NONE', ( #272 ), #296, .T. ) ;
#47 = DIRECTION ( 'NONE',  ( 1.000000000000000000, 0.000000000000000000, 0.000000000000000000 ) ) ;
#48 = CIRCLE ( 'NONE', #105, 7.000000000000000000 ) ;
#49 = DIRECTION ( 'NONE',  ( 1.000000000000000000, 0.000000000000000000, 0.000000000000000000 ) ) ;
#50 = DIRECTION ( 'NONE',  ( -0.000000000000000000, -0.000000000000000000, -1.000000000000000000 ) ) ;
#51 = VERTEX_POINT ( 'NONE', #270 ) ;
#52 = DIRECTION ( 'NONE',  ( 1.000000000000000000, 0.000000000000000000, 0.000000000000000000 ) ) ;
#53 = AXIS2_PLACEMENT_3D ( 'NONE', #106, #101, #52 ) ;
#54 = EDGE_LOOP ( 'NONE', ( #248, #377 ) ) ;
#55 = EDGE_CURVE ( 'NONE', #142, #154, #108, .T. ) ;
#56 = DIRECTION ( 'NONE',  ( 1.000000000000000000, 0.000000000000000000, 0.000000000000000000 ) ) ;
#57 = AXIS2_PLACEMENT_3D ( 'NONE', #44, #127, #79 ) ;
#58 = CARTESIAN_POINT ( 'NONE',  ( 4.000000000000000000, 4.898587196589412829E-16, 105.0000000000000142 ) ) ;
#59 = EDGE_LOOP ( 'NONE', ( #220, #237, #171, #152 ) ) ;
#60 = DATE_TIME_ROLE ( 'classification_date' ) ;
#61 = DIRECTION ( 'NONE',  ( 1.000000000000000000, 0.000000000000000000, 0.000000000000000000 ) ) ;
#62 = COORDINATED_UNIVERSAL_TIME_OFFSET ( 1, 0, .AHEAD. ) ;
#63 = DIRECTION ( 'NONE',  ( -0.000000000000000000, -0.000000000000000000, -1.000000000000000000 ) ) ;
#64 = CALENDAR_DATE ( 2022, 10, 7 ) ;
#65 = ORIENTED_EDGE ( 'NONE', *, *, #182, .T. ) ;
#66 = EDGE_CURVE ( 'NONE', #51, #158, #242, .T. ) ;
#67 = AXIS2_PLACEMENT_3D ( 'NONE', #264, #320, #56 ) ;
#68 = CARTESIAN_POINT ( 'NONE',  ( 0.000000000000000000, 0.000000000000000000, 0.000000000000000000 ) ) ;
#69 = EDGE_LOOP ( 'NONE', ( #345, #337, #371, #223 ) ) ;
#70 = VERTEX_POINT ( 'NONE', #298 ) ;
#71 = EDGE_LOOP ( 'NONE', ( #347, #381, #16, #368 ) ) ;
#72 = CARTESIAN_POINT ( 'NONE',  ( 0.000000000000000000, 0.000000000000000000, 0.000000000000000000 ) ) ;
#73 = LOCAL_TIME ( 11, 10, 3.000000000000000000, #62 ) ;
#74 = DIRECTION ( 'NONE',  ( 0.000000000000000000, 0.000000000000000000, -1.000000000000000000 ) ) ;
#75 = FACE_OUTER_BOUND ( 'NONE', #172, .T. ) ;
#76 = ORIENTED_EDGE ( 'NONE', *, *, #239, .F. ) ;
#77 = ADVANCED_FACE ( 'NONE', ( #91, #13 ), #367, .T. ) ;
#78 = CARTESIAN_POINT ( 'NONE',  ( 0.000000000000000000, 0.000000000000000000, 5.000000000000000000 ) ) ;
#79 = DIRECTION ( 'NONE',  ( -1.000000000000000000, 0.000000000000000000, 0.000000000000000000 ) ) ;
#80 = CIRCLE ( 'NONE', #317, 0.5000000000000004441 ) ;
#81 = FACE_OUTER_BOUND ( 'NONE', #219, .T. ) ;
#82 = APPLICATION_CONTEXT ( 'configuration controlled 3d designs of mechanical parts and assemblies' ) ;
#83 = EDGE_CURVE ( 'NONE', #340, #205, #6, .T. ) ;
#84 = DIRECTION ( 'NONE',  ( 1.000000000000000000, 0.000000000000000000, 0.000000000000000000 ) ) ;
#85 = ORIENTED_EDGE ( 'NONE', *, *, #306, .F. ) ;
#86 = CC_DESIGN_PERSON_AND_ORGANIZATION_ASSIGNMENT ( #88, #210, ( #30 ) ) ;
#87 = CARTESIAN_POINT ( 'NONE',  ( 0.000000000000000000, 0.000000000000000000, 105.0000000000000142 ) ) ;
#88 = PERSON_AND_ORGANIZATION ( #39, #335 ) ;
#89 = APPROVAL_STATUS ( 'not_yet_approved' ) ;
#90 = CARTESIAN_POINT ( 'NONE',  ( 0.000000000000000000, 0.000000000000000000, 0.000000000000000000 ) ) ;
#91 = FACE_BOUND ( 'NONE', #125, .T. ) ;
#92 = AXIS2_PLACEMENT_3D ( 'NONE', #17, #293, #355 ) ;
#93 = PERSON_AND_ORGANIZATION ( #39, #335 ) ;
#94 = APPROVAL ( #89, 'NEURÈENÝ' ) ;
#95 = ORIENTED_EDGE ( 'NONE', *, *, #175, .T. ) ;
#96 = APPROVAL_STATUS ( 'not_yet_approved' ) ;
#97 = AXIS2_PLACEMENT_3D ( 'NONE', #68, #271, #241 ) ;
#98 = DIRECTION ( 'NONE',  ( -0.000000000000000000, -0.000000000000000000, -1.000000000000000000 ) ) ;
#99 = PRODUCT_DEFINITION ( 'NEZNÁMÝ', '', #30, #348 ) ;
#100 = ORIENTED_EDGE ( 'NONE', *, *, #175, .F. ) ;
#101 = DIRECTION ( 'NONE',  ( 0.000000000000000000, 0.000000000000000000, 1.000000000000000000 ) ) ;
#102 = ORIENTED_EDGE ( 'NONE', *, *, #55, .F. ) ;
#103 = ADVANCED_BREP_SHAPE_REPRESENTATION ( '2d5b', ( #362, #97 ), #144 ) ;
#104 = EDGE_LOOP ( 'NONE', ( #102, #313, #225, #18 ) ) ;
#105 = AXIS2_PLACEMENT_3D ( 'NONE', #351, #163, #262 ) ;
#106 = CARTESIAN_POINT ( 'NONE',  ( 0.000000000000000000, 0.000000000000000000, 105.0000000000000142 ) ) ;
#107 = DIRECTION ( 'NONE',  ( -1.000000000000000000, 0.000000000000000000, 0.000000000000000000 ) ) ;
#108 = CIRCLE ( 'NONE', #117, 4.000000000000000000 ) ;
#109 = APPROVAL_PERSON_ORGANIZATION ( #93, #94, #8 ) ;
#110 = EDGE_CURVE ( 'NONE', #267, #195, #181, .T. ) ;
#111 = ORIENTED_EDGE ( 'NONE', *, *, #275, .T. ) ;
#112 = ADVANCED_FACE ( 'NONE', ( #192, #156 ), #338, .T. ) ;
#113 = CIRCLE ( 'NONE', #92, 0.5000000000000004441 ) ;
#114 = DATE_AND_TIME ( #120, #174 ) ;
#115 = SECURITY_CLASSIFICATION_LEVEL ( 'unclassified' ) ;
#116 = PLANE ( 'NONE',  #7 ) ;
#117 = AXIS2_PLACEMENT_3D ( 'NONE', #149, #153, #358 ) ;
#118 = EDGE_CURVE ( 'NONE', #154, #142, #323, .T. ) ;
#119 = DIRECTION ( 'NONE',  ( -1.000000000000000000, 0.000000000000000000, 0.000000000000000000 ) ) ;
#120 = CALENDAR_DATE ( 2022, 10, 7 ) ;
#121 = DATE_AND_TIME ( #40, #73 ) ;
#122 = CARTESIAN_POINT ( 'NONE',  ( 0.000000000000000000, 0.000000000000000000, 5.500000000000005329 ) ) ;
#123 = EDGE_CURVE ( 'NONE', #205, #286, #22, .T. ) ;
#124 = CIRCLE ( 'NONE', #251, 2.500000000000000000 ) ;
#125 = EDGE_LOOP ( 'NONE', ( #343, #137 ) ) ;
#126 = CARTESIAN_POINT ( 'NONE',  ( 0.000000000000000000, 0.000000000000000000, 5.000000000000000000 ) ) ;
#127 = DIRECTION ( 'NONE',  ( -0.000000000000000000, -0.000000000000000000, -1.000000000000000000 ) ) ;
#128 = ORIENTED_EDGE ( 'NONE', *, *, #123, .T. ) ;
#129 = ORIENTED_EDGE ( 'NONE', *, *, #336, .T. ) ;
#130 = VECTOR ( 'NONE', #211, 1000.000000000000000 ) ;
#131 = ADVANCED_FACE ( 'NONE', ( #305 ), #196, .F. ) ;
#132 = DIRECTION ( 'NONE',  ( -0.000000000000000000, -0.000000000000000000, -1.000000000000000000 ) ) ;
#133 = CC_DESIGN_SECURITY_CLASSIFICATION ( #12, ( #30 ) ) ;
#134 = ORIENTED_EDGE ( 'NONE', *, *, #349, .F. ) ;
#135 = DIRECTION ( 'NONE',  ( 0.000000000000000000, 0.000000000000000000, 1.000000000000000000 ) ) ;
#136 = DIRECTION ( 'NONE',  ( 0.000000000000000000, 0.000000000000000000, 1.000000000000000000 ) ) ;
#137 = ORIENTED_EDGE ( 'NONE', *, *, #83, .F. ) ;
#138 = CARTESIAN_POINT ( 'NONE',  ( 2.500000000000000000, 3.061616997868383141E-16, 105.0000000000000142 ) ) ;
#139 = LOCAL_TIME ( 11, 10, 3.000000000000000000, #359 ) ;
#140 = CARTESIAN_POINT ( 'NONE',  ( -4.000000000000000000, 0.000000000000000000, 5.500000000000005329 ) ) ;
#141 = PRODUCT_RELATED_PRODUCT_CATEGORY ( 'detail', '', ( #166 ) ) ;
#142 = VERTEX_POINT ( 'NONE', #236 ) ;
#143 =( NAMED_UNIT ( * ) PLANE_ANGLE_UNIT ( ) SI_UNIT ( $, .RADIAN. ) );
#144 =( GEOMETRIC_REPRESENTATION_CONTEXT ( 3 ) GLOBAL_UNCERTAINTY_ASSIGNED_CONTEXT ( ( #265 ) ) GLOBAL_UNIT_ASSIGNED_CONTEXT ( ( #324, #143, #266 ) ) REPRESENTATION_CONTEXT ( 'NONE', 'WORKASPACE' ) );
#145 = FACE_OUTER_BOUND ( 'NONE', #31, .T. ) ;
#146 = COORDINATED_UNIVERSAL_TIME_OFFSET ( 1, 0, .AHEAD. ) ;
#147 = CARTESIAN_POINT ( 'NONE',  ( -7.000000000000000000, 0.000000000000000000, 0.000000000000000000 ) ) ;
#148 = AXIS2_PLACEMENT_3D ( 'NONE', #253, #373, #221 ) ;
#149 = CARTESIAN_POINT ( 'NONE',  ( 0.000000000000000000, 0.000000000000000000, 105.0000000000000142 ) ) ;
#150 = CC_DESIGN_APPROVAL ( #297, ( #30 ) ) ;
#151 = DATE_AND_TIME ( #64, #139 ) ;
#152 = ORIENTED_EDGE ( 'NONE', *, *, #14, .F. ) ;
#153 = DIRECTION ( 'NONE',  ( 0.000000000000000000, 0.000000000000000000, 1.000000000000000000 ) ) ;
#154 = VERTEX_POINT ( 'NONE', #203 ) ;
#155 = AXIS2_PLACEMENT_3D ( 'NONE', #126, #287, #254 ) ;
#156 = FACE_OUTER_BOUND ( 'NONE', #233, .T. ) ;
#157 = LINE ( 'NONE', #282, #274 ) ;
#158 = VERTEX_POINT ( 'NONE', #140 ) ;
#159 = CARTESIAN_POINT ( 'NONE',  ( 0.000000000000000000, 0.000000000000000000, 105.0000000000000142 ) ) ;
#160 = DIRECTION ( 'NONE',  ( 1.000000000000000000, 0.000000000000000000, 0.000000000000000000 ) ) ;
#161 = ORIENTED_EDGE ( 'NONE', *, *, #314, .T. ) ;
#162 = VECTOR ( 'NONE', #63, 1000.000000000000000 ) ;
#163 = DIRECTION ( 'NONE',  ( 0.000000000000000000, 0.000000000000000000, 1.000000000000000000 ) ) ;
#164 = APPLICATION_CONTEXT ( 'configuration controlled 3d designs of mechanical parts and assemblies' ) ;
#165 = ADVANCED_FACE ( 'NONE', ( #81 ), #26, .F. ) ;
#166 = PRODUCT ( '2d5b', '2d5b', '', ( #173 ) ) ;
#167 = CARTESIAN_POINT ( 'NONE',  ( 4.500000000000000888, 0.000000000000000000, 5.000000000000002665 ) ) ;
#168 = DIRECTION ( 'NONE',  ( -0.000000000000000000, -0.000000000000000000, -1.000000000000000000 ) ) ;
#169 = CARTESIAN_POINT ( 'NONE',  ( 0.000000000000000000, 0.000000000000000000, 0.000000000000000000 ) ) ;
#170 = CIRCLE ( 'NONE', #352, 2.500000000000000000 ) ;
#171 = ORIENTED_EDGE ( 'NONE', *, *, #202, .T. ) ;
#172 = EDGE_LOOP ( 'NONE', ( #353, #95, #328, #261 ) ) ;
#173 = MECHANICAL_CONTEXT ( 'NONE', #82, 'mechanical' ) ;
#174 = LOCAL_TIME ( 11, 10, 3.000000000000000000, #146 ) ;
#175 = EDGE_CURVE ( 'NONE', #340, #339, #232, .T. ) ;
#176 = CARTESIAN_POINT ( 'NONE',  ( 0.000000000000000000, 0.000000000000000000, 105.0000000000000142 ) ) ;
#177 = PERSON_AND_ORGANIZATION ( #39, #335 ) ;
#178 = PERSON_AND_ORGANIZATION ( #39, #335 ) ;
#179 = AXIS2_PLACEMENT_3D ( 'NONE', #78, #135, #309 ) ;
#180 = ORIENTED_EDGE ( 'NONE', *, *, #55, .T. ) ;
#181 = CIRCLE ( 'NONE', #155, 4.500000000000000888 ) ;
#182 = EDGE_CURVE ( 'NONE', #70, #316, #48, .T. ) ;
#183 = AXIS2_PLACEMENT_3D ( 'NONE', #346, #370, #187 ) ;
#184 = APPROVAL_PERSON_ORGANIZATION ( #177, #268, #277 ) ;
#185 = CARTESIAN_POINT ( 'NONE',  ( -7.000000000000000000, 0.000000000000000000, 5.000000000000000000 ) ) ;
#186 = PERSON_AND_ORGANIZATION ( #39, #335 ) ;
#187 = DIRECTION ( 'NONE',  ( 1.000000000000000000, 0.000000000000000000, 0.000000000000000000 ) ) ;
#188 = DIRECTION ( 'NONE',  ( -1.000000000000000000, 1.224646799147351482E-16, 0.000000000000000000 ) ) ;
#189 = ORIENTED_EDGE ( 'NONE', *, *, #118, .T. ) ;
#190 = CARTESIAN_POINT ( 'NONE',  ( -4.500000000000000888, 5.510910596163089556E-16, 5.500000000000005329 ) ) ;
#191 = AXIS2_PLACEMENT_3D ( 'NONE', #303, #10, #119 ) ;
#192 = FACE_BOUND ( 'NONE', #54, .T. ) ;
#193 = CC_DESIGN_DATE_AND_TIME_ASSIGNMENT ( #354, #331, ( #99 ) ) ;
#194 = CARTESIAN_POINT ( 'NONE',  ( -2.500000000000000000, 0.000000000000000000, 0.000000000000000000 ) ) ;
#195 = VERTEX_POINT ( 'NONE', #167 ) ;
#196 = CYLINDRICAL_SURFACE ( 'NONE', #234, 2.500000000000000000 ) ;
#197 = CYLINDRICAL_SURFACE ( 'NONE', #148, 2.500000000000000000 ) ;
#198 = DIRECTION ( 'NONE',  ( 1.000000000000000000, 0.000000000000000000, -0.000000000000000000 ) ) ;
#199 = DIRECTION ( 'NONE',  ( 1.000000000000000000, 0.000000000000000000, 0.000000000000000000 ) ) ;
#200 = ORIENTED_EDGE ( 'NONE', *, *, #202, .F. ) ;
#201 = PRODUCT_DEFINITION_SHAPE ( 'NONE', 'NONE',  #99 ) ;
#202 = EDGE_CURVE ( 'NONE', #209, #216, #281, .T. ) ;
#203 = CARTESIAN_POINT ( 'NONE',  ( -4.000000000000000000, 0.000000000000000000, 105.0000000000000142 ) ) ;
#204 = TOROIDAL_SURFACE ( 'NONE', #369, 4.500000000000000888, 0.5000000000000000000 ) ;
#205 = VERTEX_POINT ( 'NONE', #230 ) ;
#206 = VECTOR ( 'NONE', #74, 1000.000000000000000 ) ;
#207 = EDGE_CURVE ( 'NONE', #316, #209, #322, .T. ) ;
#208 = AXIS2_PLACEMENT_3D ( 'NONE', #307, #98, #218 ) ;
#209 = VERTEX_POINT ( 'NONE', #300 ) ;
#210 = PERSON_AND_ORGANIZATION_ROLE ( 'creator' ) ;
#211 = DIRECTION ( 'NONE',  ( -0.000000000000000000, -0.000000000000000000, -1.000000000000000000 ) ) ;
#212 = PERSON_AND_ORGANIZATION ( #39, #335 ) ;
#213 = APPROVAL_DATE_TIME ( #121, #297 ) ;
#214 = CC_DESIGN_PERSON_AND_ORGANIZATION_ASSIGNMENT ( #212, #332, ( #99 ) ) ;
#215 = DATE_AND_TIME ( #15, #228 ) ;
#216 = VERTEX_POINT ( 'NONE', #147 ) ;
#217 = CARTESIAN_POINT ( 'NONE',  ( 0.000000000000000000, 0.000000000000000000, 105.0000000000000142 ) ) ;
#218 = DIRECTION ( 'NONE',  ( -1.000000000000000000, 0.000000000000000000, 0.000000000000000000 ) ) ;
#219 = EDGE_LOOP ( 'NONE', ( #134, #111, #250, #76 ) ) ;
#220 = ORIENTED_EDGE ( 'NONE', *, *, #314, .F. ) ;
#221 = DIRECTION ( 'NONE',  ( -1.000000000000000000, 0.000000000000000000, 0.000000000000000000 ) ) ;
#222 = CARTESIAN_POINT ( 'NONE',  ( -2.500000000000000000, 0.000000000000000000, 105.0000000000000142 ) ) ;
#223 = ORIENTED_EDGE ( 'NONE', *, *, #5, .T. ) ;
#224 = CARTESIAN_POINT ( 'NONE',  ( 0.000000000000000000, 0.000000000000000000, 5.500000000000005329 ) ) ;
#225 = ORIENTED_EDGE ( 'NONE', *, *, #66, .T. ) ;
#226 = FACE_OUTER_BOUND ( 'NONE', #278, .T. ) ;
#227 = DIRECTION ( 'NONE',  ( 0.000000000000000000, 0.000000000000000000, -1.000000000000000000 ) ) ;
#228 = LOCAL_TIME ( 11, 10, 3.000000000000000000, #246 ) ;
#229 = DIRECTION ( 'NONE',  ( 1.000000000000000000, 0.000000000000000000, 0.000000000000000000 ) ) ;
#230 = CARTESIAN_POINT ( 'NONE',  ( -2.500000000000000000, 0.000000000000000000, 105.0000000000000142 ) ) ;
#231 = CC_DESIGN_DATE_AND_TIME_ASSIGNMENT ( #151, #60, ( #12 ) ) ;
#232 = LINE ( 'NONE', #138, #379 ) ;
#233 = EDGE_LOOP ( 'NONE', ( #65, #161 ) ) ;
#234 = AXIS2_PLACEMENT_3D ( 'NONE', #159, #284, #107 ) ;
#235 = CIRCLE ( 'NONE', #244, 7.000000000000000000 ) ;
#236 = CARTESIAN_POINT ( 'NONE',  ( 4.000000000000000000, 4.898587196589412829E-16, 105.0000000000000142 ) ) ;
#237 = ORIENTED_EDGE ( 'NONE', *, *, #207, .T. ) ;
#238 = COORDINATED_UNIVERSAL_TIME_OFFSET ( 1, 0, .AHEAD. ) ;
#239 = EDGE_CURVE ( 'NONE', #51, #195, #113, .T. ) ;
#240 = DIRECTION ( 'NONE',  ( 1.000000000000000000, 0.000000000000000000, 0.000000000000000000 ) ) ;
#241 = DIRECTION ( 'NONE',  ( 1.000000000000000000, 0.000000000000000000, 0.000000000000000000 ) ) ;
#242 = CIRCLE ( 'NONE', #330, 4.000000000000000000 ) ;
#243 = APPROVAL_STATUS ( 'not_yet_approved' ) ;
#244 = AXIS2_PLACEMENT_3D ( 'NONE', #311, #280, #47 ) ;
#245 = DIRECTION ( 'NONE',  ( 0.000000000000000000, 0.000000000000000000, 1.000000000000000000 ) ) ;
#246 = COORDINATED_UNIVERSAL_TIME_OFFSET ( 1, 0, .AHEAD. ) ;
#247 = ADVANCED_FACE ( 'NONE', ( #35, #145 ), #116, .F. ) ;
#248 = ORIENTED_EDGE ( 'NONE', *, *, #326, .T. ) ;
#249 = AXIS2_PLACEMENT_3D ( 'NONE', #87, #1, #319 ) ;
#250 = ORIENTED_EDGE ( 'NONE', *, *, #326, .F. ) ;
#251 = AXIS2_PLACEMENT_3D ( 'NONE', #72, #255, #199 ) ;
#252 = ADVANCED_FACE ( 'NONE', ( #361 ), #204, .F. ) ;
#253 = CARTESIAN_POINT ( 'NONE',  ( 0.000000000000000000, 0.000000000000000000, 105.0000000000000142 ) ) ;
#254 = DIRECTION ( 'NONE',  ( 1.000000000000000000, 0.000000000000000000, 0.000000000000000000 ) ) ;
#255 = DIRECTION ( 'NONE',  ( -0.000000000000000000, -0.000000000000000000, -1.000000000000000000 ) ) ;
#256 = CC_DESIGN_APPROVAL ( #268, ( #12 ) ) ;
#257 = CC_DESIGN_PERSON_AND_ORGANIZATION_ASSIGNMENT ( #178, #42, ( #12 ) ) ;
#258 = CARTESIAN_POINT ( 'NONE',  ( 2.500000000000000000, 3.061616997868383141E-16, 0.000000000000000000 ) ) ;
#259 = ORIENTED_EDGE ( 'NONE', *, *, #5, .F. ) ;
#260 = FACE_OUTER_BOUND ( 'NONE', #69, .T. ) ;
#261 = ORIENTED_EDGE ( 'NONE', *, *, #123, .F. ) ;
#262 = DIRECTION ( 'NONE',  ( 1.000000000000000000, 0.000000000000000000, 0.000000000000000000 ) ) ;
#263 = ADVANCED_FACE ( 'NONE', ( #41 ), #288, .T. ) ;
#264 = CARTESIAN_POINT ( 'NONE',  ( 0.000000000000000000, 0.000000000000000000, 5.500000000000005329 ) ) ;
#265 = UNCERTAINTY_MEASURE_WITH_UNIT (LENGTH_MEASURE( 1.000000000000000082E-05 ), #324, 'distance_accuracy_value', 'NONE');
#266 =( NAMED_UNIT ( * ) SI_UNIT ( $, .STERADIAN. ) SOLID_ANGLE_UNIT ( ) );
#267 = VERTEX_POINT ( 'NONE', #25 ) ;
#268 = APPROVAL ( #96, 'NEURÈENÝ' ) ;
#269 = CIRCLE ( 'NONE', #378, 4.000000000000000000 ) ;
#270 = CARTESIAN_POINT ( 'NONE',  ( 4.000000000000000000, 4.898587196589412829E-16, 5.500000000000005329 ) ) ;
#271 = DIRECTION ( 'NONE',  ( 0.000000000000000000, 0.000000000000000000, 1.000000000000000000 ) ) ;
#272 = FACE_OUTER_BOUND ( 'NONE', #59, .T. ) ;
#273 = PERSON_AND_ORGANIZATION_ROLE ( 'design_owner' ) ;
#274 = VECTOR ( 'NONE', #50, 1000.000000000000000 ) ;
#275 = EDGE_CURVE ( 'NONE', #158, #267, #80, .T. ) ;
#276 = DIRECTION ( 'NONE',  ( 0.000000000000000000, 0.000000000000000000, 1.000000000000000000 ) ) ;
#277 = APPROVAL_ROLE ( '' ) ;
#278 = EDGE_LOOP ( 'NONE', ( #366, #334, #129, #279 ) ) ;
#279 = ORIENTED_EDGE ( 'NONE', *, *, #349, .T. ) ;
#280 = DIRECTION ( 'NONE',  ( 0.000000000000000000, 0.000000000000000000, 1.000000000000000000 ) ) ;
#281 = CIRCLE ( 'NONE', #341, 7.000000000000000000 ) ;
#282 = CARTESIAN_POINT ( 'NONE',  ( -4.000000000000000000, 0.000000000000000000, 105.0000000000000142 ) ) ;
#283 = CC_DESIGN_PERSON_AND_ORGANIZATION_ASSIGNMENT ( #186, #273, ( #166 ) ) ;
#284 = DIRECTION ( 'NONE',  ( 0.000000000000000000, 0.000000000000000000, -1.000000000000000000 ) ) ;
#285 = CARTESIAN_POINT ( 'NONE',  ( 2.500000000000000000, 3.061616997868383141E-16, 105.0000000000000142 ) ) ;
#286 = VERTEX_POINT ( 'NONE', #194 ) ;
#287 = DIRECTION ( 'NONE',  ( -0.000000000000000000, -0.000000000000000000, -1.000000000000000000 ) ) ;
#288 = CYLINDRICAL_SURFACE ( 'NONE', #57, 4.000000000000000000 ) ;
#289 = CARTESIAN_POINT ( 'NONE',  ( 0.000000000000000000, 0.000000000000000000, 0.000000000000000000 ) ) ;
#290 = AXIS2_PLACEMENT_3D ( 'NONE', #292, #36, #240 ) ;
#291 = ADVANCED_FACE ( 'NONE', ( #260 ), #380, .T. ) ;
#292 = CARTESIAN_POINT ( 'NONE',  ( 0.000000000000000000, 0.000000000000000000, 0.000000000000000000 ) ) ;
#293 = DIRECTION ( 'NONE',  ( 0.000000000000000000, -1.000000000000000000, 0.000000000000000000 ) ) ;
#294 = APPLICATION_PROTOCOL_DEFINITION ( 'international standard', 'config_control_design', 1994, #82 ) ;
#295 = DIRECTION ( 'NONE',  ( 0.000000000000000000, 0.000000000000000000, 1.000000000000000000 ) ) ;
#296 = CYLINDRICAL_SURFACE ( 'NONE', #191, 7.000000000000000000 ) ;
#297 = APPROVAL ( #243, 'NEURÈENÝ' ) ;
#298 = CARTESIAN_POINT ( 'NONE',  ( -7.000000000000000000, 0.000000000000000000, 5.000000000000000000 ) ) ;
#299 = PERSON_AND_ORGANIZATION ( #39, #335 ) ;
#300 = CARTESIAN_POINT ( 'NONE',  ( 7.000000000000000000, 8.572527594031473190E-16, 0.000000000000000000 ) ) ;
#301 = ORIENTED_EDGE ( 'NONE', *, *, #375, .T. ) ;
#302 = CIRCLE ( 'NONE', #33, 4.500000000000000888 ) ;
#303 = CARTESIAN_POINT ( 'NONE',  ( 0.000000000000000000, 0.000000000000000000, 5.000000000000000000 ) ) ;
#304 = APPLICATION_PROTOCOL_DEFINITION ( 'international standard', 'config_control_design', 1994, #164 ) ;
#305 = FACE_OUTER_BOUND ( 'NONE', #365, .T. ) ;
#306 = EDGE_CURVE ( 'NONE', #339, #286, #124, .T. ) ;
#307 = CARTESIAN_POINT ( 'NONE',  ( 0.000000000000000000, 0.000000000000000000, 5.000000000000000000 ) ) ;
#308 = EDGE_LOOP ( 'NONE', ( #45, #85 ) ) ;
#309 = DIRECTION ( 'NONE',  ( 1.000000000000000000, 0.000000000000000000, -0.000000000000000000 ) ) ;
#310 = CIRCLE ( 'NONE', #290, 7.000000000000000000 ) ;
#311 = CARTESIAN_POINT ( 'NONE',  ( 0.000000000000000000, 0.000000000000000000, 5.000000000000000000 ) ) ;
#312 = VECTOR ( 'NONE', #168, 1000.000000000000000 ) ;
#313 = ORIENTED_EDGE ( 'NONE', *, *, #357, .T. ) ;
#314 = EDGE_CURVE ( 'NONE', #316, #70, #235, .T. ) ;
#315 = DIRECTION ( 'NONE',  ( 1.224646799147353207E-16, 1.000000000000000000, -0.000000000000000000 ) ) ;
#316 = VERTEX_POINT ( 'NONE', #20 ) ;
#317 = AXIS2_PLACEMENT_3D ( 'NONE', #190, #315, #188 ) ;
#318 = DIRECTION ( 'NONE',  ( 1.000000000000000000, 0.000000000000000000, 0.000000000000000000 ) ) ;
#319 = DIRECTION ( 'NONE',  ( -1.000000000000000000, 0.000000000000000000, 0.000000000000000000 ) ) ;
#320 = DIRECTION ( 'NONE',  ( 0.000000000000000000, 0.000000000000000000, 1.000000000000000000 ) ) ;
#321 = ADVANCED_FACE ( 'NONE', ( #75 ), #197, .F. ) ;
#322 = LINE ( 'NONE', #3, #162 ) ;
#323 = CIRCLE ( 'NONE', #183, 4.000000000000000000 ) ;
#324 =( LENGTH_UNIT ( ) NAMED_UNIT ( * ) SI_UNIT ( .MILLI., .METRE. ) );
#325 = LOCAL_TIME ( 11, 10, 3.000000000000000000, #238 ) ;
#326 = EDGE_CURVE ( 'NONE', #195, #267, #302, .T. ) ;
#327 = CYLINDRICAL_SURFACE ( 'NONE', #249, 4.000000000000000000 ) ;
#328 = ORIENTED_EDGE ( 'NONE', *, *, #306, .T. ) ;
#329 = PERSON_AND_ORGANIZATION ( #39, #335 ) ;
#330 = AXIS2_PLACEMENT_3D ( 'NONE', #122, #245, #363 ) ;
#331 = DATE_TIME_ROLE ( 'creation_date' ) ;
#332 = PERSON_AND_ORGANIZATION_ROLE ( 'creator' ) ;
#333 = APPROVAL_DATE_TIME ( #215, #268 ) ;
#334 = ORIENTED_EDGE ( 'NONE', *, *, #118, .F. ) ;
#335 = ORGANIZATION ( 'NEURÈENÝ', 'NEURÈENÝ', '' ) ;
#336 = EDGE_CURVE ( 'NONE', #154, #158, #157, .T. ) ;
#337 = ORIENTED_EDGE ( 'NONE', *, *, #182, .F. ) ;
#338 = PLANE ( 'NONE',  #179 ) ;
#339 = VERTEX_POINT ( 'NONE', #258 ) ;
#340 = VERTEX_POINT ( 'NONE', #285 ) ;
#341 = AXIS2_PLACEMENT_3D ( 'NONE', #289, #28, #229 ) ;
#342 = CARTESIAN_POINT ( 'NONE',  ( 0.000000000000000000, 0.000000000000000000, 5.500000000000005329 ) ) ;
#343 = ORIENTED_EDGE ( 'NONE', *, *, #21, .F. ) ;
#344 = CARTESIAN_POINT ( 'NONE',  ( 0.000000000000000000, 0.000000000000000000, 5.000000000000000000 ) ) ;
#345 = ORIENTED_EDGE ( 'NONE', *, *, #207, .F. ) ;
#346 = CARTESIAN_POINT ( 'NONE',  ( 0.000000000000000000, 0.000000000000000000, 105.0000000000000142 ) ) ;
#347 = ORIENTED_EDGE ( 'NONE', *, *, #275, .F. ) ;
#348 = DESIGN_CONTEXT ( 'detailed design', #164, 'design' ) ;
#349 = EDGE_CURVE ( 'NONE', #158, #51, #269, .T. ) ;
#350 = AXIS2_PLACEMENT_3D ( 'NONE', #176, #276, #61 ) ;
#351 = CARTESIAN_POINT ( 'NONE',  ( 0.000000000000000000, 0.000000000000000000, 5.000000000000000000 ) ) ;
#352 = AXIS2_PLACEMENT_3D ( 'NONE', #169, #29, #318 ) ;
#353 = ORIENTED_EDGE ( 'NONE', *, *, #21, .T. ) ;
#354 = DATE_AND_TIME ( #37, #325 ) ;
#355 = DIRECTION ( 'NONE',  ( 0.000000000000000000, 0.000000000000000000, -1.000000000000000000 ) ) ;
#356 = CIRCLE ( 'NONE', #350, 2.500000000000000000 ) ;
#357 = EDGE_CURVE ( 'NONE', #142, #51, #32, .T. ) ;
#358 = DIRECTION ( 'NONE',  ( 1.000000000000000000, 0.000000000000000000, 0.000000000000000000 ) ) ;
#359 = COORDINATED_UNIVERSAL_TIME_OFFSET ( 1, 0, .AHEAD. ) ;
#360 = APPROVAL_PERSON_ORGANIZATION ( #299, #297, #11 ) ;
#361 = FACE_OUTER_BOUND ( 'NONE', #71, .T. ) ;
#362 = MANIFOLD_SOLID_BREP ( 'Odebrat vysunutím3', #24 ) ;
#363 = DIRECTION ( 'NONE',  ( 1.000000000000000000, 0.000000000000000000, 0.000000000000000000 ) ) ;
#364 = DIRECTION ( 'NONE',  ( 1.000000000000000000, 0.000000000000000000, -0.000000000000000000 ) ) ;
#365 = EDGE_LOOP ( 'NONE', ( #100, #374, #128, #301 ) ) ;
#366 = ORIENTED_EDGE ( 'NONE', *, *, #357, .F. ) ;
#367 = PLANE ( 'NONE',  #376 ) ;
#368 = ORIENTED_EDGE ( 'NONE', *, *, #110, .F. ) ;
#369 = AXIS2_PLACEMENT_3D ( 'NONE', #342, #136, #160 ) ;
#370 = DIRECTION ( 'NONE',  ( 0.000000000000000000, 0.000000000000000000, 1.000000000000000000 ) ) ;
#371 = ORIENTED_EDGE ( 'NONE', *, *, #14, .T. ) ;
#372 = DIRECTION ( 'NONE',  ( 0.000000000000000000, 0.000000000000000000, 1.000000000000000000 ) ) ;
#373 = DIRECTION ( 'NONE',  ( 0.000000000000000000, 0.000000000000000000, -1.000000000000000000 ) ) ;
#374 = ORIENTED_EDGE ( 'NONE', *, *, #83, .T. ) ;
#375 = EDGE_CURVE ( 'NONE', #286, #339, #170, .T. ) ;
#376 = AXIS2_PLACEMENT_3D ( 'NONE', #217, #372, #198 ) ;
#377 = ORIENTED_EDGE ( 'NONE', *, *, #110, .T. ) ;
#378 = AXIS2_PLACEMENT_3D ( 'NONE', #224, #4, #84 ) ;
#379 = VECTOR ( 'NONE', #227, 1000.000000000000000 ) ;
#380 = CYLINDRICAL_SURFACE ( 'NONE', #208, 7.000000000000000000 ) ;
#381 = ORIENTED_EDGE ( 'NONE', *, *, #66, .F. ) ;
ENDSEC;
END-ISO-10303-21;
