ISO-10303-21;
HEADER;
FILE_DESCRIPTION (( 'STEP AP203' ),
    '1' );
FILE_NAME ('299b.STEP',
    '2022-07-10T09:10:42',
    ( '' ),
    ( '' ),
    'SwSTEP 2.0',
    'SolidWorks 2019',
    '' );
FILE_SCHEMA (( 'CONFIG_CONTROL_DESIGN' ));
ENDSEC;

DATA;
#1 = VECTOR ( 'NONE', #35, 1000.000000000000000 ) ;
#2 = EDGE_CURVE ( 'NONE', #179, #153, #113, .T. ) ;
#3 = CC_DESIGN_APPROVAL ( #99, ( #197 ) ) ;
#4 = FACE_BOUND ( 'NONE', #170, .T. ) ;
#5 = CALENDAR_DATE ( 2022, 10, 7 ) ;
#6 = ORIENTED_EDGE ( 'NONE', *, *, #85, .T. ) ;
#7 = CIRCLE ( 'NONE', #358, 0.5000000000000004441 ) ;
#8 = COORDINATED_UNIVERSAL_TIME_OFFSET ( 1, 0, .AHEAD. ) ;
#9 = EDGE_LOOP ( 'NONE', ( #15, #103 ) ) ;
#10 = PERSON_AND_ORGANIZATION ( #375, #112 ) ;
#11 = CARTESIAN_POINT ( 'NONE',  ( 0.000000000000000000, 0.000000000000000000, 0.000000000000000000 ) ) ;
#12 = DATE_AND_TIME ( #359, #295 ) ;
#13 = CARTESIAN_POINT ( 'NONE',  ( 0.000000000000000000, 0.000000000000000000, 5.500000000000005329 ) ) ;
#14 = DIRECTION ( 'NONE',  ( 0.000000000000000000, 0.000000000000000000, 1.000000000000000000 ) ) ;
#15 = ORIENTED_EDGE ( 'NONE', *, *, #108, .T. ) ;
#16 = DIRECTION ( 'NONE',  ( 0.000000000000000000, 0.000000000000000000, 1.000000000000000000 ) ) ;
#17 = APPROVAL_DATE_TIME ( #237, #263 ) ;
#18 = ADVANCED_FACE ( 'NONE', ( #339 ), #30, .F. ) ;
#19 = CARTESIAN_POINT ( 'NONE',  ( 0.000000000000000000, 0.000000000000000000, 255.0000000000000000 ) ) ;
#20 = DIRECTION ( 'NONE',  ( -1.000000000000000000, 0.000000000000000000, 0.000000000000000000 ) ) ;
#21 = AXIS2_PLACEMENT_3D ( 'NONE', #60, #236, #351 ) ;
#22 = CARTESIAN_POINT ( 'NONE',  ( 2.250000000000000000, 2.755455298081544285E-16, 0.000000000000000000 ) ) ;
#23 = FACE_OUTER_BOUND ( 'NONE', #249, .T. ) ;
#24 = CC_DESIGN_PERSON_AND_ORGANIZATION_ASSIGNMENT ( #273, #80, ( #204 ) ) ;
#25 = AXIS2_PLACEMENT_3D ( 'NONE', #51, #311, #139 ) ;
#26 = DIRECTION ( 'NONE',  ( 1.000000000000000000, 0.000000000000000000, -0.000000000000000000 ) ) ;
#27 = ORIENTED_EDGE ( 'NONE', *, *, #229, .F. ) ;
#28 =( NAMED_UNIT ( * ) SI_UNIT ( $, .STERADIAN. ) SOLID_ANGLE_UNIT ( ) );
#29 = APPLICATION_CONTEXT ( 'configuration controlled 3d designs of mechanical parts and assemblies' ) ;
#30 = TOROIDAL_SURFACE ( 'NONE', #216, 4.500000000000000888, 0.5000000000000000000 ) ;
#31 = DIRECTION ( 'NONE',  ( -0.000000000000000000, -0.000000000000000000, -1.000000000000000000 ) ) ;
#32 = VERTEX_POINT ( 'NONE', #130 ) ;
#33 = LINE ( 'NONE', #171, #183 ) ;
#34 = CALENDAR_DATE ( 2022, 10, 7 ) ;
#35 = DIRECTION ( 'NONE',  ( 0.000000000000000000, 0.000000000000000000, -1.000000000000000000 ) ) ;
#36 = ORIENTED_EDGE ( 'NONE', *, *, #205, .F. ) ;
#37 = APPROVAL_STATUS ( 'not_yet_approved' ) ;
#38 = ORIENTED_EDGE ( 'NONE', *, *, #73, .T. ) ;
#39 = CYLINDRICAL_SURFACE ( 'NONE', #84, 2.250000000000000000 ) ;
#40 = APPROVAL ( #147, 'NEURÈENÝ' ) ;
#41 = EDGE_LOOP ( 'NONE', ( #294, #6, #38, #64 ) ) ;
#42 = AXIS2_PLACEMENT_3D ( 'NONE', #148, #185, #96 ) ;
#43 = LINE ( 'NONE', #79, #137 ) ;
#44 = APPROVAL_ROLE ( '' ) ;
#45 = CIRCLE ( 'NONE', #206, 7.000000000000000000 ) ;
#46 = AXIS2_PLACEMENT_3D ( 'NONE', #288, #328, #296 ) ;
#47 = DIRECTION ( 'NONE',  ( -0.000000000000000000, -0.000000000000000000, -1.000000000000000000 ) ) ;
#48 = PERSON_AND_ORGANIZATION ( #375, #112 ) ;
#49 = DIRECTION ( 'NONE',  ( 0.000000000000000000, 0.000000000000000000, -1.000000000000000000 ) ) ;
#50 = CIRCLE ( 'NONE', #265, 4.000000000000000000 ) ;
#51 = CARTESIAN_POINT ( 'NONE',  ( 0.000000000000000000, 0.000000000000000000, 0.000000000000000000 ) ) ;
#52 = DIRECTION ( 'NONE',  ( 0.000000000000000000, 0.000000000000000000, 1.000000000000000000 ) ) ;
#53 = FACE_OUTER_BOUND ( 'NONE', #111, .T. ) ;
#54 = ORIENTED_EDGE ( 'NONE', *, *, #309, .T. ) ;
#55 = DIRECTION ( 'NONE',  ( 0.000000000000000000, 0.000000000000000000, 1.000000000000000000 ) ) ;
#56 = EDGE_CURVE ( 'NONE', #231, #91, #77, .T. ) ;
#57 = DIRECTION ( 'NONE',  ( 1.000000000000000000, 0.000000000000000000, 0.000000000000000000 ) ) ;
#58 = AXIS2_PLACEMENT_3D ( 'NONE', #198, #138, #342 ) ;
#59 = VERTEX_POINT ( 'NONE', #181 ) ;
#60 = CARTESIAN_POINT ( 'NONE',  ( 0.000000000000000000, 0.000000000000000000, 5.000000000000000000 ) ) ;
#61 = ORIENTED_EDGE ( 'NONE', *, *, #158, .T. ) ;
#62 = CIRCLE ( 'NONE', #42, 4.000000000000000000 ) ;
#63 = DIRECTION ( 'NONE',  ( -0.000000000000000000, -0.000000000000000000, -1.000000000000000000 ) ) ;
#64 = ORIENTED_EDGE ( 'NONE', *, *, #373, .F. ) ;
#65 = DATE_TIME_ROLE ( 'creation_date' ) ;
#66 = DIRECTION ( 'NONE',  ( 0.000000000000000000, 0.000000000000000000, 1.000000000000000000 ) ) ;
#67 = EDGE_CURVE ( 'NONE', #298, #144, #228, .T. ) ;
#68 = DATE_AND_TIME ( #5, #129 ) ;
#69 = CARTESIAN_POINT ( 'NONE',  ( 0.000000000000000000, 0.000000000000000000, 255.0000000000000000 ) ) ;
#70 =( GEOMETRIC_REPRESENTATION_CONTEXT ( 3 ) GLOBAL_UNCERTAINTY_ASSIGNED_CONTEXT ( ( #324 ) ) GLOBAL_UNIT_ASSIGNED_CONTEXT ( ( #203, #142, #28 ) ) REPRESENTATION_CONTEXT ( 'NONE', 'WORKASPACE' ) );
#71 = COORDINATED_UNIVERSAL_TIME_OFFSET ( 1, 0, .AHEAD. ) ;
#72 = ORIENTED_EDGE ( 'NONE', *, *, #85, .F. ) ;
#73 = EDGE_CURVE ( 'NONE', #208, #302, #93, .T. ) ;
#74 = DIRECTION ( 'NONE',  ( -0.000000000000000000, -0.000000000000000000, -1.000000000000000000 ) ) ;
#75 = CARTESIAN_POINT ( 'NONE',  ( 0.000000000000000000, 0.000000000000000000, 0.000000000000000000 ) ) ;
#76 = FACE_OUTER_BOUND ( 'NONE', #268, .T. ) ;
#77 = CIRCLE ( 'NONE', #156, 4.000000000000000000 ) ;
#78 = PERSON_AND_ORGANIZATION_ROLE ( 'classification_officer' ) ;
#79 = CARTESIAN_POINT ( 'NONE',  ( -7.000000000000000000, 0.000000000000000000, 5.000000000000000000 ) ) ;
#80 = PERSON_AND_ORGANIZATION_ROLE ( 'design_owner' ) ;
#81 = CIRCLE ( 'NONE', #325, 0.5000000000000004441 ) ;
#82 = DIRECTION ( 'NONE',  ( -0.000000000000000000, -0.000000000000000000, -1.000000000000000000 ) ) ;
#83 = CYLINDRICAL_SURFACE ( 'NONE', #125, 2.250000000000000000 ) ;
#84 = AXIS2_PLACEMENT_3D ( 'NONE', #155, #214, #335 ) ;
#85 = EDGE_CURVE ( 'NONE', #177, #208, #301, .T. ) ;
#86 = CARTESIAN_POINT ( 'NONE',  ( 4.000000000000000000, 4.898587196589412829E-16, 5.500000000000005329 ) ) ;
#87 = DIRECTION ( 'NONE',  ( 0.000000000000000000, -1.000000000000000000, 0.000000000000000000 ) ) ;
#88 = EDGE_LOOP ( 'NONE', ( #369, #212 ) ) ;
#89 = EDGE_CURVE ( 'NONE', #59, #32, #62, .T. ) ;
#90 = ORIENTED_EDGE ( 'NONE', *, *, #275, .F. ) ;
#91 = VERTEX_POINT ( 'NONE', #98 ) ;
#92 = DIRECTION ( 'NONE',  ( 0.000000000000000000, 0.000000000000000000, 1.000000000000000000 ) ) ;
#93 = CIRCLE ( 'NONE', #210, 2.250000000000000000 ) ;
#94 = ADVANCED_FACE ( 'NONE', ( #306 ), #39, .F. ) ;
#95 = EDGE_LOOP ( 'NONE', ( #141, #340, #116, #327 ) ) ;
#96 = DIRECTION ( 'NONE',  ( 1.000000000000000000, 0.000000000000000000, 0.000000000000000000 ) ) ;
#97 = CALENDAR_DATE ( 2022, 10, 7 ) ;
#98 = CARTESIAN_POINT ( 'NONE',  ( -4.000000000000000000, 0.000000000000000000, 5.500000000000005329 ) ) ;
#99 = APPROVAL ( #37, 'NEURÈENÝ' ) ;
#100 = AXIS2_PLACEMENT_3D ( 'NONE', #106, #16, #257 ) ;
#101 = ORIENTED_EDGE ( 'NONE', *, *, #56, .T. ) ;
#102 = VERTEX_POINT ( 'NONE', #276 ) ;
#103 = ORIENTED_EDGE ( 'NONE', *, *, #89, .T. ) ;
#104 = DIRECTION ( 'NONE',  ( 1.000000000000000000, 0.000000000000000000, -0.000000000000000000 ) ) ;
#105 = PERSON_AND_ORGANIZATION ( #375, #112 ) ;
#106 = CARTESIAN_POINT ( 'NONE',  ( 0.000000000000000000, 0.000000000000000000, 255.0000000000000000 ) ) ;
#107 = CARTESIAN_POINT ( 'NONE',  ( 0.000000000000000000, 0.000000000000000000, 255.0000000000000000 ) ) ;
#108 = EDGE_CURVE ( 'NONE', #32, #59, #50, .T. ) ;
#109 = FACE_OUTER_BOUND ( 'NONE', #184, .T. ) ;
#110 = DIRECTION ( 'NONE',  ( 0.000000000000000000, 0.000000000000000000, -1.000000000000000000 ) ) ;
#111 = EDGE_LOOP ( 'NONE', ( #259, #289, #118, #266 ) ) ;
#112 = ORGANIZATION ( 'NEURÈENÝ', 'NEURÈENÝ', '' ) ;
#113 = CIRCLE ( 'NONE', #165, 7.000000000000000000 ) ;
#114 = ORIENTED_EDGE ( 'NONE', *, *, #163, .T. ) ;
#115 = AXIS2_PLACEMENT_3D ( 'NONE', #349, #376, #20 ) ;
#116 = ORIENTED_EDGE ( 'NONE', *, *, #363, .T. ) ;
#117 = APPLICATION_PROTOCOL_DEFINITION ( 'international standard', 'config_control_design', 1994, #253 ) ;
#118 = ORIENTED_EDGE ( 'NONE', *, *, #205, .T. ) ;
#119 = AXIS2_PLACEMENT_3D ( 'NONE', #221, #166, #104 ) ;
#120 = VERTEX_POINT ( 'NONE', #161 ) ;
#121 = VECTOR ( 'NONE', #280, 1000.000000000000000 ) ;
#122 = DATE_AND_TIME ( #331, #277 ) ;
#123 = CARTESIAN_POINT ( 'NONE',  ( 0.000000000000000000, 0.000000000000000000, 5.000000000000000000 ) ) ;
#124 = CC_DESIGN_PERSON_AND_ORGANIZATION_ASSIGNMENT ( #105, #312, ( #162 ) ) ;
#125 = AXIS2_PLACEMENT_3D ( 'NONE', #255, #49, #164 ) ;
#126 = APPROVAL_ROLE ( '' ) ;
#127 = DIRECTION ( 'NONE',  ( 0.000000000000000000, 0.000000000000000000, 1.000000000000000000 ) ) ;
#128 = ORIENTED_EDGE ( 'NONE', *, *, #108, .F. ) ;
#129 = LOCAL_TIME ( 11, 10, 42.00000000000000000, #152 ) ;
#130 = CARTESIAN_POINT ( 'NONE',  ( -4.000000000000000000, 0.000000000000000000, 255.0000000000000000 ) ) ;
#131 = EDGE_CURVE ( 'NONE', #302, #208, #190, .T. ) ;
#132 = DIRECTION ( 'NONE',  ( 0.000000000000000000, 0.000000000000000000, 1.000000000000000000 ) ) ;
#133 = APPROVAL_DATE_TIME ( #68, #99 ) ;
#134 = CARTESIAN_POINT ( 'NONE',  ( 0.000000000000000000, 0.000000000000000000, 0.000000000000000000 ) ) ;
#135 = CARTESIAN_POINT ( 'NONE',  ( 2.250000000000000000, 2.755455298081544285E-16, 255.0000000000000000 ) ) ;
#136 = EDGE_CURVE ( 'NONE', #102, #177, #240, .T. ) ;
#137 = VECTOR ( 'NONE', #82, 1000.000000000000000 ) ;
#138 = DIRECTION ( 'NONE',  ( 0.000000000000000000, 0.000000000000000000, 1.000000000000000000 ) ) ;
#139 = DIRECTION ( 'NONE',  ( 1.000000000000000000, 0.000000000000000000, 0.000000000000000000 ) ) ;
#140 = CC_DESIGN_PERSON_AND_ORGANIZATION_ASSIGNMENT ( #180, #78, ( #197 ) ) ;
#141 = ORIENTED_EDGE ( 'NONE', *, *, #223, .F. ) ;
#142 =( NAMED_UNIT ( * ) PLANE_ANGLE_UNIT ( ) SI_UNIT ( $, .RADIAN. ) );
#143 = CARTESIAN_POINT ( 'NONE',  ( 0.000000000000000000, 0.000000000000000000, 5.000000000000000000 ) ) ;
#144 = VERTEX_POINT ( 'NONE', #159 ) ;
#145 = CARTESIAN_POINT ( 'NONE',  ( 0.000000000000000000, 0.000000000000000000, 5.500000000000005329 ) ) ;
#146 = ORIENTED_EDGE ( 'NONE', *, *, #373, .T. ) ;
#147 = APPROVAL_STATUS ( 'not_yet_approved' ) ;
#148 = CARTESIAN_POINT ( 'NONE',  ( 0.000000000000000000, 0.000000000000000000, 255.0000000000000000 ) ) ;
#149 = ADVANCED_FACE ( 'NONE', ( #193, #346 ), #227, .F. ) ;
#150 = COORDINATED_UNIVERSAL_TIME_OFFSET ( 1, 0, .AHEAD. ) ;
#151 = ORIENTED_EDGE ( 'NONE', *, *, #229, .T. ) ;
#152 = COORDINATED_UNIVERSAL_TIME_OFFSET ( 1, 0, .AHEAD. ) ;
#153 = VERTEX_POINT ( 'NONE', #285 ) ;
#154 = CIRCLE ( 'NONE', #235, 2.250000000000000000 ) ;
#155 = CARTESIAN_POINT ( 'NONE',  ( 0.000000000000000000, 0.000000000000000000, 255.0000000000000000 ) ) ;
#156 = AXIS2_PLACEMENT_3D ( 'NONE', #246, #66, #366 ) ;
#157 = ORIENTED_EDGE ( 'NONE', *, *, #223, .T. ) ;
#158 = EDGE_CURVE ( 'NONE', #367, #120, #344, .T. ) ;
#159 = CARTESIAN_POINT ( 'NONE',  ( -7.000000000000000000, 0.000000000000000000, 5.000000000000000000 ) ) ;
#160 = PERSON_AND_ORGANIZATION_ROLE ( 'creator' ) ;
#161 = CARTESIAN_POINT ( 'NONE',  ( 4.500000000000000888, 0.000000000000000000, 5.000000000000002665 ) ) ;
#162 = PRODUCT_DEFINITION_FORMATION_WITH_SPECIFIED_SOURCE ( 'LIBOVOLNÝ', '', #204, .NOT_KNOWN. ) ;
#163 = EDGE_CURVE ( 'NONE', #32, #91, #287, .T. ) ;
#164 = DIRECTION ( 'NONE',  ( -1.000000000000000000, 0.000000000000000000, 0.000000000000000000 ) ) ;
#165 = AXIS2_PLACEMENT_3D ( 'NONE', #11, #278, #332 ) ;
#166 = DIRECTION ( 'NONE',  ( 0.000000000000000000, 0.000000000000000000, 1.000000000000000000 ) ) ;
#167 = TOROIDAL_SURFACE ( 'NONE', #58, 4.500000000000000888, 0.5000000000000000000 ) ;
#168 = DIRECTION ( 'NONE',  ( 1.224646799147353207E-16, 1.000000000000000000, -0.000000000000000000 ) ) ;
#169 = CARTESIAN_POINT ( 'NONE',  ( 7.000000000000000000, 8.572527594031473190E-16, 5.000000000000000000 ) ) ;
#170 = EDGE_LOOP ( 'NONE', ( #173, #61 ) ) ;
#171 = CARTESIAN_POINT ( 'NONE',  ( -2.250000000000000000, 0.000000000000000000, 255.0000000000000000 ) ) ;
#172 = ORIENTED_EDGE ( 'NONE', *, *, #131, .F. ) ;
#173 = ORIENTED_EDGE ( 'NONE', *, *, #300, .T. ) ;
#174 = DESIGN_CONTEXT ( 'detailed design', #253, 'design' ) ;
#175 = CARTESIAN_POINT ( 'NONE',  ( 4.500000000000000888, 0.000000000000000000, 5.500000000000005329 ) ) ;
#176 = ADVANCED_FACE ( 'NONE', ( #23 ), #372, .T. ) ;
#177 = VERTEX_POINT ( 'NONE', #135 ) ;
#178 = CARTESIAN_POINT ( 'NONE',  ( -2.250000000000000000, 0.000000000000000000, 0.000000000000000000 ) ) ;
#179 = VERTEX_POINT ( 'NONE', #196 ) ;
#180 = PERSON_AND_ORGANIZATION ( #375, #112 ) ;
#181 = CARTESIAN_POINT ( 'NONE',  ( 4.000000000000000000, 4.898587196589412829E-16, 255.0000000000000000 ) ) ;
#182 = EDGE_LOOP ( 'NONE', ( #357, #157, #381, #248 ) ) ;
#183 = VECTOR ( 'NONE', #110, 1000.000000000000000 ) ;
#184 = EDGE_LOOP ( 'NONE', ( #90, #128, #114, #54 ) ) ;
#185 = DIRECTION ( 'NONE',  ( 0.000000000000000000, 0.000000000000000000, 1.000000000000000000 ) ) ;
#186 = ORIENTED_EDGE ( 'NONE', *, *, #163, .F. ) ;
#187 = ADVANCED_FACE ( 'NONE', ( #250 ), #374, .T. ) ;
#188 = CC_DESIGN_APPROVAL ( #263, ( #336 ) ) ;
#189 = APPROVAL_PERSON_ORGANIZATION ( #211, #263, #126 ) ;
#190 = CIRCLE ( 'NONE', #25, 2.250000000000000000 ) ;
#191 = CYLINDRICAL_SURFACE ( 'NONE', #281, 4.000000000000000000 ) ;
#192 = MECHANICAL_CONTEXT ( 'NONE', #29, 'mechanical' ) ;
#193 = FACE_BOUND ( 'NONE', #272, .T. ) ;
#194 = APPROVAL_DATE_TIME ( #334, #40 ) ;
#195 = CC_DESIGN_PERSON_AND_ORGANIZATION_ASSIGNMENT ( #304, #371, ( #162 ) ) ;
#196 = CARTESIAN_POINT ( 'NONE',  ( -7.000000000000000000, 0.000000000000000000, 0.000000000000000000 ) ) ;
#197 = SECURITY_CLASSIFICATION ( '', '', #310 ) ;
#198 = CARTESIAN_POINT ( 'NONE',  ( 0.000000000000000000, 0.000000000000000000, 5.500000000000005329 ) ) ;
#199 = AXIS2_PLACEMENT_3D ( 'NONE', #19, #132, #225 ) ;
#200 = DIRECTION ( 'NONE',  ( 1.000000000000000000, 0.000000000000000000, 0.000000000000000000 ) ) ;
#201 = CARTESIAN_POINT ( 'NONE',  ( 0.000000000000000000, 0.000000000000000000, 5.000000000000000000 ) ) ;
#202 = ADVANCED_FACE ( 'NONE', ( #254, #226 ), #222, .T. ) ;
#203 =( LENGTH_UNIT ( ) NAMED_UNIT ( * ) SI_UNIT ( .MILLI., .METRE. ) );
#204 = PRODUCT ( '299b', '299b', '', ( #192 ) ) ;
#205 = EDGE_CURVE ( 'NONE', #144, #179, #43, .T. ) ;
#206 = AXIS2_PLACEMENT_3D ( 'NONE', #134, #52, #313 ) ;
#207 = CARTESIAN_POINT ( 'NONE',  ( 0.000000000000000000, 0.000000000000000000, 0.000000000000000000 ) ) ;
#208 = VERTEX_POINT ( 'NONE', #22 ) ;
#209 = DIRECTION ( 'NONE',  ( -1.000000000000000000, 0.000000000000000000, 0.000000000000000000 ) ) ;
#210 = AXIS2_PLACEMENT_3D ( 'NONE', #75, #74, #271 ) ;
#211 = PERSON_AND_ORGANIZATION ( #375, #112 ) ;
#212 = ORIENTED_EDGE ( 'NONE', *, *, #290, .F. ) ;
#213 = PRODUCT_DEFINITION_SHAPE ( 'NONE', 'NONE',  #336 ) ;
#214 = DIRECTION ( 'NONE',  ( 0.000000000000000000, 0.000000000000000000, -1.000000000000000000 ) ) ;
#215 = ORIENTED_EDGE ( 'NONE', *, *, #131, .T. ) ;
#216 = AXIS2_PLACEMENT_3D ( 'NONE', #13, #127, #242 ) ;
#217 = APPROVAL_STATUS ( 'not_yet_approved' ) ;
#218 = ORIENTED_EDGE ( 'NONE', *, *, #67, .F. ) ;
#219 = ADVANCED_FACE ( 'NONE', ( #316 ), #167, .F. ) ;
#220 = DIRECTION ( 'NONE',  ( 0.000000000000000000, 0.000000000000000000, 1.000000000000000000 ) ) ;
#221 = CARTESIAN_POINT ( 'NONE',  ( 0.000000000000000000, 0.000000000000000000, 0.000000000000000000 ) ) ;
#222 = PLANE ( 'NONE',  #199 ) ;
#223 = EDGE_CURVE ( 'NONE', #91, #367, #81, .T. ) ;
#224 = DATE_TIME_ROLE ( 'classification_date' ) ;
#225 = DIRECTION ( 'NONE',  ( 1.000000000000000000, 0.000000000000000000, -0.000000000000000000 ) ) ;
#226 = FACE_OUTER_BOUND ( 'NONE', #9, .T. ) ;
#227 = PLANE ( 'NONE',  #119 ) ;
#228 = CIRCLE ( 'NONE', #378, 7.000000000000000000 ) ;
#229 = EDGE_CURVE ( 'NONE', #153, #179, #45, .T. ) ;
#230 = DIRECTION ( 'NONE',  ( 0.000000000000000000, 0.000000000000000000, 1.000000000000000000 ) ) ;
#231 = VERTEX_POINT ( 'NONE', #86 ) ;
#232 = ADVANCED_FACE ( 'NONE', ( #76 ), #83, .F. ) ;
#233 = DIRECTION ( 'NONE',  ( 0.000000000000000000, 0.000000000000000000, 1.000000000000000000 ) ) ;
#234 = EDGE_LOOP ( 'NONE', ( #330, #239, #101, #186 ) ) ;
#235 = AXIS2_PLACEMENT_3D ( 'NONE', #380, #233, #320 ) ;
#236 = DIRECTION ( 'NONE',  ( -0.000000000000000000, -0.000000000000000000, -1.000000000000000000 ) ) ;
#237 = DATE_AND_TIME ( #34, #338 ) ;
#238 = CC_DESIGN_APPROVAL ( #40, ( #162 ) ) ;
#239 = ORIENTED_EDGE ( 'NONE', *, *, #275, .T. ) ;
#240 = CIRCLE ( 'NONE', #100, 2.250000000000000000 ) ;
#241 = PERSON_AND_ORGANIZATION ( #375, #112 ) ;
#242 = DIRECTION ( 'NONE',  ( 1.000000000000000000, 0.000000000000000000, 0.000000000000000000 ) ) ;
#243 = APPROVAL_ROLE ( '' ) ;
#244 = ORIENTED_EDGE ( 'NONE', *, *, #256, .T. ) ;
#245 = AXIS2_PLACEMENT_3D ( 'NONE', #145, #55, #262 ) ;
#246 = CARTESIAN_POINT ( 'NONE',  ( 0.000000000000000000, 0.000000000000000000, 5.500000000000005329 ) ) ;
#247 = ADVANCED_FACE ( 'NONE', ( #109 ), #191, .T. ) ;
#248 = ORIENTED_EDGE ( 'NONE', *, *, #363, .F. ) ;
#249 = EDGE_LOOP ( 'NONE', ( #218, #307, #151, #36 ) ) ;
#250 = FACE_OUTER_BOUND ( 'NONE', #234, .T. ) ;
#251 = AXIS2_PLACEMENT_3D ( 'NONE', #207, #337, #361 ) ;
#252 = DIRECTION ( 'NONE',  ( 1.000000000000000000, 0.000000000000000000, 0.000000000000000000 ) ) ;
#253 = APPLICATION_CONTEXT ( 'configuration controlled 3d designs of mechanical parts and assemblies' ) ;
#254 = FACE_BOUND ( 'NONE', #88, .T. ) ;
#255 = CARTESIAN_POINT ( 'NONE',  ( 0.000000000000000000, 0.000000000000000000, 255.0000000000000000 ) ) ;
#256 = EDGE_CURVE ( 'NONE', #144, #298, #352, .T. ) ;
#257 = DIRECTION ( 'NONE',  ( 1.000000000000000000, 0.000000000000000000, 0.000000000000000000 ) ) ;
#258 = CYLINDRICAL_SURFACE ( 'NONE', #21, 7.000000000000000000 ) ;
#259 = ORIENTED_EDGE ( 'NONE', *, *, #368, .F. ) ;
#260 = APPROVAL_PERSON_ORGANIZATION ( #48, #99, #44 ) ;
#261 = MANIFOLD_SOLID_BREP ( 'Odebrat vysunutím3', #283 ) ;
#262 = DIRECTION ( 'NONE',  ( 1.000000000000000000, 0.000000000000000000, 0.000000000000000000 ) ) ;
#263 = APPROVAL ( #217, 'NEURÈENÝ' ) ;
#264 = FACE_OUTER_BOUND ( 'NONE', #341, .T. ) ;
#265 = AXIS2_PLACEMENT_3D ( 'NONE', #69, #14, #200 ) ;
#266 = ORIENTED_EDGE ( 'NONE', *, *, #2, .T. ) ;
#267 = CARTESIAN_POINT ( 'NONE',  ( -4.500000000000000888, 5.510910596163088569E-16, 5.000000000000002665 ) ) ;
#268 = EDGE_LOOP ( 'NONE', ( #72, #360, #146, #215 ) ) ;
#269 = DIRECTION ( 'NONE',  ( -0.000000000000000000, -0.000000000000000000, -1.000000000000000000 ) ) ;
#270 = ORIENTED_EDGE ( 'NONE', *, *, #73, .F. ) ;
#271 = DIRECTION ( 'NONE',  ( 1.000000000000000000, 0.000000000000000000, 0.000000000000000000 ) ) ;
#272 = EDGE_LOOP ( 'NONE', ( #172, #270 ) ) ;
#273 = PERSON_AND_ORGANIZATION ( #375, #112 ) ;
#274 = AXIS2_PLACEMENT_3D ( 'NONE', #143, #230, #57 ) ;
#275 = EDGE_CURVE ( 'NONE', #59, #231, #326, .T. ) ;
#276 = CARTESIAN_POINT ( 'NONE',  ( -2.250000000000000000, 0.000000000000000000, 255.0000000000000000 ) ) ;
#277 = LOCAL_TIME ( 11, 10, 42.00000000000000000, #71 ) ;
#278 = DIRECTION ( 'NONE',  ( 0.000000000000000000, 0.000000000000000000, 1.000000000000000000 ) ) ;
#279 = CC_DESIGN_SECURITY_CLASSIFICATION ( #197, ( #162 ) ) ;
#280 = DIRECTION ( 'NONE',  ( -0.000000000000000000, -0.000000000000000000, -1.000000000000000000 ) ) ;
#281 = AXIS2_PLACEMENT_3D ( 'NONE', #308, #31, #209 ) ;
#282 = DIRECTION ( 'NONE',  ( -0.000000000000000000, -0.000000000000000000, -1.000000000000000000 ) ) ;
#283 = CLOSED_SHELL ( 'NONE', ( #94, #18, #187, #176, #286, #355, #149, #247, #202, #219, #232 ) ) ;
#284 = CARTESIAN_POINT ( 'NONE',  ( 0.000000000000000000, 0.000000000000000000, 5.000000000000000000 ) ) ;
#285 = CARTESIAN_POINT ( 'NONE',  ( 7.000000000000000000, 8.572527594031473190E-16, 0.000000000000000000 ) ) ;
#286 = ADVANCED_FACE ( 'NONE', ( #53 ), #258, .T. ) ;
#287 = LINE ( 'NONE', #350, #121 ) ;
#288 = CARTESIAN_POINT ( 'NONE',  ( 0.000000000000000000, 0.000000000000000000, 5.000000000000000000 ) ) ;
#289 = ORIENTED_EDGE ( 'NONE', *, *, #256, .F. ) ;
#290 = EDGE_CURVE ( 'NONE', #177, #102, #154, .T. ) ;
#291 = AXIS2_PLACEMENT_3D ( 'NONE', #107, #47, #317 ) ;
#292 = AXIS2_PLACEMENT_3D ( 'NONE', #201, #92, #26 ) ;
#293 = CARTESIAN_POINT ( 'NONE',  ( 7.000000000000000000, 8.572527594031473190E-16, 5.000000000000000000 ) ) ;
#294 = ORIENTED_EDGE ( 'NONE', *, *, #136, .T. ) ;
#295 = LOCAL_TIME ( 11, 10, 42.00000000000000000, #8 ) ;
#296 = DIRECTION ( 'NONE',  ( 1.000000000000000000, 0.000000000000000000, 0.000000000000000000 ) ) ;
#297 = AXIS2_PLACEMENT_3D ( 'NONE', #284, #282, #252 ) ;
#298 = VERTEX_POINT ( 'NONE', #169 ) ;
#299 = LINE ( 'NONE', #293, #377 ) ;
#300 = EDGE_CURVE ( 'NONE', #120, #367, #318, .T. ) ;
#301 = LINE ( 'NONE', #362, #1 ) ;
#302 = VERTEX_POINT ( 'NONE', #178 ) ;
#303 = CC_DESIGN_DATE_AND_TIME_ASSIGNMENT ( #12, #224, ( #197 ) ) ;
#304 = PERSON_AND_ORGANIZATION ( #375, #112 ) ;
#305 = ORIENTED_EDGE ( 'NONE', *, *, #2, .F. ) ;
#306 = FACE_OUTER_BOUND ( 'NONE', #41, .T. ) ;
#307 = ORIENTED_EDGE ( 'NONE', *, *, #368, .T. ) ;
#308 = CARTESIAN_POINT ( 'NONE',  ( 0.000000000000000000, 0.000000000000000000, 255.0000000000000000 ) ) ;
#309 = EDGE_CURVE ( 'NONE', #91, #231, #333, .T. ) ;
#310 = SECURITY_CLASSIFICATION_LEVEL ( 'unclassified' ) ;
#311 = DIRECTION ( 'NONE',  ( -0.000000000000000000, -0.000000000000000000, -1.000000000000000000 ) ) ;
#312 = PERSON_AND_ORGANIZATION_ROLE ( 'design_supplier' ) ;
#313 = DIRECTION ( 'NONE',  ( 1.000000000000000000, 0.000000000000000000, 0.000000000000000000 ) ) ;
#314 = APPROVAL_PERSON_ORGANIZATION ( #241, #40, #243 ) ;
#315 = CC_DESIGN_PERSON_AND_ORGANIZATION_ASSIGNMENT ( #10, #160, ( #336 ) ) ;
#316 = FACE_OUTER_BOUND ( 'NONE', #95, .T. ) ;
#317 = DIRECTION ( 'NONE',  ( -1.000000000000000000, 0.000000000000000000, 0.000000000000000000 ) ) ;
#318 = CIRCLE ( 'NONE', #46, 4.500000000000000888 ) ;
#319 = PLANE ( 'NONE',  #292 ) ;
#320 = DIRECTION ( 'NONE',  ( 1.000000000000000000, 0.000000000000000000, 0.000000000000000000 ) ) ;
#321 = ADVANCED_BREP_SHAPE_REPRESENTATION ( '299b', ( #261, #251 ), #70 ) ;
#322 = APPLICATION_PROTOCOL_DEFINITION ( 'international standard', 'config_control_design', 1994, #29 ) ;
#323 = ORIENTED_EDGE ( 'NONE', *, *, #67, .T. ) ;
#324 = UNCERTAINTY_MEASURE_WITH_UNIT (LENGTH_MEASURE( 1.000000000000000082E-05 ), #203, 'distance_accuracy_value', 'NONE');
#325 = AXIS2_PLACEMENT_3D ( 'NONE', #379, #168, #370 ) ;
#326 = LINE ( 'NONE', #353, #348 ) ;
#327 = ORIENTED_EDGE ( 'NONE', *, *, #158, .F. ) ;
#328 = DIRECTION ( 'NONE',  ( -0.000000000000000000, -0.000000000000000000, -1.000000000000000000 ) ) ;
#329 = CC_DESIGN_DATE_AND_TIME_ASSIGNMENT ( #122, #65, ( #336 ) ) ;
#330 = ORIENTED_EDGE ( 'NONE', *, *, #89, .F. ) ;
#331 = CALENDAR_DATE ( 2022, 10, 7 ) ;
#332 = DIRECTION ( 'NONE',  ( 1.000000000000000000, 0.000000000000000000, 0.000000000000000000 ) ) ;
#333 = CIRCLE ( 'NONE', #245, 4.000000000000000000 ) ;
#334 = DATE_AND_TIME ( #97, #365 ) ;
#335 = DIRECTION ( 'NONE',  ( -1.000000000000000000, 0.000000000000000000, 0.000000000000000000 ) ) ;
#336 = PRODUCT_DEFINITION ( 'NEZNÁMÝ', '', #162, #174 ) ;
#337 = DIRECTION ( 'NONE',  ( 0.000000000000000000, 0.000000000000000000, 1.000000000000000000 ) ) ;
#338 = LOCAL_TIME ( 11, 10, 42.00000000000000000, #150 ) ;
#339 = FACE_OUTER_BOUND ( 'NONE', #182, .T. ) ;
#340 = ORIENTED_EDGE ( 'NONE', *, *, #56, .F. ) ;
#341 = EDGE_LOOP ( 'NONE', ( #244, #323 ) ) ;
#342 = DIRECTION ( 'NONE',  ( 1.000000000000000000, 0.000000000000000000, 0.000000000000000000 ) ) ;
#343 = PRODUCT_RELATED_PRODUCT_CATEGORY ( 'detail', '', ( #204 ) ) ;
#344 = CIRCLE ( 'NONE', #297, 4.500000000000000888 ) ;
#345 = COORDINATED_UNIVERSAL_TIME_OFFSET ( 1, 0, .AHEAD. ) ;
#346 = FACE_OUTER_BOUND ( 'NONE', #354, .T. ) ;
#347 = SHAPE_DEFINITION_REPRESENTATION ( #213, #321 ) ;
#348 = VECTOR ( 'NONE', #269, 1000.000000000000000 ) ;
#349 = CARTESIAN_POINT ( 'NONE',  ( 0.000000000000000000, 0.000000000000000000, 5.000000000000000000 ) ) ;
#350 = CARTESIAN_POINT ( 'NONE',  ( -4.000000000000000000, 0.000000000000000000, 255.0000000000000000 ) ) ;
#351 = DIRECTION ( 'NONE',  ( -1.000000000000000000, 0.000000000000000000, 0.000000000000000000 ) ) ;
#352 = CIRCLE ( 'NONE', #274, 7.000000000000000000 ) ;
#353 = CARTESIAN_POINT ( 'NONE',  ( 4.000000000000000000, 4.898587196589412829E-16, 255.0000000000000000 ) ) ;
#354 = EDGE_LOOP ( 'NONE', ( #305, #27 ) ) ;
#355 = ADVANCED_FACE ( 'NONE', ( #4, #264 ), #319, .T. ) ;
#356 = DIRECTION ( 'NONE',  ( 0.000000000000000000, 0.000000000000000000, -1.000000000000000000 ) ) ;
#357 = ORIENTED_EDGE ( 'NONE', *, *, #309, .F. ) ;
#358 = AXIS2_PLACEMENT_3D ( 'NONE', #175, #87, #356 ) ;
#359 = CALENDAR_DATE ( 2022, 10, 7 ) ;
#360 = ORIENTED_EDGE ( 'NONE', *, *, #290, .T. ) ;
#361 = DIRECTION ( 'NONE',  ( 1.000000000000000000, 0.000000000000000000, 0.000000000000000000 ) ) ;
#362 = CARTESIAN_POINT ( 'NONE',  ( 2.250000000000000000, 2.755455298081544285E-16, 255.0000000000000000 ) ) ;
#363 = EDGE_CURVE ( 'NONE', #231, #120, #7, .T. ) ;
#364 = DIRECTION ( 'NONE',  ( 1.000000000000000000, 0.000000000000000000, 0.000000000000000000 ) ) ;
#365 = LOCAL_TIME ( 11, 10, 42.00000000000000000, #345 ) ;
#366 = DIRECTION ( 'NONE',  ( 1.000000000000000000, 0.000000000000000000, 0.000000000000000000 ) ) ;
#367 = VERTEX_POINT ( 'NONE', #267 ) ;
#368 = EDGE_CURVE ( 'NONE', #298, #153, #299, .T. ) ;
#369 = ORIENTED_EDGE ( 'NONE', *, *, #136, .F. ) ;
#370 = DIRECTION ( 'NONE',  ( -1.000000000000000000, 1.224646799147351482E-16, 0.000000000000000000 ) ) ;
#371 = PERSON_AND_ORGANIZATION_ROLE ( 'creator' ) ;
#372 = CYLINDRICAL_SURFACE ( 'NONE', #115, 7.000000000000000000 ) ;
#373 = EDGE_CURVE ( 'NONE', #102, #302, #33, .T. ) ;
#374 = CYLINDRICAL_SURFACE ( 'NONE', #291, 4.000000000000000000 ) ;
#375 = PERSON ( 'NEURÈENÝ', 'NEURÈENÝ', 'NEURÈENÝ', ('NEURÈENÝ'), ('NEURÈENÝ'), ('NEURÈENÝ') ) ;
#376 = DIRECTION ( 'NONE',  ( -0.000000000000000000, -0.000000000000000000, -1.000000000000000000 ) ) ;
#377 = VECTOR ( 'NONE', #63, 1000.000000000000000 ) ;
#378 = AXIS2_PLACEMENT_3D ( 'NONE', #123, #220, #364 ) ;
#379 = CARTESIAN_POINT ( 'NONE',  ( -4.500000000000000888, 5.510910596163089556E-16, 5.500000000000005329 ) ) ;
#380 = CARTESIAN_POINT ( 'NONE',  ( 0.000000000000000000, 0.000000000000000000, 255.0000000000000000 ) ) ;
#381 = ORIENTED_EDGE ( 'NONE', *, *, #300, .F. ) ;
ENDSEC;
END-ISO-10303-21;
