ISO-10303-21;
HEADER;
FILE_DESCRIPTION (( 'STEP AP203' ),
    '1' );
FILE_NAME ('cf28.STEP',
    '2022-07-10T09:08:46',
    ( '' ),
    ( '' ),
    'SwSTEP 2.0',
    'SolidWorks 2019',
    '' );
FILE_SCHEMA (( 'CONFIG_CONTROL_DESIGN' ));
ENDSEC;

DATA;
#1 = EDGE_CURVE ( 'NONE', #69, #247, #107, .T. ) ;
#2 = DIRECTION ( 'NONE',  ( 1.000000000000000000, 0.000000000000000000, -0.000000000000000000 ) ) ;
#3 = CARTESIAN_POINT ( 'NONE',  ( 4.500000000000000888, 0.000000000000000000, 5.500000000000005329 ) ) ;
#4 = LINE ( 'NONE', #358, #47 ) ;
#5 = EDGE_CURVE ( 'NONE', #247, #69, #32, .T. ) ;
#6 = VERTEX_POINT ( 'NONE', #206 ) ;
#7 = CARTESIAN_POINT ( 'NONE',  ( 0.000000000000000000, 0.000000000000000000, 80.00000000000000000 ) ) ;
#8 = VERTEX_POINT ( 'NONE', #112 ) ;
#9 = CARTESIAN_POINT ( 'NONE',  ( 0.000000000000000000, 0.000000000000000000, 0.000000000000000000 ) ) ;
#10 = AXIS2_PLACEMENT_3D ( 'NONE', #288, #117, #22 ) ;
#11 = EDGE_LOOP ( 'NONE', ( #128, #280, #198, #205 ) ) ;
#12 = DIRECTION ( 'NONE',  ( 0.000000000000000000, 0.000000000000000000, -1.000000000000000000 ) ) ;
#13 = AXIS2_PLACEMENT_3D ( 'NONE', #121, #334, #64 ) ;
#14 = EDGE_LOOP ( 'NONE', ( #222, #110 ) ) ;
#15 = EDGE_CURVE ( 'NONE', #78, #315, #135, .T. ) ;
#16 = CARTESIAN_POINT ( 'NONE',  ( 0.000000000000000000, 0.000000000000000000, 0.000000000000000000 ) ) ;
#17 = AXIS2_PLACEMENT_3D ( 'NONE', #362, #35, #67 ) ;
#18 = MECHANICAL_CONTEXT ( 'NONE', #350, 'mechanical' ) ;
#19 = EDGE_CURVE ( 'NONE', #6, #45, #229, .T. ) ;
#20 = APPROVAL_DATE_TIME ( #339, #115 ) ;
#21 = AXIS2_PLACEMENT_3D ( 'NONE', #375, #113, #203 ) ;
#22 = DIRECTION ( 'NONE',  ( 1.000000000000000000, 0.000000000000000000, 0.000000000000000000 ) ) ;
#23 = AXIS2_PLACEMENT_3D ( 'NONE', #241, #151, #326 ) ;
#24 = CARTESIAN_POINT ( 'NONE',  ( -4.500000000000000888, 5.510910596163088569E-16, 5.000000000000002665 ) ) ;
#25 = VERTEX_POINT ( 'NONE', #373 ) ;
#26 = PERSON_AND_ORGANIZATION ( #150, #294 ) ;
#27 = ORIENTED_EDGE ( 'NONE', *, *, #314, .F. ) ;
#28 = EDGE_LOOP ( 'NONE', ( #27, #237 ) ) ;
#29 = ADVANCED_FACE ( 'NONE', ( #351 ), #114, .T. ) ;
#30 =( GEOMETRIC_REPRESENTATION_CONTEXT ( 3 ) GLOBAL_UNCERTAINTY_ASSIGNED_CONTEXT ( ( #295 ) ) GLOBAL_UNIT_ASSIGNED_CONTEXT ( ( #194, #77, #370 ) ) REPRESENTATION_CONTEXT ( 'NONE', 'WORKASPACE' ) );
#31 = CYLINDRICAL_SURFACE ( 'NONE', #61, 2.600000000000000089 ) ;
#32 = CIRCLE ( 'NONE', #148, 4.500000000000000888 ) ;
#33 = EDGE_CURVE ( 'NONE', #45, #332, #355, .T. ) ;
#34 = LINE ( 'NONE', #215, #344 ) ;
#35 = DIRECTION ( 'NONE',  ( 0.000000000000000000, 0.000000000000000000, 1.000000000000000000 ) ) ;
#36 = EDGE_LOOP ( 'NONE', ( #305, #269, #172, #189 ) ) ;
#37 = CARTESIAN_POINT ( 'NONE',  ( 0.000000000000000000, 0.000000000000000000, 80.00000000000000000 ) ) ;
#38 = DIRECTION ( 'NONE',  ( 0.000000000000000000, 0.000000000000000000, -1.000000000000000000 ) ) ;
#39 = MANIFOLD_SOLID_BREP ( 'Odebrat vysunutím3', #178 ) ;
#40 = DIRECTION ( 'NONE',  ( -0.000000000000000000, -0.000000000000000000, -1.000000000000000000 ) ) ;
#41 = DESIGN_CONTEXT ( 'detailed design', #85, 'design' ) ;
#42 = ORIENTED_EDGE ( 'NONE', *, *, #227, .F. ) ;
#43 = DIRECTION ( 'NONE',  ( 1.000000000000000000, 0.000000000000000000, -0.000000000000000000 ) ) ;
#44 = EDGE_CURVE ( 'NONE', #78, #25, #298, .T. ) ;
#45 = VERTEX_POINT ( 'NONE', #381 ) ;
#46 = PERSON_AND_ORGANIZATION ( #150, #294 ) ;
#47 = VECTOR ( 'NONE', #40, 1000.000000000000000 ) ;
#48 = CC_DESIGN_DATE_AND_TIME_ASSIGNMENT ( #193, #308, ( #145 ) ) ;
#49 = FACE_OUTER_BOUND ( 'NONE', #36, .T. ) ;
#50 = LOCAL_TIME ( 11, 8, 46.00000000000000000, #55 ) ;
#51 = APPROVAL_ROLE ( '' ) ;
#52 = EDGE_LOOP ( 'NONE', ( #261, #156, #216, #91 ) ) ;
#53 = APPROVAL_DATE_TIME ( #204, #168 ) ;
#54 = EDGE_LOOP ( 'NONE', ( #184, #161 ) ) ;
#55 = COORDINATED_UNIVERSAL_TIME_OFFSET ( 1, 0, .AHEAD. ) ;
#56 = ORIENTED_EDGE ( 'NONE', *, *, #120, .T. ) ;
#57 = ORIENTED_EDGE ( 'NONE', *, *, #286, .F. ) ;
#58 = SHAPE_DEFINITION_REPRESENTATION ( #200, #311 ) ;
#59 = CARTESIAN_POINT ( 'NONE',  ( 0.000000000000000000, 0.000000000000000000, 5.000000000000000000 ) ) ;
#60 = APPROVAL_ROLE ( '' ) ;
#61 = AXIS2_PLACEMENT_3D ( 'NONE', #7, #306, #273 ) ;
#62 = CARTESIAN_POINT ( 'NONE',  ( 0.000000000000000000, 0.000000000000000000, 80.00000000000000000 ) ) ;
#63 = DIRECTION ( 'NONE',  ( -1.000000000000000000, 0.000000000000000000, 0.000000000000000000 ) ) ;
#64 = DIRECTION ( 'NONE',  ( 1.000000000000000000, 0.000000000000000000, -0.000000000000000000 ) ) ;
#65 = EDGE_LOOP ( 'NONE', ( #98, #159, #139, #345 ) ) ;
#66 = FACE_OUTER_BOUND ( 'NONE', #307, .T. ) ;
#67 = DIRECTION ( 'NONE',  ( 1.000000000000000000, 0.000000000000000000, 0.000000000000000000 ) ) ;
#68 = PRODUCT ( 'cf28', 'cf28', '', ( #18 ) ) ;
#69 = VERTEX_POINT ( 'NONE', #24 ) ;
#70 = DIRECTION ( 'NONE',  ( 0.000000000000000000, 0.000000000000000000, 1.000000000000000000 ) ) ;
#71 = FACE_OUTER_BOUND ( 'NONE', #245, .T. ) ;
#72 = CARTESIAN_POINT ( 'NONE',  ( 0.000000000000000000, 0.000000000000000000, 5.500000000000005329 ) ) ;
#73 = CALENDAR_DATE ( 2022, 10, 7 ) ;
#74 = DIRECTION ( 'NONE',  ( -1.000000000000000000, 0.000000000000000000, 0.000000000000000000 ) ) ;
#75 = AXIS2_PLACEMENT_3D ( 'NONE', #155, #266, #125 ) ;
#76 = ADVANCED_FACE ( 'NONE', ( #137 ), #275, .F. ) ;
#77 =( NAMED_UNIT ( * ) PLANE_ANGLE_UNIT ( ) SI_UNIT ( $, .RADIAN. ) );
#78 = VERTEX_POINT ( 'NONE', #235 ) ;
#79 = PERSON_AND_ORGANIZATION ( #150, #294 ) ;
#80 = VECTOR ( 'NONE', #103, 1000.000000000000000 ) ;
#81 = ORIENTED_EDGE ( 'NONE', *, *, #33, .T. ) ;
#82 = AXIS2_PLACEMENT_3D ( 'NONE', #16, #226, #312 ) ;
#83 = CC_DESIGN_PERSON_AND_ORGANIZATION_ASSIGNMENT ( #368, #170, ( #145 ) ) ;
#84 = CARTESIAN_POINT ( 'NONE',  ( 0.000000000000000000, 0.000000000000000000, 5.000000000000000000 ) ) ;
#85 = APPLICATION_CONTEXT ( 'configuration controlled 3d designs of mechanical parts and assemblies' ) ;
#86 = DIRECTION ( 'NONE',  ( -0.000000000000000000, -0.000000000000000000, -1.000000000000000000 ) ) ;
#87 = VECTOR ( 'NONE', #86, 1000.000000000000000 ) ;
#88 = EDGE_LOOP ( 'NONE', ( #379, #285, #142, #171 ) ) ;
#89 = APPROVAL ( #202, 'NEURÈENÝ' ) ;
#90 = DATE_AND_TIME ( #287, #50 ) ;
#91 = ORIENTED_EDGE ( 'NONE', *, *, #134, .F. ) ;
#92 = PERSON_AND_ORGANIZATION_ROLE ( 'creator' ) ;
#93 = DIRECTION ( 'NONE',  ( 1.000000000000000000, 0.000000000000000000, 0.000000000000000000 ) ) ;
#94 = DIRECTION ( 'NONE',  ( 0.000000000000000000, 0.000000000000000000, 1.000000000000000000 ) ) ;
#95 = AXIS2_PLACEMENT_3D ( 'NONE', #96, #323, #157 ) ;
#96 = CARTESIAN_POINT ( 'NONE',  ( 0.000000000000000000, 0.000000000000000000, 0.000000000000000000 ) ) ;
#97 = CARTESIAN_POINT ( 'NONE',  ( -2.600000000000000089, 0.000000000000000000, 80.00000000000000000 ) ) ;
#98 = ORIENTED_EDGE ( 'NONE', *, *, #33, .F. ) ;
#99 = CARTESIAN_POINT ( 'NONE',  ( -2.600000000000000089, 0.000000000000000000, 80.00000000000000000 ) ) ;
#100 = FACE_BOUND ( 'NONE', #28, .T. ) ;
#101 = APPROVAL_PERSON_ORGANIZATION ( #162, #168, #369 ) ;
#102 = EDGE_CURVE ( 'NONE', #152, #338, #353, .T. ) ;
#103 = DIRECTION ( 'NONE',  ( -0.000000000000000000, -0.000000000000000000, -1.000000000000000000 ) ) ;
#104 = AXIS2_PLACEMENT_3D ( 'NONE', #209, #144, #268 ) ;
#105 = COORDINATED_UNIVERSAL_TIME_OFFSET ( 1, 0, .AHEAD. ) ;
#106 = COORDINATED_UNIVERSAL_TIME_OFFSET ( 1, 0, .AHEAD. ) ;
#107 = CIRCLE ( 'NONE', #10, 4.500000000000000888 ) ;
#108 = EDGE_CURVE ( 'NONE', #45, #6, #239, .T. ) ;
#109 = EDGE_LOOP ( 'NONE', ( #132, #302 ) ) ;
#110 = ORIENTED_EDGE ( 'NONE', *, *, #108, .T. ) ;
#111 = AXIS2_PLACEMENT_3D ( 'NONE', #243, #271, #329 ) ;
#112 = CARTESIAN_POINT ( 'NONE',  ( 2.600000000000000089, 3.184081677783118191E-16, 80.00000000000000000 ) ) ;
#113 = DIRECTION ( 'NONE',  ( 0.000000000000000000, 0.000000000000000000, 1.000000000000000000 ) ) ;
#114 = CYLINDRICAL_SURFACE ( 'NONE', #236, 7.000000000000000000 ) ;
#115 = APPROVAL ( #196, 'NEURÈENÝ' ) ;
#116 = CC_DESIGN_APPROVAL ( #89, ( #346 ) ) ;
#117 = DIRECTION ( 'NONE',  ( -0.000000000000000000, -0.000000000000000000, -1.000000000000000000 ) ) ;
#118 = CYLINDRICAL_SURFACE ( 'NONE', #220, 7.000000000000000000 ) ;
#119 = DIRECTION ( 'NONE',  ( -0.000000000000000000, -0.000000000000000000, -1.000000000000000000 ) ) ;
#120 = EDGE_CURVE ( 'NONE', #300, #315, #240, .T. ) ;
#121 = CARTESIAN_POINT ( 'NONE',  ( 0.000000000000000000, 0.000000000000000000, 80.00000000000000000 ) ) ;
#122 = DIRECTION ( 'NONE',  ( 1.000000000000000000, 0.000000000000000000, 0.000000000000000000 ) ) ;
#123 = DIRECTION ( 'NONE',  ( 0.000000000000000000, 0.000000000000000000, 1.000000000000000000 ) ) ;
#124 = LINE ( 'NONE', #186, #80 ) ;
#125 = DIRECTION ( 'NONE',  ( -1.000000000000000000, 0.000000000000000000, 0.000000000000000000 ) ) ;
#126 = EDGE_LOOP ( 'NONE', ( #57, #133, #330, #320 ) ) ;
#127 = AXIS2_PLACEMENT_3D ( 'NONE', #217, #277, #43 ) ;
#128 = ORIENTED_EDGE ( 'NONE', *, *, #310, .F. ) ;
#129 = DIRECTION ( 'NONE',  ( 0.000000000000000000, 0.000000000000000000, -1.000000000000000000 ) ) ;
#130 = CALENDAR_DATE ( 2022, 10, 7 ) ;
#131 = AXIS2_PLACEMENT_3D ( 'NONE', #59, #293, #264 ) ;
#132 = ORIENTED_EDGE ( 'NONE', *, *, #262, .F. ) ;
#133 = ORIENTED_EDGE ( 'NONE', *, *, #374, .T. ) ;
#134 = EDGE_CURVE ( 'NONE', #332, #247, #380, .T. ) ;
#135 = LINE ( 'NONE', #348, #252 ) ;
#136 = AXIS2_PLACEMENT_3D ( 'NONE', #37, #281, #341 ) ;
#137 = FACE_OUTER_BOUND ( 'NONE', #88, .T. ) ;
#138 = EDGE_CURVE ( 'NONE', #25, #78, #160, .T. ) ;
#139 = ORIENTED_EDGE ( 'NONE', *, *, #282, .T. ) ;
#140 = ORIENTED_EDGE ( 'NONE', *, *, #108, .F. ) ;
#141 = APPROVAL_DATE_TIME ( #317, #89 ) ;
#142 = ORIENTED_EDGE ( 'NONE', *, *, #134, .T. ) ;
#143 = AXIS2_PLACEMENT_3D ( 'NONE', #72, #331, #190 ) ;
#144 = DIRECTION ( 'NONE',  ( 1.224646799147353207E-16, 1.000000000000000000, -0.000000000000000000 ) ) ;
#145 = PRODUCT_DEFINITION ( 'NEZNÁMÝ', '', #263, #41 ) ;
#146 = FACE_OUTER_BOUND ( 'NONE', #126, .T. ) ;
#147 = FACE_OUTER_BOUND ( 'NONE', #65, .T. ) ;
#148 = AXIS2_PLACEMENT_3D ( 'NONE', #377, #179, #238 ) ;
#149 = CARTESIAN_POINT ( 'NONE',  ( 0.000000000000000000, 0.000000000000000000, 5.000000000000000000 ) ) ;
#150 = PERSON ( 'NEURÈENÝ', 'NEURÈENÝ', 'NEURÈENÝ', ('NEURÈENÝ'), ('NEURÈENÝ'), ('NEURÈENÝ') ) ;
#151 = DIRECTION ( 'NONE',  ( 0.000000000000000000, 0.000000000000000000, 1.000000000000000000 ) ) ;
#152 = VERTEX_POINT ( 'NONE', #183 ) ;
#153 = PLANE ( 'NONE',  #313 ) ;
#154 = CC_DESIGN_PERSON_AND_ORGANIZATION_ASSIGNMENT ( #354, #376, ( #346 ) ) ;
#155 = CARTESIAN_POINT ( 'NONE',  ( 0.000000000000000000, 0.000000000000000000, 80.00000000000000000 ) ) ;
#156 = ORIENTED_EDGE ( 'NONE', *, *, #164, .T. ) ;
#157 = DIRECTION ( 'NONE',  ( 1.000000000000000000, 0.000000000000000000, 0.000000000000000000 ) ) ;
#158 = CARTESIAN_POINT ( 'NONE',  ( 0.000000000000000000, 0.000000000000000000, 0.000000000000000000 ) ) ;
#159 = ORIENTED_EDGE ( 'NONE', *, *, #19, .F. ) ;
#160 = CIRCLE ( 'NONE', #23, 7.000000000000000000 ) ;
#161 = ORIENTED_EDGE ( 'NONE', *, *, #138, .T. ) ;
#162 = PERSON_AND_ORGANIZATION ( #150, #294 ) ;
#163 = LOCAL_TIME ( 11, 8, 46.00000000000000000, #283 ) ;
#164 = EDGE_CURVE ( 'NONE', #230, #69, #347, .T. ) ;
#165 = AXIS2_PLACEMENT_3D ( 'NONE', #176, #255, #292 ) ;
#166 = PERSON_AND_ORGANIZATION_ROLE ( 'design_owner' ) ;
#167 = CIRCLE ( 'NONE', #211, 4.000000000000000000 ) ;
#168 = APPROVAL ( #251, 'NEURÈENÝ' ) ;
#169 = ORIENTED_EDGE ( 'NONE', *, *, #282, .F. ) ;
#170 = PERSON_AND_ORGANIZATION_ROLE ( 'creator' ) ;
#171 = ORIENTED_EDGE ( 'NONE', *, *, #1, .F. ) ;
#172 = ORIENTED_EDGE ( 'NONE', *, *, #102, .T. ) ;
#173 = ADVANCED_FACE ( 'NONE', ( #147 ), #187, .T. ) ;
#174 = LOCAL_TIME ( 11, 8, 46.00000000000000000, #349 ) ;
#175 = DIRECTION ( 'NONE',  ( -0.000000000000000000, -0.000000000000000000, -1.000000000000000000 ) ) ;
#176 = CARTESIAN_POINT ( 'NONE',  ( 0.000000000000000000, 0.000000000000000000, 80.00000000000000000 ) ) ;
#177 = DATE_TIME_ROLE ( 'classification_date' ) ;
#178 = CLOSED_SHELL ( 'NONE', ( #208, #181, #371, #201, #29, #224, #234, #173, #185, #76, #214 ) ) ;
#179 = DIRECTION ( 'NONE',  ( -0.000000000000000000, -0.000000000000000000, -1.000000000000000000 ) ) ;
#180 = AXIS2_PLACEMENT_3D ( 'NONE', #158, #123, #213 ) ;
#181 = ADVANCED_FACE ( 'NONE', ( #274 ), #231, .F. ) ;
#182 = AXIS2_PLACEMENT_3D ( 'NONE', #3, #299, #38 ) ;
#183 = CARTESIAN_POINT ( 'NONE',  ( 2.600000000000000089, 3.184081677783118191E-16, 0.000000000000000000 ) ) ;
#184 = ORIENTED_EDGE ( 'NONE', *, *, #44, .T. ) ;
#185 = ADVANCED_FACE ( 'NONE', ( #100, #304 ), #218, .T. ) ;
#186 = CARTESIAN_POINT ( 'NONE',  ( -4.000000000000000000, 0.000000000000000000, 80.00000000000000000 ) ) ;
#187 = CYLINDRICAL_SURFACE ( 'NONE', #75, 4.000000000000000000 ) ;
#188 = CARTESIAN_POINT ( 'NONE',  ( -7.000000000000000000, 0.000000000000000000, 0.000000000000000000 ) ) ;
#189 = ORIENTED_EDGE ( 'NONE', *, *, #254, .F. ) ;
#190 = DIRECTION ( 'NONE',  ( 1.000000000000000000, 0.000000000000000000, 0.000000000000000000 ) ) ;
#191 = AXIS2_PLACEMENT_3D ( 'NONE', #318, #119, #93 ) ;
#192 = ORIENTED_EDGE ( 'NONE', *, *, #15, .F. ) ;
#193 = DATE_AND_TIME ( #73, #219 ) ;
#194 =( LENGTH_UNIT ( ) NAMED_UNIT ( * ) SI_UNIT ( .MILLI., .METRE. ) );
#195 = APPLICATION_PROTOCOL_DEFINITION ( 'international standard', 'config_control_design', 1994, #350 ) ;
#196 = APPROVAL_STATUS ( 'not_yet_approved' ) ;
#197 = AXIS2_PLACEMENT_3D ( 'NONE', #9, #297, #365 ) ;
#198 = ORIENTED_EDGE ( 'NONE', *, *, #15, .T. ) ;
#199 = DIRECTION ( 'NONE',  ( -1.000000000000000000, 0.000000000000000000, 0.000000000000000000 ) ) ;
#200 = PRODUCT_DEFINITION_SHAPE ( 'NONE', 'NONE',  #145 ) ;
#201 = ADVANCED_FACE ( 'NONE', ( #71 ), #118, .T. ) ;
#202 = APPROVAL_STATUS ( 'not_yet_approved' ) ;
#203 = DIRECTION ( 'NONE',  ( 1.000000000000000000, 0.000000000000000000, 0.000000000000000000 ) ) ;
#204 = DATE_AND_TIME ( #207, #366 ) ;
#205 = ORIENTED_EDGE ( 'NONE', *, *, #262, .T. ) ;
#206 = CARTESIAN_POINT ( 'NONE',  ( -4.000000000000000000, 0.000000000000000000, 80.00000000000000000 ) ) ;
#207 = CALENDAR_DATE ( 2022, 10, 7 ) ;
#208 = ADVANCED_FACE ( 'NONE', ( #49 ), #242, .F. ) ;
#209 = CARTESIAN_POINT ( 'NONE',  ( -4.500000000000000888, 5.510910596163089556E-16, 5.500000000000005329 ) ) ;
#210 = CARTESIAN_POINT ( 'NONE',  ( -4.000000000000000000, 0.000000000000000000, 5.500000000000005329 ) ) ;
#211 = AXIS2_PLACEMENT_3D ( 'NONE', #337, #333, #361 ) ;
#212 = FACE_OUTER_BOUND ( 'NONE', #109, .T. ) ;
#213 = DIRECTION ( 'NONE',  ( 1.000000000000000000, 0.000000000000000000, 0.000000000000000000 ) ) ;
#214 = ADVANCED_FACE ( 'NONE', ( #146 ), #31, .F. ) ;
#215 = CARTESIAN_POINT ( 'NONE',  ( 2.600000000000000089, 3.184081677783118191E-16, 80.00000000000000000 ) ) ;
#216 = ORIENTED_EDGE ( 'NONE', *, *, #5, .F. ) ;
#217 = CARTESIAN_POINT ( 'NONE',  ( 0.000000000000000000, 0.000000000000000000, 0.000000000000000000 ) ) ;
#218 = PLANE ( 'NONE',  #13 ) ;
#219 = LOCAL_TIME ( 11, 8, 46.00000000000000000, #105 ) ;
#220 = AXIS2_PLACEMENT_3D ( 'NONE', #225, #253, #74 ) ;
#221 = CARTESIAN_POINT ( 'NONE',  ( -2.600000000000000089, 0.000000000000000000, 0.000000000000000000 ) ) ;
#222 = ORIENTED_EDGE ( 'NONE', *, *, #19, .T. ) ;
#223 = DIRECTION ( 'NONE',  ( 1.000000000000000000, 0.000000000000000000, 0.000000000000000000 ) ) ;
#224 = ADVANCED_FACE ( 'NONE', ( #265, #360 ), #153, .T. ) ;
#225 = CARTESIAN_POINT ( 'NONE',  ( 0.000000000000000000, 0.000000000000000000, 5.000000000000000000 ) ) ;
#226 = DIRECTION ( 'NONE',  ( 0.000000000000000000, 0.000000000000000000, 1.000000000000000000 ) ) ;
#227 = EDGE_CURVE ( 'NONE', #338, #152, #278, .T. ) ;
#228 = ORIENTED_EDGE ( 'NONE', *, *, #1, .T. ) ;
#229 = CIRCLE ( 'NONE', #165, 4.000000000000000000 ) ;
#230 = VERTEX_POINT ( 'NONE', #210 ) ;
#231 = TOROIDAL_SURFACE ( 'NONE', #111, 4.500000000000000888, 0.5000000000000000000 ) ;
#232 = VERTEX_POINT ( 'NONE', #97 ) ;
#233 = PERSON_AND_ORGANIZATION ( #150, #294 ) ;
#234 = ADVANCED_FACE ( 'NONE', ( #303, #212 ), #244, .F. ) ;
#235 = CARTESIAN_POINT ( 'NONE',  ( -7.000000000000000000, 0.000000000000000000, 5.000000000000000000 ) ) ;
#236 = AXIS2_PLACEMENT_3D ( 'NONE', #84, #175, #199 ) ;
#237 = ORIENTED_EDGE ( 'NONE', *, *, #374, .F. ) ;
#238 = DIRECTION ( 'NONE',  ( 1.000000000000000000, 0.000000000000000000, 0.000000000000000000 ) ) ;
#239 = CIRCLE ( 'NONE', #17, 4.000000000000000000 ) ;
#240 = CIRCLE ( 'NONE', #180, 7.000000000000000000 ) ;
#241 = CARTESIAN_POINT ( 'NONE',  ( 0.000000000000000000, 0.000000000000000000, 5.000000000000000000 ) ) ;
#242 = CYLINDRICAL_SURFACE ( 'NONE', #322, 2.600000000000000089 ) ;
#243 = CARTESIAN_POINT ( 'NONE',  ( 0.000000000000000000, 0.000000000000000000, 5.500000000000005329 ) ) ;
#244 = PLANE ( 'NONE',  #127 ) ;
#245 = EDGE_LOOP ( 'NONE', ( #316, #290, #56, #192 ) ) ;
#246 = CARTESIAN_POINT ( 'NONE',  ( 7.000000000000000000, 8.572527594031473190E-16, 0.000000000000000000 ) ) ;
#247 = VERTEX_POINT ( 'NONE', #328 ) ;
#248 = CC_DESIGN_APPROVAL ( #168, ( #263 ) ) ;
#249 = CIRCLE ( 'NONE', #359, 2.600000000000000089 ) ;
#250 = CARTESIAN_POINT ( 'NONE',  ( 0.000000000000000000, 0.000000000000000000, 80.00000000000000000 ) ) ;
#251 = APPROVAL_STATUS ( 'not_yet_approved' ) ;
#252 = VECTOR ( 'NONE', #259, 1000.000000000000000 ) ;
#253 = DIRECTION ( 'NONE',  ( -0.000000000000000000, -0.000000000000000000, -1.000000000000000000 ) ) ;
#254 = EDGE_CURVE ( 'NONE', #232, #338, #267, .T. ) ;
#255 = DIRECTION ( 'NONE',  ( 0.000000000000000000, 0.000000000000000000, 1.000000000000000000 ) ) ;
#256 = CIRCLE ( 'NONE', #143, 4.000000000000000000 ) ;
#257 = APPROVAL_PERSON_ORGANIZATION ( #26, #89, #60 ) ;
#258 = PRODUCT_RELATED_PRODUCT_CATEGORY ( 'detail', '', ( #68 ) ) ;
#259 = DIRECTION ( 'NONE',  ( -0.000000000000000000, -0.000000000000000000, -1.000000000000000000 ) ) ;
#260 = PERSON_AND_ORGANIZATION ( #150, #294 ) ;
#261 = ORIENTED_EDGE ( 'NONE', *, *, #343, .F. ) ;
#262 = EDGE_CURVE ( 'NONE', #315, #300, #309, .T. ) ;
#263 = PRODUCT_DEFINITION_FORMATION_WITH_SPECIFIED_SOURCE ( 'LIBOVOLNÝ', '', #68, .NOT_KNOWN. ) ;
#264 = DIRECTION ( 'NONE',  ( 1.000000000000000000, 0.000000000000000000, 0.000000000000000000 ) ) ;
#265 = FACE_BOUND ( 'NONE', #367, .T. ) ;
#266 = DIRECTION ( 'NONE',  ( -0.000000000000000000, -0.000000000000000000, -1.000000000000000000 ) ) ;
#267 = LINE ( 'NONE', #99, #279 ) ;
#268 = DIRECTION ( 'NONE',  ( -1.000000000000000000, 1.224646799147351482E-16, 0.000000000000000000 ) ) ;
#269 = ORIENTED_EDGE ( 'NONE', *, *, #286, .T. ) ;
#270 = DIRECTION ( 'NONE',  ( 0.000000000000000000, 0.000000000000000000, -1.000000000000000000 ) ) ;
#271 = DIRECTION ( 'NONE',  ( 0.000000000000000000, 0.000000000000000000, 1.000000000000000000 ) ) ;
#272 = ORIENTED_EDGE ( 'NONE', *, *, #352, .T. ) ;
#273 = DIRECTION ( 'NONE',  ( -1.000000000000000000, 0.000000000000000000, 0.000000000000000000 ) ) ;
#274 = FACE_OUTER_BOUND ( 'NONE', #52, .T. ) ;
#275 = TOROIDAL_SURFACE ( 'NONE', #21, 4.500000000000000888, 0.5000000000000000000 ) ;
#276 = ORIENTED_EDGE ( 'NONE', *, *, #5, .T. ) ;
#277 = DIRECTION ( 'NONE',  ( 0.000000000000000000, 0.000000000000000000, 1.000000000000000000 ) ) ;
#278 = CIRCLE ( 'NONE', #95, 2.600000000000000089 ) ;
#279 = VECTOR ( 'NONE', #129, 1000.000000000000000 ) ;
#280 = ORIENTED_EDGE ( 'NONE', *, *, #44, .F. ) ;
#281 = DIRECTION ( 'NONE',  ( -0.000000000000000000, -0.000000000000000000, -1.000000000000000000 ) ) ;
#282 = EDGE_CURVE ( 'NONE', #6, #230, #124, .T. ) ;
#283 = COORDINATED_UNIVERSAL_TIME_OFFSET ( 1, 0, .AHEAD. ) ;
#284 = APPROVAL_PERSON_ORGANIZATION ( #46, #115, #51 ) ;
#285 = ORIENTED_EDGE ( 'NONE', *, *, #352, .F. ) ;
#286 = EDGE_CURVE ( 'NONE', #8, #152, #34, .T. ) ;
#287 = CALENDAR_DATE ( 2022, 10, 7 ) ;
#288 = CARTESIAN_POINT ( 'NONE',  ( 0.000000000000000000, 0.000000000000000000, 5.000000000000000000 ) ) ;
#289 = PERSON_AND_ORGANIZATION_ROLE ( 'design_supplier' ) ;
#290 = ORIENTED_EDGE ( 'NONE', *, *, #310, .T. ) ;
#291 = CC_DESIGN_PERSON_AND_ORGANIZATION_ASSIGNMENT ( #233, #289, ( #263 ) ) ;
#292 = DIRECTION ( 'NONE',  ( 1.000000000000000000, 0.000000000000000000, 0.000000000000000000 ) ) ;
#293 = DIRECTION ( 'NONE',  ( 0.000000000000000000, 0.000000000000000000, 1.000000000000000000 ) ) ;
#294 = ORGANIZATION ( 'NEURÈENÝ', 'NEURÈENÝ', '' ) ;
#295 = UNCERTAINTY_MEASURE_WITH_UNIT (LENGTH_MEASURE( 1.000000000000000082E-05 ), #194, 'distance_accuracy_value', 'NONE');
#296 = CARTESIAN_POINT ( 'NONE',  ( 0.000000000000000000, 0.000000000000000000, 80.00000000000000000 ) ) ;
#297 = DIRECTION ( 'NONE',  ( 0.000000000000000000, 0.000000000000000000, 1.000000000000000000 ) ) ;
#298 = CIRCLE ( 'NONE', #131, 7.000000000000000000 ) ;
#299 = DIRECTION ( 'NONE',  ( 0.000000000000000000, -1.000000000000000000, 0.000000000000000000 ) ) ;
#300 = VERTEX_POINT ( 'NONE', #246 ) ;
#301 = CYLINDRICAL_SURFACE ( 'NONE', #136, 4.000000000000000000 ) ;
#302 = ORIENTED_EDGE ( 'NONE', *, *, #120, .F. ) ;
#303 = FACE_BOUND ( 'NONE', #356, .T. ) ;
#304 = FACE_OUTER_BOUND ( 'NONE', #14, .T. ) ;
#305 = ORIENTED_EDGE ( 'NONE', *, *, #314, .T. ) ;
#306 = DIRECTION ( 'NONE',  ( 0.000000000000000000, 0.000000000000000000, -1.000000000000000000 ) ) ;
#307 = EDGE_LOOP ( 'NONE', ( #140, #81, #272, #169 ) ) ;
#308 = DATE_TIME_ROLE ( 'creation_date' ) ;
#309 = CIRCLE ( 'NONE', #197, 7.000000000000000000 ) ;
#310 = EDGE_CURVE ( 'NONE', #25, #300, #4, .T. ) ;
#311 = ADVANCED_BREP_SHAPE_REPRESENTATION ( 'cf28', ( #39, #82 ), #30 ) ;
#312 = DIRECTION ( 'NONE',  ( 1.000000000000000000, 0.000000000000000000, 0.000000000000000000 ) ) ;
#313 = AXIS2_PLACEMENT_3D ( 'NONE', #149, #70, #2 ) ;
#314 = EDGE_CURVE ( 'NONE', #232, #8, #372, .T. ) ;
#315 = VERTEX_POINT ( 'NONE', #188 ) ;
#316 = ORIENTED_EDGE ( 'NONE', *, *, #138, .F. ) ;
#317 = DATE_AND_TIME ( #357, #174 ) ;
#318 = CARTESIAN_POINT ( 'NONE',  ( 0.000000000000000000, 0.000000000000000000, 0.000000000000000000 ) ) ;
#319 = CC_DESIGN_PERSON_AND_ORGANIZATION_ASSIGNMENT ( #79, #166, ( #68 ) ) ;
#320 = ORIENTED_EDGE ( 'NONE', *, *, #227, .T. ) ;
#321 = CARTESIAN_POINT ( 'NONE',  ( 4.000000000000000000, 4.898587196589412829E-16, 80.00000000000000000 ) ) ;
#322 = AXIS2_PLACEMENT_3D ( 'NONE', #296, #270, #63 ) ;
#323 = DIRECTION ( 'NONE',  ( -0.000000000000000000, -0.000000000000000000, -1.000000000000000000 ) ) ;
#324 = CC_DESIGN_SECURITY_CLASSIFICATION ( #346, ( #263 ) ) ;
#325 = AXIS2_PLACEMENT_3D ( 'NONE', #62, #94, #122 ) ;
#326 = DIRECTION ( 'NONE',  ( 1.000000000000000000, 0.000000000000000000, 0.000000000000000000 ) ) ;
#327 = CC_DESIGN_DATE_AND_TIME_ASSIGNMENT ( #90, #177, ( #346 ) ) ;
#328 = CARTESIAN_POINT ( 'NONE',  ( 4.500000000000000888, 0.000000000000000000, 5.000000000000002665 ) ) ;
#329 = DIRECTION ( 'NONE',  ( 1.000000000000000000, 0.000000000000000000, 0.000000000000000000 ) ) ;
#330 = ORIENTED_EDGE ( 'NONE', *, *, #254, .T. ) ;
#331 = DIRECTION ( 'NONE',  ( 0.000000000000000000, 0.000000000000000000, 1.000000000000000000 ) ) ;
#332 = VERTEX_POINT ( 'NONE', #364 ) ;
#333 = DIRECTION ( 'NONE',  ( 0.000000000000000000, 0.000000000000000000, 1.000000000000000000 ) ) ;
#334 = DIRECTION ( 'NONE',  ( 0.000000000000000000, 0.000000000000000000, 1.000000000000000000 ) ) ;
#335 = CC_DESIGN_APPROVAL ( #115, ( #145 ) ) ;
#336 = ORIENTED_EDGE ( 'NONE', *, *, #102, .F. ) ;
#337 = CARTESIAN_POINT ( 'NONE',  ( 0.000000000000000000, 0.000000000000000000, 5.500000000000005329 ) ) ;
#338 = VERTEX_POINT ( 'NONE', #221 ) ;
#339 = DATE_AND_TIME ( #130, #163 ) ;
#340 = DIRECTION ( 'NONE',  ( 0.000000000000000000, 0.000000000000000000, 1.000000000000000000 ) ) ;
#341 = DIRECTION ( 'NONE',  ( -1.000000000000000000, 0.000000000000000000, 0.000000000000000000 ) ) ;
#342 = APPLICATION_PROTOCOL_DEFINITION ( 'international standard', 'config_control_design', 1994, #85 ) ;
#343 = EDGE_CURVE ( 'NONE', #230, #332, #167, .T. ) ;
#344 = VECTOR ( 'NONE', #12, 1000.000000000000000 ) ;
#345 = ORIENTED_EDGE ( 'NONE', *, *, #343, .T. ) ;
#346 = SECURITY_CLASSIFICATION ( '', '', #378 ) ;
#347 = CIRCLE ( 'NONE', #104, 0.5000000000000004441 ) ;
#348 = CARTESIAN_POINT ( 'NONE',  ( -7.000000000000000000, 0.000000000000000000, 5.000000000000000000 ) ) ;
#349 = COORDINATED_UNIVERSAL_TIME_OFFSET ( 1, 0, .AHEAD. ) ;
#350 = APPLICATION_CONTEXT ( 'configuration controlled 3d designs of mechanical parts and assemblies' ) ;
#351 = FACE_OUTER_BOUND ( 'NONE', #11, .T. ) ;
#352 = EDGE_CURVE ( 'NONE', #332, #230, #256, .T. ) ;
#353 = CIRCLE ( 'NONE', #191, 2.600000000000000089 ) ;
#354 = PERSON_AND_ORGANIZATION ( #150, #294 ) ;
#355 = LINE ( 'NONE', #321, #87 ) ;
#356 = EDGE_LOOP ( 'NONE', ( #42, #336 ) ) ;
#357 = CALENDAR_DATE ( 2022, 10, 7 ) ;
#358 = CARTESIAN_POINT ( 'NONE',  ( 7.000000000000000000, 8.572527594031473190E-16, 5.000000000000000000 ) ) ;
#359 = AXIS2_PLACEMENT_3D ( 'NONE', #250, #340, #223 ) ;
#360 = FACE_OUTER_BOUND ( 'NONE', #54, .T. ) ;
#361 = DIRECTION ( 'NONE',  ( 1.000000000000000000, 0.000000000000000000, 0.000000000000000000 ) ) ;
#362 = CARTESIAN_POINT ( 'NONE',  ( 0.000000000000000000, 0.000000000000000000, 80.00000000000000000 ) ) ;
#363 = CC_DESIGN_PERSON_AND_ORGANIZATION_ASSIGNMENT ( #260, #92, ( #263 ) ) ;
#364 = CARTESIAN_POINT ( 'NONE',  ( 4.000000000000000000, 4.898587196589412829E-16, 5.500000000000005329 ) ) ;
#365 = DIRECTION ( 'NONE',  ( 1.000000000000000000, 0.000000000000000000, 0.000000000000000000 ) ) ;
#366 = LOCAL_TIME ( 11, 8, 46.00000000000000000, #106 ) ;
#367 = EDGE_LOOP ( 'NONE', ( #276, #228 ) ) ;
#368 = PERSON_AND_ORGANIZATION ( #150, #294 ) ;
#369 = APPROVAL_ROLE ( '' ) ;
#370 =( NAMED_UNIT ( * ) SI_UNIT ( $, .STERADIAN. ) SOLID_ANGLE_UNIT ( ) );
#371 = ADVANCED_FACE ( 'NONE', ( #66 ), #301, .T. ) ;
#372 = CIRCLE ( 'NONE', #325, 2.600000000000000089 ) ;
#373 = CARTESIAN_POINT ( 'NONE',  ( 7.000000000000000000, 8.572527594031473190E-16, 5.000000000000000000 ) ) ;
#374 = EDGE_CURVE ( 'NONE', #8, #232, #249, .T. ) ;
#375 = CARTESIAN_POINT ( 'NONE',  ( 0.000000000000000000, 0.000000000000000000, 5.500000000000005329 ) ) ;
#376 = PERSON_AND_ORGANIZATION_ROLE ( 'classification_officer' ) ;
#377 = CARTESIAN_POINT ( 'NONE',  ( 0.000000000000000000, 0.000000000000000000, 5.000000000000000000 ) ) ;
#378 = SECURITY_CLASSIFICATION_LEVEL ( 'unclassified' ) ;
#379 = ORIENTED_EDGE ( 'NONE', *, *, #164, .F. ) ;
#380 = CIRCLE ( 'NONE', #182, 0.5000000000000004441 ) ;
#381 = CARTESIAN_POINT ( 'NONE',  ( 4.000000000000000000, 4.898587196589412829E-16, 80.00000000000000000 ) ) ;
ENDSEC;
END-ISO-10303-21;
