ISO-10303-21;
HEADER;
FILE_DESCRIPTION (( 'STEP AP203' ),
    '1' );
FILE_NAME ('c207.STEP',
    '2022-07-10T09:12:10',
    ( '' ),
    ( '' ),
    'SwSTEP 2.0',
    'SolidWorks 2019',
    '' );
FILE_SCHEMA (( 'CONFIG_CONTROL_DESIGN' ));
ENDSEC;

DATA;
#1 = DIRECTION ( 'NONE',  ( 0.000000000000000000, 0.000000000000000000, -1.000000000000000000 ) ) ;
#2 = DIRECTION ( 'NONE',  ( 0.000000000000000000, 0.000000000000000000, 1.000000000000000000 ) ) ;
#3 = DATE_AND_TIME ( #306, #178 ) ;
#4 = AXIS2_PLACEMENT_3D ( 'NONE', #326, #187, #272 ) ;
#5 = ORIENTED_EDGE ( 'NONE', *, *, #238, .F. ) ;
#6 = CARTESIAN_POINT ( 'NONE',  ( 4.000000000000000000, 4.898587196589412829E-16, 180.0000000000000000 ) ) ;
#7 = CC_DESIGN_APPROVAL ( #209, ( #107 ) ) ;
#8 = CARTESIAN_POINT ( 'NONE',  ( -2.100000000000000089, 0.000000000000000000, 180.0000000000000000 ) ) ;
#9 = LINE ( 'NONE', #169, #76 ) ;
#10 = APPLICATION_CONTEXT ( 'configuration controlled 3d designs of mechanical parts and assemblies' ) ;
#11 = EDGE_CURVE ( 'NONE', #246, #211, #79, .T. ) ;
#12 = CARTESIAN_POINT ( 'NONE',  ( 2.100000000000000089, 2.571758278209441464E-16, 180.0000000000000000 ) ) ;
#13 = TOROIDAL_SURFACE ( 'NONE', #263, 4.500000000000000888, 0.5000000000000000000 ) ;
#14 = ORIENTED_EDGE ( 'NONE', *, *, #200, .F. ) ;
#15 = ORIENTED_EDGE ( 'NONE', *, *, #253, .F. ) ;
#16 = CC_DESIGN_PERSON_AND_ORGANIZATION_ASSIGNMENT ( #129, #196, ( #107 ) ) ;
#17 = FACE_OUTER_BOUND ( 'NONE', #34, .T. ) ;
#18 = EDGE_LOOP ( 'NONE', ( #114, #116, #88, #288 ) ) ;
#19 = CARTESIAN_POINT ( 'NONE',  ( 0.000000000000000000, 0.000000000000000000, 180.0000000000000000 ) ) ;
#20 = VECTOR ( 'NONE', #323, 1000.000000000000000 ) ;
#21 = PRODUCT_RELATED_PRODUCT_CATEGORY ( 'detail', '', ( #162 ) ) ;
#22 = EDGE_CURVE ( 'NONE', #211, #246, #233, .T. ) ;
#23 = EDGE_LOOP ( 'NONE', ( #96, #270 ) ) ;
#24 = DIRECTION ( 'NONE',  ( 0.000000000000000000, 0.000000000000000000, 1.000000000000000000 ) ) ;
#25 = ORIENTED_EDGE ( 'NONE', *, *, #342, .T. ) ;
#26 = APPROVAL_PERSON_ORGANIZATION ( #132, #99, #228 ) ;
#27 = CARTESIAN_POINT ( 'NONE',  ( 0.000000000000000000, 0.000000000000000000, 5.000000000000000000 ) ) ;
#28 = CIRCLE ( 'NONE', #136, 2.100000000000000089 ) ;
#29 = CARTESIAN_POINT ( 'NONE',  ( 0.000000000000000000, 0.000000000000000000, 0.000000000000000000 ) ) ;
#30 = AXIS2_PLACEMENT_3D ( 'NONE', #330, #93, #91 ) ;
#31 = LINE ( 'NONE', #319, #112 ) ;
#32 = ORIENTED_EDGE ( 'NONE', *, *, #200, .T. ) ;
#33 = EDGE_CURVE ( 'NONE', #320, #235, #120, .T. ) ;
#34 = EDGE_LOOP ( 'NONE', ( #206, #295 ) ) ;
#35 = AXIS2_PLACEMENT_3D ( 'NONE', #39, #144, #344 ) ;
#36 = CALENDAR_DATE ( 2022, 10, 7 ) ;
#37 = CIRCLE ( 'NONE', #30, 7.000000000000000000 ) ;
#38 = AXIS2_PLACEMENT_3D ( 'NONE', #264, #212, #58 ) ;
#39 = CARTESIAN_POINT ( 'NONE',  ( 0.000000000000000000, 0.000000000000000000, 0.000000000000000000 ) ) ;
#40 = APPROVAL_ROLE ( '' ) ;
#41 = DIRECTION ( 'NONE',  ( 1.000000000000000000, 0.000000000000000000, 0.000000000000000000 ) ) ;
#42 = APPLICATION_CONTEXT ( 'configuration controlled 3d designs of mechanical parts and assemblies' ) ;
#43 = AXIS2_PLACEMENT_3D ( 'NONE', #321, #24, #379 ) ;
#44 = FACE_BOUND ( 'NONE', #23, .T. ) ;
#45 = UNCERTAINTY_MEASURE_WITH_UNIT (LENGTH_MEASURE( 1.000000000000000082E-05 ), #317, 'distance_accuracy_value', 'NONE');
#46 = PERSON ( 'NEURÈENÝ', 'NEURÈENÝ', 'NEURÈENÝ', ('NEURÈENÝ'), ('NEURÈENÝ'), ('NEURÈENÝ') ) ;
#47 = CIRCLE ( 'NONE', #141, 7.000000000000000000 ) ;
#48 = DIRECTION ( 'NONE',  ( -0.000000000000000000, -0.000000000000000000, -1.000000000000000000 ) ) ;
#49 = ADVANCED_FACE ( 'NONE', ( #274 ), #221, .T. ) ;
#50 = DATE_AND_TIME ( #259, #312 ) ;
#51 = ORIENTED_EDGE ( 'NONE', *, *, #286, .F. ) ;
#52 = EDGE_CURVE ( 'NONE', #204, #207, #368, .T. ) ;
#53 = CARTESIAN_POINT ( 'NONE',  ( 0.000000000000000000, 0.000000000000000000, 0.000000000000000000 ) ) ;
#54 = VERTEX_POINT ( 'NONE', #119 ) ;
#55 = DIRECTION ( 'NONE',  ( 0.000000000000000000, 0.000000000000000000, 1.000000000000000000 ) ) ;
#56 = ORIENTED_EDGE ( 'NONE', *, *, #286, .T. ) ;
#57 = SECURITY_CLASSIFICATION ( '', '', #250 ) ;
#58 = DIRECTION ( 'NONE',  ( 1.000000000000000000, 0.000000000000000000, 0.000000000000000000 ) ) ;
#59 = VERTEX_POINT ( 'NONE', #218 ) ;
#60 = FACE_OUTER_BOUND ( 'NONE', #181, .T. ) ;
#61 = DIRECTION ( 'NONE',  ( -0.000000000000000000, -0.000000000000000000, -1.000000000000000000 ) ) ;
#62 = DIRECTION ( 'NONE',  ( -1.000000000000000000, 0.000000000000000000, 0.000000000000000000 ) ) ;
#63 = CARTESIAN_POINT ( 'NONE',  ( 0.000000000000000000, 0.000000000000000000, 5.000000000000000000 ) ) ;
#64 = CARTESIAN_POINT ( 'NONE',  ( 0.000000000000000000, 0.000000000000000000, 5.000000000000000000 ) ) ;
#65 = CARTESIAN_POINT ( 'NONE',  ( 0.000000000000000000, 0.000000000000000000, 5.000000000000000000 ) ) ;
#66 = ORIENTED_EDGE ( 'NONE', *, *, #177, .F. ) ;
#67 = CYLINDRICAL_SURFACE ( 'NONE', #97, 2.100000000000000089 ) ;
#68 = COORDINATED_UNIVERSAL_TIME_OFFSET ( 1, 0, .AHEAD. ) ;
#69 = EDGE_CURVE ( 'NONE', #98, #54, #37, .T. ) ;
#70 = DIRECTION ( 'NONE',  ( -0.000000000000000000, -0.000000000000000000, -1.000000000000000000 ) ) ;
#71 = PERSON_AND_ORGANIZATION_ROLE ( 'creator' ) ;
#72 = DIRECTION ( 'NONE',  ( 0.000000000000000000, -1.000000000000000000, 0.000000000000000000 ) ) ;
#73 = APPROVAL_STATUS ( 'not_yet_approved' ) ;
#74 = DIRECTION ( 'NONE',  ( 0.000000000000000000, 0.000000000000000000, -1.000000000000000000 ) ) ;
#75 = CARTESIAN_POINT ( 'NONE',  ( 2.100000000000000089, 2.571758278209441464E-16, 180.0000000000000000 ) ) ;
#76 = VECTOR ( 'NONE', #48, 1000.000000000000000 ) ;
#77 = AXIS2_PLACEMENT_3D ( 'NONE', #19, #348, #62 ) ;
#78 = COORDINATED_UNIVERSAL_TIME_OFFSET ( 1, 0, .AHEAD. ) ;
#79 = CIRCLE ( 'NONE', #292, 2.100000000000000089 ) ;
#80 = CC_DESIGN_SECURITY_CLASSIFICATION ( #57, ( #107 ) ) ;
#81 = CARTESIAN_POINT ( 'NONE',  ( 4.000000000000000000, 4.898587196589412829E-16, 180.0000000000000000 ) ) ;
#82 = LINE ( 'NONE', #268, #20 ) ;
#83 = ORIENTED_EDGE ( 'NONE', *, *, #177, .T. ) ;
#84 =( NAMED_UNIT ( * ) SI_UNIT ( $, .STERADIAN. ) SOLID_ANGLE_UNIT ( ) );
#85 = ORIENTED_EDGE ( 'NONE', *, *, #253, .T. ) ;
#86 = EDGE_CURVE ( 'NONE', #59, #155, #47, .T. ) ;
#87 = DIRECTION ( 'NONE',  ( 1.000000000000000000, 0.000000000000000000, -0.000000000000000000 ) ) ;
#88 = ORIENTED_EDGE ( 'NONE', *, *, #300, .T. ) ;
#89 = AXIS2_PLACEMENT_3D ( 'NONE', #376, #118, #236 ) ;
#90 = DIRECTION ( 'NONE',  ( 1.000000000000000000, 0.000000000000000000, 0.000000000000000000 ) ) ;
#91 = DIRECTION ( 'NONE',  ( 1.000000000000000000, 0.000000000000000000, 0.000000000000000000 ) ) ;
#92 = FACE_OUTER_BOUND ( 'NONE', #186, .T. ) ;
#93 = DIRECTION ( 'NONE',  ( 0.000000000000000000, 0.000000000000000000, 1.000000000000000000 ) ) ;
#94 = DATE_AND_TIME ( #276, #171 ) ;
#95 = TOROIDAL_SURFACE ( 'NONE', #302, 4.500000000000000888, 0.5000000000000000000 ) ;
#96 = ORIENTED_EDGE ( 'NONE', *, *, #11, .F. ) ;
#97 = AXIS2_PLACEMENT_3D ( 'NONE', #297, #1, #354 ) ;
#98 = VERTEX_POINT ( 'NONE', #352 ) ;
#99 = APPROVAL ( #336, 'NEURÈENÝ' ) ;
#100 = ADVANCED_FACE ( 'NONE', ( #189 ), #67, .F. ) ;
#101 = ADVANCED_FACE ( 'NONE', ( #193 ), #13, .F. ) ;
#102 = DIRECTION ( 'NONE',  ( 1.000000000000000000, 0.000000000000000000, 0.000000000000000000 ) ) ;
#103 = CYLINDRICAL_SURFACE ( 'NONE', #275, 7.000000000000000000 ) ;
#104 = PERSON_AND_ORGANIZATION_ROLE ( 'classification_officer' ) ;
#105 = CARTESIAN_POINT ( 'NONE',  ( 4.500000000000000888, 0.000000000000000000, 5.500000000000005329 ) ) ;
#106 = FACE_OUTER_BOUND ( 'NONE', #131, .T. ) ;
#107 = PRODUCT_DEFINITION_FORMATION_WITH_SPECIFIED_SOURCE ( 'LIBOVOLNÝ', '', #162, .NOT_KNOWN. ) ;
#108 = AXIS2_PLACEMENT_3D ( 'NONE', #64, #147, #154 ) ;
#109 = DIRECTION ( 'NONE',  ( -1.000000000000000000, 0.000000000000000000, 0.000000000000000000 ) ) ;
#110 = CC_DESIGN_APPROVAL ( #355, ( #324 ) ) ;
#111 = ORIENTED_EDGE ( 'NONE', *, *, #227, .T. ) ;
#112 = VECTOR ( 'NONE', #117, 1000.000000000000000 ) ;
#113 = DIRECTION ( 'NONE',  ( 1.000000000000000000, 0.000000000000000000, 0.000000000000000000 ) ) ;
#114 = ORIENTED_EDGE ( 'NONE', *, *, #342, .F. ) ;
#115 =( NAMED_UNIT ( * ) PLANE_ANGLE_UNIT ( ) SI_UNIT ( $, .RADIAN. ) );
#116 = ORIENTED_EDGE ( 'NONE', *, *, #69, .F. ) ;
#117 = DIRECTION ( 'NONE',  ( -0.000000000000000000, -0.000000000000000000, -1.000000000000000000 ) ) ;
#118 = DIRECTION ( 'NONE',  ( 0.000000000000000000, 0.000000000000000000, 1.000000000000000000 ) ) ;
#119 = CARTESIAN_POINT ( 'NONE',  ( 7.000000000000000000, 8.572527594031473190E-16, 5.000000000000000000 ) ) ;
#120 = CIRCLE ( 'NONE', #372, 4.500000000000000888 ) ;
#121 = CC_DESIGN_PERSON_AND_ORGANIZATION_ASSIGNMENT ( #216, #71, ( #107 ) ) ;
#122 = FACE_BOUND ( 'NONE', #290, .T. ) ;
#123 = ORIENTED_EDGE ( 'NONE', *, *, #311, .F. ) ;
#124 = APPROVAL_ROLE ( '' ) ;
#125 = ORIENTED_EDGE ( 'NONE', *, *, #214, .T. ) ;
#126 = COORDINATED_UNIVERSAL_TIME_OFFSET ( 1, 0, .AHEAD. ) ;
#127 = AXIS2_PLACEMENT_3D ( 'NONE', #360, #198, #173 ) ;
#128 = EDGE_LOOP ( 'NONE', ( #315, #111 ) ) ;
#129 = PERSON_AND_ORGANIZATION ( #46, #194 ) ;
#130 = CC_DESIGN_DATE_AND_TIME_ASSIGNMENT ( #94, #284, ( #324 ) ) ;
#131 = EDGE_LOOP ( 'NONE', ( #151, #85, #370, #66 ) ) ;
#132 = PERSON_AND_ORGANIZATION ( #46, #194 ) ;
#133 = DIRECTION ( 'NONE',  ( -0.000000000000000000, -0.000000000000000000, -1.000000000000000000 ) ) ;
#134 = CALENDAR_DATE ( 2022, 10, 7 ) ;
#135 = LOCAL_TIME ( 11, 12, 10.00000000000000000, #68 ) ;
#136 = AXIS2_PLACEMENT_3D ( 'NONE', #374, #296, #90 ) ;
#137 = DIRECTION ( 'NONE',  ( 0.000000000000000000, 0.000000000000000000, -1.000000000000000000 ) ) ;
#138 = DIRECTION ( 'NONE',  ( 1.000000000000000000, 0.000000000000000000, 0.000000000000000000 ) ) ;
#139 = ADVANCED_FACE ( 'NONE', ( #165 ), #103, .T. ) ;
#140 = AXIS2_PLACEMENT_3D ( 'NONE', #287, #70, #366 ) ;
#141 = AXIS2_PLACEMENT_3D ( 'NONE', #213, #380, #245 ) ;
#142 = ADVANCED_FACE ( 'NONE', ( #44, #17 ), #256, .F. ) ;
#143 = CARTESIAN_POINT ( 'NONE',  ( -2.100000000000000089, 0.000000000000000000, 0.000000000000000000 ) ) ;
#144 = DIRECTION ( 'NONE',  ( 0.000000000000000000, 0.000000000000000000, 1.000000000000000000 ) ) ;
#145 = ORIENTED_EDGE ( 'NONE', *, *, #265, .F. ) ;
#146 = CIRCLE ( 'NONE', #127, 4.000000000000000000 ) ;
#147 = DIRECTION ( 'NONE',  ( -0.000000000000000000, -0.000000000000000000, -1.000000000000000000 ) ) ;
#148 = ORIENTED_EDGE ( 'NONE', *, *, #381, .T. ) ;
#149 = EDGE_LOOP ( 'NONE', ( #294, #25, #350, #215 ) ) ;
#150 = MECHANICAL_CONTEXT ( 'NONE', #42, 'mechanical' ) ;
#151 = ORIENTED_EDGE ( 'NONE', *, *, #157, .F. ) ;
#152 = APPROVAL_PERSON_ORGANIZATION ( #160, #355, #40 ) ;
#153 = AXIS2_PLACEMENT_3D ( 'NONE', #314, #369, #231 ) ;
#154 = DIRECTION ( 'NONE',  ( 1.000000000000000000, 0.000000000000000000, 0.000000000000000000 ) ) ;
#155 = VERTEX_POINT ( 'NONE', #280 ) ;
#156 = CLOSED_SHELL ( 'NONE', ( #365, #199, #237, #49, #139, #362, #142, #310, #316, #101, #100 ) ) ;
#157 = EDGE_CURVE ( 'NONE', #217, #322, #164, .T. ) ;
#158 = CARTESIAN_POINT ( 'NONE',  ( 4.000000000000000000, 4.898587196589412829E-16, 5.500000000000005329 ) ) ;
#159 = ORIENTED_EDGE ( 'NONE', *, *, #191, .T. ) ;
#160 = PERSON_AND_ORGANIZATION ( #46, #194 ) ;
#161 = DIRECTION ( 'NONE',  ( 1.000000000000000000, 0.000000000000000000, 0.000000000000000000 ) ) ;
#162 = PRODUCT ( 'c207', 'c207', '', ( #150 ) ) ;
#163 = PERSON_AND_ORGANIZATION ( #46, #194 ) ;
#164 = CIRCLE ( 'NONE', #208, 4.000000000000000000 ) ;
#165 = FACE_OUTER_BOUND ( 'NONE', #18, .T. ) ;
#166 = COORDINATED_UNIVERSAL_TIME_OFFSET ( 1, 0, .AHEAD. ) ;
#167 = CARTESIAN_POINT ( 'NONE',  ( -2.100000000000000089, 0.000000000000000000, 180.0000000000000000 ) ) ;
#168 = PERSON_AND_ORGANIZATION ( #46, #194 ) ;
#169 = CARTESIAN_POINT ( 'NONE',  ( -4.000000000000000000, 0.000000000000000000, 180.0000000000000000 ) ) ;
#170 = APPROVAL_DATE_TIME ( #248, #355 ) ;
#171 = LOCAL_TIME ( 11, 12, 10.00000000000000000, #126 ) ;
#172 = CIRCLE ( 'NONE', #38, 2.100000000000000089 ) ;
#173 = DIRECTION ( 'NONE',  ( 1.000000000000000000, 0.000000000000000000, 0.000000000000000000 ) ) ;
#174 = CARTESIAN_POINT ( 'NONE',  ( -4.000000000000000000, 0.000000000000000000, 5.500000000000005329 ) ) ;
#175 = DESIGN_CONTEXT ( 'detailed design', #10, 'design' ) ;
#176 = CC_DESIGN_PERSON_AND_ORGANIZATION_ASSIGNMENT ( #281, #104, ( #57 ) ) ;
#177 = EDGE_CURVE ( 'NONE', #322, #235, #283, .T. ) ;
#178 = LOCAL_TIME ( 11, 12, 10.00000000000000000, #166 ) ;
#179 = AXIS2_PLACEMENT_3D ( 'NONE', #260, #254, #334 ) ;
#180 = ORIENTED_EDGE ( 'NONE', *, *, #191, .F. ) ;
#181 = EDGE_LOOP ( 'NONE', ( #56, #159, #188, #351 ) ) ;
#182 = DIRECTION ( 'NONE',  ( 0.000000000000000000, 0.000000000000000000, 1.000000000000000000 ) ) ;
#183 = FACE_OUTER_BOUND ( 'NONE', #347, .T. ) ;
#184 = AXIS2_PLACEMENT_3D ( 'NONE', #29, #357, #161 ) ;
#185 = VERTEX_POINT ( 'NONE', #12 ) ;
#186 = EDGE_LOOP ( 'NONE', ( #298, #375 ) ) ;
#187 = DIRECTION ( 'NONE',  ( 0.000000000000000000, 0.000000000000000000, -1.000000000000000000 ) ) ;
#188 = ORIENTED_EDGE ( 'NONE', *, *, #22, .T. ) ;
#189 = FACE_OUTER_BOUND ( 'NONE', #327, .T. ) ;
#190 = VERTEX_POINT ( 'NONE', #167 ) ;
#191 = EDGE_CURVE ( 'NONE', #185, #211, #304, .T. ) ;
#192 = APPROVAL_STATUS ( 'not_yet_approved' ) ;
#193 = FACE_OUTER_BOUND ( 'NONE', #318, .T. ) ;
#194 = ORGANIZATION ( 'NEURÈENÝ', 'NEURÈENÝ', '' ) ;
#195 = LINE ( 'NONE', #6, #333 ) ;
#196 = PERSON_AND_ORGANIZATION_ROLE ( 'design_supplier' ) ;
#197 = CARTESIAN_POINT ( 'NONE',  ( 0.000000000000000000, 0.000000000000000000, 5.500000000000005329 ) ) ;
#198 = DIRECTION ( 'NONE',  ( 0.000000000000000000, 0.000000000000000000, 1.000000000000000000 ) ) ;
#199 = ADVANCED_FACE ( 'NONE', ( #106 ), #95, .F. ) ;
#200 = EDGE_CURVE ( 'NONE', #322, #217, #146, .T. ) ;
#201 = VECTOR ( 'NONE', #137, 1000.000000000000000 ) ;
#202 = AXIS2_PLACEMENT_3D ( 'NONE', #378, #2, #249 ) ;
#203 = CARTESIAN_POINT ( 'NONE',  ( 0.000000000000000000, 0.000000000000000000, 5.500000000000005329 ) ) ;
#204 = VERTEX_POINT ( 'NONE', #285 ) ;
#205 = CYLINDRICAL_SURFACE ( 'NONE', #4, 2.100000000000000089 ) ;
#206 = ORIENTED_EDGE ( 'NONE', *, *, #271, .F. ) ;
#207 = VERTEX_POINT ( 'NONE', #81 ) ;
#208 = AXIS2_PLACEMENT_3D ( 'NONE', #203, #339, #225 ) ;
#209 = APPROVAL ( #73, 'NEURÈENÝ' ) ;
#210 = FACE_OUTER_BOUND ( 'NONE', #128, .T. ) ;
#211 = VERTEX_POINT ( 'NONE', #308 ) ;
#212 = DIRECTION ( 'NONE',  ( 0.000000000000000000, 0.000000000000000000, 1.000000000000000000 ) ) ;
#213 = CARTESIAN_POINT ( 'NONE',  ( 0.000000000000000000, 0.000000000000000000, 0.000000000000000000 ) ) ;
#214 = EDGE_CURVE ( 'NONE', #204, #217, #9, .T. ) ;
#215 = ORIENTED_EDGE ( 'NONE', *, *, #300, .F. ) ;
#216 = PERSON_AND_ORGANIZATION ( #46, #194 ) ;
#217 = VERTEX_POINT ( 'NONE', #174 ) ;
#218 = CARTESIAN_POINT ( 'NONE',  ( 7.000000000000000000, 8.572527594031473190E-16, 0.000000000000000000 ) ) ;
#219 = APPLICATION_PROTOCOL_DEFINITION ( 'international standard', 'config_control_design', 1994, #10 ) ;
#220 = ADVANCED_BREP_SHAPE_REPRESENTATION ( 'c207', ( #251, #43 ), #255 ) ;
#221 = CYLINDRICAL_SURFACE ( 'NONE', #309, 7.000000000000000000 ) ;
#222 = CIRCLE ( 'NONE', #361, 7.000000000000000000 ) ;
#223 = DIRECTION ( 'NONE',  ( 0.000000000000000000, 0.000000000000000000, 1.000000000000000000 ) ) ;
#224 = DATE_AND_TIME ( #36, #240 ) ;
#225 = DIRECTION ( 'NONE',  ( 1.000000000000000000, 0.000000000000000000, 0.000000000000000000 ) ) ;
#226 = CARTESIAN_POINT ( 'NONE',  ( 0.000000000000000000, 0.000000000000000000, 5.000000000000000000 ) ) ;
#227 = EDGE_CURVE ( 'NONE', #54, #98, #291, .T. ) ;
#228 = APPROVAL_ROLE ( '' ) ;
#229 = ORIENTED_EDGE ( 'NONE', *, *, #11, .T. ) ;
#230 = CC_DESIGN_PERSON_AND_ORGANIZATION_ASSIGNMENT ( #329, #358, ( #162 ) ) ;
#231 = DIRECTION ( 'NONE',  ( 1.000000000000000000, 0.000000000000000000, 0.000000000000000000 ) ) ;
#232 = APPROVAL_PERSON_ORGANIZATION ( #168, #209, #124 ) ;
#233 = CIRCLE ( 'NONE', #184, 2.100000000000000089 ) ;
#234 = CYLINDRICAL_SURFACE ( 'NONE', #77, 4.000000000000000000 ) ;
#235 = VERTEX_POINT ( 'NONE', #257 ) ;
#236 = DIRECTION ( 'NONE',  ( 1.000000000000000000, 0.000000000000000000, -0.000000000000000000 ) ) ;
#237 = ADVANCED_FACE ( 'NONE', ( #371 ), #332, .T. ) ;
#238 = EDGE_CURVE ( 'NONE', #207, #322, #195, .T. ) ;
#239 = CARTESIAN_POINT ( 'NONE',  ( -4.500000000000000888, 5.510910596163088569E-16, 5.000000000000002665 ) ) ;
#240 = LOCAL_TIME ( 11, 12, 10.00000000000000000, #303 ) ;
#241 = ORIENTED_EDGE ( 'NONE', *, *, #311, .T. ) ;
#242 = AXIS2_PLACEMENT_3D ( 'NONE', #226, #223, #138 ) ;
#243 = PLANE ( 'NONE',  #367 ) ;
#244 = DIRECTION ( 'NONE',  ( 1.000000000000000000, 0.000000000000000000, 0.000000000000000000 ) ) ;
#245 = DIRECTION ( 'NONE',  ( 1.000000000000000000, 0.000000000000000000, 0.000000000000000000 ) ) ;
#246 = VERTEX_POINT ( 'NONE', #143 ) ;
#247 = AXIS2_PLACEMENT_3D ( 'NONE', #105, #72, #338 ) ;
#248 = DATE_AND_TIME ( #134, #135 ) ;
#249 = DIRECTION ( 'NONE',  ( 1.000000000000000000, 0.000000000000000000, 0.000000000000000000 ) ) ;
#250 = SECURITY_CLASSIFICATION_LEVEL ( 'unclassified' ) ;
#251 = MANIFOLD_SOLID_BREP ( 'Odebrat vysunutím3', #156 ) ;
#252 = DIRECTION ( 'NONE',  ( -0.000000000000000000, -0.000000000000000000, -1.000000000000000000 ) ) ;
#253 = EDGE_CURVE ( 'NONE', #217, #320, #258, .T. ) ;
#254 = DIRECTION ( 'NONE',  ( 1.224646799147353207E-16, 1.000000000000000000, -0.000000000000000000 ) ) ;
#255 =( GEOMETRIC_REPRESENTATION_CONTEXT ( 3 ) GLOBAL_UNCERTAINTY_ASSIGNED_CONTEXT ( ( #45 ) ) GLOBAL_UNIT_ASSIGNED_CONTEXT ( ( #317, #115, #84 ) ) REPRESENTATION_CONTEXT ( 'NONE', 'WORKASPACE' ) );
#256 = PLANE ( 'NONE',  #35 ) ;
#257 = CARTESIAN_POINT ( 'NONE',  ( 4.500000000000000888, 0.000000000000000000, 5.000000000000002665 ) ) ;
#258 = CIRCLE ( 'NONE', #179, 0.5000000000000004441 ) ;
#259 = CALENDAR_DATE ( 2022, 10, 7 ) ;
#260 = CARTESIAN_POINT ( 'NONE',  ( -4.500000000000000888, 5.510910596163089556E-16, 5.500000000000005329 ) ) ;
#261 = DIRECTION ( 'NONE',  ( 1.000000000000000000, 0.000000000000000000, 0.000000000000000000 ) ) ;
#262 = VECTOR ( 'NONE', #74, 1000.000000000000000 ) ;
#263 = AXIS2_PLACEMENT_3D ( 'NONE', #278, #305, #261 ) ;
#264 = CARTESIAN_POINT ( 'NONE',  ( 0.000000000000000000, 0.000000000000000000, 180.0000000000000000 ) ) ;
#265 = EDGE_CURVE ( 'NONE', #207, #204, #377, .T. ) ;
#266 = ORIENTED_EDGE ( 'NONE', *, *, #277, .T. ) ;
#267 = ORIENTED_EDGE ( 'NONE', *, *, #238, .T. ) ;
#268 = CARTESIAN_POINT ( 'NONE',  ( 7.000000000000000000, 8.572527594031473190E-16, 5.000000000000000000 ) ) ;
#269 = DIRECTION ( 'NONE',  ( -1.000000000000000000, 0.000000000000000000, 0.000000000000000000 ) ) ;
#270 = ORIENTED_EDGE ( 'NONE', *, *, #22, .F. ) ;
#271 = EDGE_CURVE ( 'NONE', #155, #59, #222, .T. ) ;
#272 = DIRECTION ( 'NONE',  ( -1.000000000000000000, 0.000000000000000000, 0.000000000000000000 ) ) ;
#273 = ORIENTED_EDGE ( 'NONE', *, *, #33, .F. ) ;
#274 = FACE_OUTER_BOUND ( 'NONE', #149, .T. ) ;
#275 = AXIS2_PLACEMENT_3D ( 'NONE', #364, #289, #109 ) ;
#276 = CALENDAR_DATE ( 2022, 10, 7 ) ;
#277 = EDGE_CURVE ( 'NONE', #190, #246, #282, .T. ) ;
#278 = CARTESIAN_POINT ( 'NONE',  ( 0.000000000000000000, 0.000000000000000000, 5.500000000000005329 ) ) ;
#279 = DATE_TIME_ROLE ( 'classification_date' ) ;
#280 = CARTESIAN_POINT ( 'NONE',  ( -7.000000000000000000, 0.000000000000000000, 0.000000000000000000 ) ) ;
#281 = PERSON_AND_ORGANIZATION ( #46, #194 ) ;
#282 = LINE ( 'NONE', #8, #201 ) ;
#283 = CIRCLE ( 'NONE', #247, 0.5000000000000004441 ) ;
#284 = DATE_TIME_ROLE ( 'creation_date' ) ;
#285 = CARTESIAN_POINT ( 'NONE',  ( -4.000000000000000000, 0.000000000000000000, 180.0000000000000000 ) ) ;
#286 = EDGE_CURVE ( 'NONE', #190, #185, #28, .T. ) ;
#287 = CARTESIAN_POINT ( 'NONE',  ( 0.000000000000000000, 0.000000000000000000, 180.0000000000000000 ) ) ;
#288 = ORIENTED_EDGE ( 'NONE', *, *, #271, .T. ) ;
#289 = DIRECTION ( 'NONE',  ( -0.000000000000000000, -0.000000000000000000, -1.000000000000000000 ) ) ;
#290 = EDGE_LOOP ( 'NONE', ( #148, #328 ) ) ;
#291 = CIRCLE ( 'NONE', #242, 7.000000000000000000 ) ;
#292 = AXIS2_PLACEMENT_3D ( 'NONE', #301, #252, #102 ) ;
#293 = APPLICATION_PROTOCOL_DEFINITION ( 'international standard', 'config_control_design', 1994, #42 ) ;
#294 = ORIENTED_EDGE ( 'NONE', *, *, #227, .F. ) ;
#295 = ORIENTED_EDGE ( 'NONE', *, *, #86, .F. ) ;
#296 = DIRECTION ( 'NONE',  ( 0.000000000000000000, 0.000000000000000000, 1.000000000000000000 ) ) ;
#297 = CARTESIAN_POINT ( 'NONE',  ( 0.000000000000000000, 0.000000000000000000, 180.0000000000000000 ) ) ;
#298 = ORIENTED_EDGE ( 'NONE', *, *, #52, .T. ) ;
#299 = APPROVAL_DATE_TIME ( #50, #99 ) ;
#300 = EDGE_CURVE ( 'NONE', #98, #155, #31, .T. ) ;
#301 = CARTESIAN_POINT ( 'NONE',  ( 0.000000000000000000, 0.000000000000000000, 0.000000000000000000 ) ) ;
#302 = AXIS2_PLACEMENT_3D ( 'NONE', #197, #307, #113 ) ;
#303 = COORDINATED_UNIVERSAL_TIME_OFFSET ( 1, 0, .AHEAD. ) ;
#304 = LINE ( 'NONE', #75, #262 ) ;
#305 = DIRECTION ( 'NONE',  ( 0.000000000000000000, 0.000000000000000000, 1.000000000000000000 ) ) ;
#306 = CALENDAR_DATE ( 2022, 10, 7 ) ;
#307 = DIRECTION ( 'NONE',  ( 0.000000000000000000, 0.000000000000000000, 1.000000000000000000 ) ) ;
#308 = CARTESIAN_POINT ( 'NONE',  ( 2.100000000000000089, 2.571758278209441464E-16, 0.000000000000000000 ) ) ;
#309 = AXIS2_PLACEMENT_3D ( 'NONE', #63, #325, #269 ) ;
#310 = ADVANCED_FACE ( 'NONE', ( #183 ), #234, .T. ) ;
#311 = EDGE_CURVE ( 'NONE', #185, #190, #172, .T. ) ;
#312 = LOCAL_TIME ( 11, 12, 10.00000000000000000, #78 ) ;
#313 = ORIENTED_EDGE ( 'NONE', *, *, #157, .T. ) ;
#314 = CARTESIAN_POINT ( 'NONE',  ( 0.000000000000000000, 0.000000000000000000, 180.0000000000000000 ) ) ;
#315 = ORIENTED_EDGE ( 'NONE', *, *, #69, .T. ) ;
#316 = ADVANCED_FACE ( 'NONE', ( #373, #92 ), #346, .T. ) ;
#317 =( LENGTH_UNIT ( ) NAMED_UNIT ( * ) SI_UNIT ( .MILLI., .METRE. ) );
#318 = EDGE_LOOP ( 'NONE', ( #15, #14, #83, #273 ) ) ;
#319 = CARTESIAN_POINT ( 'NONE',  ( -7.000000000000000000, 0.000000000000000000, 5.000000000000000000 ) ) ;
#320 = VERTEX_POINT ( 'NONE', #239 ) ;
#321 = CARTESIAN_POINT ( 'NONE',  ( 0.000000000000000000, 0.000000000000000000, 0.000000000000000000 ) ) ;
#322 = VERTEX_POINT ( 'NONE', #158 ) ;
#323 = DIRECTION ( 'NONE',  ( -0.000000000000000000, -0.000000000000000000, -1.000000000000000000 ) ) ;
#324 = PRODUCT_DEFINITION ( 'NEZNÁMÝ', '', #107, #175 ) ;
#325 = DIRECTION ( 'NONE',  ( -0.000000000000000000, -0.000000000000000000, -1.000000000000000000 ) ) ;
#326 = CARTESIAN_POINT ( 'NONE',  ( 0.000000000000000000, 0.000000000000000000, 180.0000000000000000 ) ) ;
#327 = EDGE_LOOP ( 'NONE', ( #180, #241, #266, #229 ) ) ;
#328 = ORIENTED_EDGE ( 'NONE', *, *, #33, .T. ) ;
#329 = PERSON_AND_ORGANIZATION ( #46, #194 ) ;
#330 = CARTESIAN_POINT ( 'NONE',  ( 0.000000000000000000, 0.000000000000000000, 5.000000000000000000 ) ) ;
#331 = APPROVAL_DATE_TIME ( #3, #209 ) ;
#332 = CYLINDRICAL_SURFACE ( 'NONE', #140, 4.000000000000000000 ) ;
#333 = VECTOR ( 'NONE', #133, 1000.000000000000000 ) ;
#334 = DIRECTION ( 'NONE',  ( -1.000000000000000000, 1.224646799147351482E-16, 0.000000000000000000 ) ) ;
#335 = SHAPE_DEFINITION_REPRESENTATION ( #359, #220 ) ;
#336 = APPROVAL_STATUS ( 'not_yet_approved' ) ;
#337 = CC_DESIGN_DATE_AND_TIME_ASSIGNMENT ( #224, #279, ( #57 ) ) ;
#338 = DIRECTION ( 'NONE',  ( 0.000000000000000000, 0.000000000000000000, -1.000000000000000000 ) ) ;
#339 = DIRECTION ( 'NONE',  ( 0.000000000000000000, 0.000000000000000000, 1.000000000000000000 ) ) ;
#340 = CIRCLE ( 'NONE', #108, 4.500000000000000888 ) ;
#341 = CC_DESIGN_PERSON_AND_ORGANIZATION_ASSIGNMENT ( #163, #363, ( #324 ) ) ;
#342 = EDGE_CURVE ( 'NONE', #54, #59, #82, .T. ) ;
#343 = EDGE_LOOP ( 'NONE', ( #145, #267, #32, #345 ) ) ;
#344 = DIRECTION ( 'NONE',  ( 1.000000000000000000, 0.000000000000000000, -0.000000000000000000 ) ) ;
#345 = ORIENTED_EDGE ( 'NONE', *, *, #214, .F. ) ;
#346 = PLANE ( 'NONE',  #89 ) ;
#347 = EDGE_LOOP ( 'NONE', ( #5, #356, #125, #313 ) ) ;
#348 = DIRECTION ( 'NONE',  ( -0.000000000000000000, -0.000000000000000000, -1.000000000000000000 ) ) ;
#349 = EDGE_LOOP ( 'NONE', ( #51, #123 ) ) ;
#350 = ORIENTED_EDGE ( 'NONE', *, *, #86, .T. ) ;
#351 = ORIENTED_EDGE ( 'NONE', *, *, #277, .F. ) ;
#352 = CARTESIAN_POINT ( 'NONE',  ( -7.000000000000000000, 0.000000000000000000, 5.000000000000000000 ) ) ;
#353 = CC_DESIGN_APPROVAL ( #99, ( #57 ) ) ;
#354 = DIRECTION ( 'NONE',  ( -1.000000000000000000, 0.000000000000000000, 0.000000000000000000 ) ) ;
#355 = APPROVAL ( #192, 'NEURÈENÝ' ) ;
#356 = ORIENTED_EDGE ( 'NONE', *, *, #52, .F. ) ;
#357 = DIRECTION ( 'NONE',  ( -0.000000000000000000, -0.000000000000000000, -1.000000000000000000 ) ) ;
#358 = PERSON_AND_ORGANIZATION_ROLE ( 'design_owner' ) ;
#359 = PRODUCT_DEFINITION_SHAPE ( 'NONE', 'NONE',  #324 ) ;
#360 = CARTESIAN_POINT ( 'NONE',  ( 0.000000000000000000, 0.000000000000000000, 5.500000000000005329 ) ) ;
#361 = AXIS2_PLACEMENT_3D ( 'NONE', #53, #182, #41 ) ;
#362 = ADVANCED_FACE ( 'NONE', ( #122, #210 ), #243, .T. ) ;
#363 = PERSON_AND_ORGANIZATION_ROLE ( 'creator' ) ;
#364 = CARTESIAN_POINT ( 'NONE',  ( 0.000000000000000000, 0.000000000000000000, 5.000000000000000000 ) ) ;
#365 = ADVANCED_FACE ( 'NONE', ( #60 ), #205, .F. ) ;
#366 = DIRECTION ( 'NONE',  ( -1.000000000000000000, 0.000000000000000000, 0.000000000000000000 ) ) ;
#367 = AXIS2_PLACEMENT_3D ( 'NONE', #27, #55, #87 ) ;
#368 = CIRCLE ( 'NONE', #202, 4.000000000000000000 ) ;
#369 = DIRECTION ( 'NONE',  ( 0.000000000000000000, 0.000000000000000000, 1.000000000000000000 ) ) ;
#370 = ORIENTED_EDGE ( 'NONE', *, *, #381, .F. ) ;
#371 = FACE_OUTER_BOUND ( 'NONE', #343, .T. ) ;
#372 = AXIS2_PLACEMENT_3D ( 'NONE', #65, #61, #244 ) ;
#373 = FACE_BOUND ( 'NONE', #349, .T. ) ;
#374 = CARTESIAN_POINT ( 'NONE',  ( 0.000000000000000000, 0.000000000000000000, 180.0000000000000000 ) ) ;
#375 = ORIENTED_EDGE ( 'NONE', *, *, #265, .T. ) ;
#376 = CARTESIAN_POINT ( 'NONE',  ( 0.000000000000000000, 0.000000000000000000, 180.0000000000000000 ) ) ;
#377 = CIRCLE ( 'NONE', #153, 4.000000000000000000 ) ;
#378 = CARTESIAN_POINT ( 'NONE',  ( 0.000000000000000000, 0.000000000000000000, 180.0000000000000000 ) ) ;
#379 = DIRECTION ( 'NONE',  ( 1.000000000000000000, 0.000000000000000000, 0.000000000000000000 ) ) ;
#380 = DIRECTION ( 'NONE',  ( 0.000000000000000000, 0.000000000000000000, 1.000000000000000000 ) ) ;
#381 = EDGE_CURVE ( 'NONE', #235, #320, #340, .T. ) ;
ENDSEC;
END-ISO-10303-21;
