ISO-10303-21;
HEADER;
FILE_DESCRIPTION (( 'STEP AP203' ),
    '1' );
FILE_NAME ('d859.STEP',
    '2022-07-10T09:04:55',
    ( '' ),
    ( '' ),
    'SwSTEP 2.0',
    'SolidWorks 2019',
    '' );
FILE_SCHEMA (( 'CONFIG_CONTROL_DESIGN' ));
ENDSEC;

DATA;
#1 = DATE_AND_TIME ( #5, #352 ) ;
#2 = ORIENTED_EDGE ( 'NONE', *, *, #248, .F. ) ;
#3 = CIRCLE ( 'NONE', #31, 8.000000000000000000 ) ;
#4 = ORIENTED_EDGE ( 'NONE', *, *, #101, .F. ) ;
#5 = CALENDAR_DATE ( 2022, 10, 7 ) ;
#6 = EDGE_CURVE ( 'NONE', #209, #329, #219, .T. ) ;
#7 = ORIENTED_EDGE ( 'NONE', *, *, #6, .T. ) ;
#8 = ORIENTED_EDGE ( 'NONE', *, *, #278, .T. ) ;
#9 = DIRECTION ( 'NONE',  ( 0.000000000000000000, 0.000000000000000000, 1.000000000000000000 ) ) ;
#10 = ADVANCED_FACE ( 'NONE', ( #72 ), #258, .T. ) ;
#11 = CIRCLE ( 'NONE', #141, 5.500000000000000000 ) ;
#12 = EDGE_LOOP ( 'NONE', ( #187, #183 ) ) ;
#13 = CYLINDRICAL_SURFACE ( 'NONE', #336, 8.000000000000000000 ) ;
#14 = DIRECTION ( 'NONE',  ( 1.000000000000000000, 0.000000000000000000, -0.000000000000000000 ) ) ;
#15 = CARTESIAN_POINT ( 'NONE',  ( -3.100000000000000089, 0.000000000000000000, 205.0000000000000284 ) ) ;
#16 = DIRECTION ( 'NONE',  ( 0.000000000000000000, 0.000000000000000000, -1.000000000000000000 ) ) ;
#17 = DIRECTION ( 'NONE',  ( 0.000000000000000000, 0.000000000000000000, -1.000000000000000000 ) ) ;
#18 = CIRCLE ( 'NONE', #168, 5.000000000000000000 ) ;
#19 = CARTESIAN_POINT ( 'NONE',  ( 3.100000000000000089, 3.796405077356794918E-16, 205.0000000000000284 ) ) ;
#20 = PLANE ( 'NONE',  #39 ) ;
#21 = DIRECTION ( 'NONE',  ( -0.000000000000000000, -0.000000000000000000, -1.000000000000000000 ) ) ;
#22 = AXIS2_PLACEMENT_3D ( 'NONE', #47, #309, #340 ) ;
#23 = DIRECTION ( 'NONE',  ( -1.000000000000000000, 1.224646799147351482E-16, 0.000000000000000000 ) ) ;
#24 = CC_DESIGN_PERSON_AND_ORGANIZATION_ASSIGNMENT ( #293, #203, ( #98 ) ) ;
#25 = VERTEX_POINT ( 'NONE', #218 ) ;
#26 = APPLICATION_PROTOCOL_DEFINITION ( 'international standard', 'config_control_design', 1994, #131 ) ;
#27 = DIRECTION ( 'NONE',  ( 1.000000000000000000, 0.000000000000000000, 0.000000000000000000 ) ) ;
#28 = PERSON_AND_ORGANIZATION ( #159, #328 ) ;
#29 = CLOSED_SHELL ( 'NONE', ( #253, #194, #105, #240, #10, #265, #57, #208, #146, #178, #225 ) ) ;
#30 = CARTESIAN_POINT ( 'NONE',  ( 0.000000000000000000, 0.000000000000000000, 0.000000000000000000 ) ) ;
#31 = AXIS2_PLACEMENT_3D ( 'NONE', #342, #220, #259 ) ;
#32 = PERSON_AND_ORGANIZATION_ROLE ( 'design_owner' ) ;
#33 = VERTEX_POINT ( 'NONE', #190 ) ;
#34 = CIRCLE ( 'NONE', #361, 3.100000000000000089 ) ;
#35 = ORIENTED_EDGE ( 'NONE', *, *, #290, .T. ) ;
#36 = EDGE_CURVE ( 'NONE', #209, #357, #45, .T. ) ;
#37 = ORIENTED_EDGE ( 'NONE', *, *, #80, .F. ) ;
#38 = DIRECTION ( 'NONE',  ( 1.000000000000000000, 0.000000000000000000, 0.000000000000000000 ) ) ;
#39 = AXIS2_PLACEMENT_3D ( 'NONE', #335, #94, #120 ) ;
#40 = ORIENTED_EDGE ( 'NONE', *, *, #155, .T. ) ;
#41 = CARTESIAN_POINT ( 'NONE',  ( 0.000000000000000000, 0.000000000000000000, 205.0000000000000284 ) ) ;
#42 = CIRCLE ( 'NONE', #304, 8.000000000000000000 ) ;
#43 = CARTESIAN_POINT ( 'NONE',  ( 0.000000000000000000, 0.000000000000000000, 205.0000000000000284 ) ) ;
#44 = DIRECTION ( 'NONE',  ( 0.000000000000000000, 0.000000000000000000, 1.000000000000000000 ) ) ;
#45 = LINE ( 'NONE', #15, #48 ) ;
#46 = DIRECTION ( 'NONE',  ( -0.000000000000000000, -0.000000000000000000, -1.000000000000000000 ) ) ;
#47 = CARTESIAN_POINT ( 'NONE',  ( 0.000000000000000000, 0.000000000000000000, 205.0000000000000284 ) ) ;
#48 = VECTOR ( 'NONE', #247, 1000.000000000000000 ) ;
#49 = EDGE_CURVE ( 'NONE', #329, #209, #124, .T. ) ;
#50 = CARTESIAN_POINT ( 'NONE',  ( 0.000000000000000000, 0.000000000000000000, 205.0000000000000284 ) ) ;
#51 = FACE_BOUND ( 'NONE', #95, .T. ) ;
#52 = CC_DESIGN_APPROVAL ( #74, ( #349 ) ) ;
#53 = DATE_AND_TIME ( #85, #205 ) ;
#54 = AXIS2_PLACEMENT_3D ( 'NONE', #228, #345, #81 ) ;
#55 = CALENDAR_DATE ( 2022, 10, 7 ) ;
#56 =( NAMED_UNIT ( * ) PLANE_ANGLE_UNIT ( ) SI_UNIT ( $, .RADIAN. ) );
#57 = ADVANCED_FACE ( 'NONE', ( #109, #226 ), #366, .F. ) ;
#58 = CIRCLE ( 'NONE', #107, 3.100000000000000089 ) ;
#59 = ORIENTED_EDGE ( 'NONE', *, *, #202, .F. ) ;
#60 = DIRECTION ( 'NONE',  ( -1.000000000000000000, 0.000000000000000000, 0.000000000000000000 ) ) ;
#61 = EDGE_CURVE ( 'NONE', #142, #300, #133, .T. ) ;
#62 = EDGE_LOOP ( 'NONE', ( #324, #147, #279, #63 ) ) ;
#63 = ORIENTED_EDGE ( 'NONE', *, *, #172, .F. ) ;
#64 = AXIS2_PLACEMENT_3D ( 'NONE', #30, #87, #27 ) ;
#65 = DIRECTION ( 'NONE',  ( 1.000000000000000000, 0.000000000000000000, 0.000000000000000000 ) ) ;
#66 = DIRECTION ( 'NONE',  ( 1.000000000000000000, 0.000000000000000000, 0.000000000000000000 ) ) ;
#67 = ORIENTED_EDGE ( 'NONE', *, *, #162, .F. ) ;
#68 = DIRECTION ( 'NONE',  ( 1.000000000000000000, 0.000000000000000000, 0.000000000000000000 ) ) ;
#69 = DIRECTION ( 'NONE',  ( -0.000000000000000000, -0.000000000000000000, -1.000000000000000000 ) ) ;
#70 = CARTESIAN_POINT ( 'NONE',  ( -8.000000000000000000, 0.000000000000000000, 0.000000000000000000 ) ) ;
#71 = TOROIDAL_SURFACE ( 'NONE', #199, 5.500000000000000000, 0.5000000000000000000 ) ;
#72 = FACE_OUTER_BOUND ( 'NONE', #92, .T. ) ;
#73 = DIRECTION ( 'NONE',  ( -0.000000000000000000, -0.000000000000000000, -1.000000000000000000 ) ) ;
#74 = APPROVAL ( #353, 'NEURÈENÝ' ) ;
#75 = DIRECTION ( 'NONE',  ( 0.000000000000000000, 0.000000000000000000, 1.000000000000000000 ) ) ;
#76 = DIRECTION ( 'NONE',  ( 0.000000000000000000, 0.000000000000000000, 1.000000000000000000 ) ) ;
#77 = DIRECTION ( 'NONE',  ( 1.000000000000000000, 0.000000000000000000, 0.000000000000000000 ) ) ;
#78 = DIRECTION ( 'NONE',  ( 1.000000000000000000, 0.000000000000000000, 0.000000000000000000 ) ) ;
#79 = CIRCLE ( 'NONE', #176, 5.000000000000000000 ) ;
#80 = EDGE_CURVE ( 'NONE', #357, #272, #34, .T. ) ;
#81 = DIRECTION ( 'NONE',  ( 1.000000000000000000, 0.000000000000000000, -0.000000000000000000 ) ) ;
#82 = PERSON_AND_ORGANIZATION_ROLE ( 'classification_officer' ) ;
#83 = CIRCLE ( 'NONE', #115, 8.000000000000000000 ) ;
#84 = AXIS2_PLACEMENT_3D ( 'NONE', #153, #91, #68 ) ;
#85 = CALENDAR_DATE ( 2022, 10, 7 ) ;
#86 = APPROVAL_ROLE ( '' ) ;
#87 = DIRECTION ( 'NONE',  ( 0.000000000000000000, 0.000000000000000000, 1.000000000000000000 ) ) ;
#88 = EDGE_LOOP ( 'NONE', ( #119, #136, #35, #197 ) ) ;
#89 = EDGE_CURVE ( 'NONE', #204, #302, #169, .T. ) ;
#90 = CIRCLE ( 'NONE', #317, 5.500000000000000000 ) ;
#91 = DIRECTION ( 'NONE',  ( 0.000000000000000000, 0.000000000000000000, 1.000000000000000000 ) ) ;
#92 = EDGE_LOOP ( 'NONE', ( #181, #154, #239, #40 ) ) ;
#93 = SHAPE_DEFINITION_REPRESENTATION ( #310, #292 ) ;
#94 = DIRECTION ( 'NONE',  ( 0.000000000000000000, 0.000000000000000000, 1.000000000000000000 ) ) ;
#95 = EDGE_LOOP ( 'NONE', ( #242, #238 ) ) ;
#96 = FACE_OUTER_BOUND ( 'NONE', #212, .T. ) ;
#97 = EDGE_LOOP ( 'NONE', ( #7, #362, #207, #326 ) ) ;
#98 = PRODUCT_DEFINITION_FORMATION_WITH_SPECIFIED_SOURCE ( 'LIBOVOLNÝ', '', #210, .NOT_KNOWN. ) ;
#99 = CARTESIAN_POINT ( 'NONE',  ( 0.000000000000000000, 0.000000000000000000, 5.000000000000000000 ) ) ;
#100 = EDGE_LOOP ( 'NONE', ( #59, #8, #126, #179 ) ) ;
#101 = EDGE_CURVE ( 'NONE', #185, #246, #128, .T. ) ;
#102 = DIRECTION ( 'NONE',  ( 1.000000000000000000, 0.000000000000000000, 0.000000000000000000 ) ) ;
#103 = AXIS2_PLACEMENT_3D ( 'NONE', #43, #75, #166 ) ;
#104 = CARTESIAN_POINT ( 'NONE',  ( 5.000000000000000000, 6.123233995736766282E-16, 205.0000000000000284 ) ) ;
#105 = ADVANCED_FACE ( 'NONE', ( #108 ), #188, .T. ) ;
#106 = CARTESIAN_POINT ( 'NONE',  ( -3.100000000000000089, 0.000000000000000000, 0.000000000000000000 ) ) ;
#107 = AXIS2_PLACEMENT_3D ( 'NONE', #308, #46, #165 ) ;
#108 = FACE_OUTER_BOUND ( 'NONE', #88, .T. ) ;
#109 = FACE_BOUND ( 'NONE', #268, .T. ) ;
#110 = DIRECTION ( 'NONE',  ( 0.000000000000000000, -1.000000000000000000, 0.000000000000000000 ) ) ;
#111 = FACE_BOUND ( 'NONE', #233, .T. ) ;
#112 = APPROVAL_PERSON_ORGANIZATION ( #28, #294, #116 ) ;
#113 =( NAMED_UNIT ( * ) SI_UNIT ( $, .STERADIAN. ) SOLID_ANGLE_UNIT ( ) );
#114 = APPROVAL_STATUS ( 'not_yet_approved' ) ;
#115 = AXIS2_PLACEMENT_3D ( 'NONE', #140, #76, #102 ) ;
#116 = APPROVAL_ROLE ( '' ) ;
#117 = APPROVAL_DATE_TIME ( #53, #296 ) ;
#118 = CC_DESIGN_PERSON_AND_ORGANIZATION_ASSIGNMENT ( #171, #198, ( #349 ) ) ;
#119 = ORIENTED_EDGE ( 'NONE', *, *, #130, .F. ) ;
#120 = DIRECTION ( 'NONE',  ( 1.000000000000000000, 0.000000000000000000, -0.000000000000000000 ) ) ;
#121 = ORIENTED_EDGE ( 'NONE', *, *, #330, .T. ) ;
#122 = FACE_OUTER_BOUND ( 'NONE', #100, .T. ) ;
#123 = EDGE_LOOP ( 'NONE', ( #298, #67, #244, #299 ) ) ;
#124 = CIRCLE ( 'NONE', #103, 3.100000000000000089 ) ;
#125 = CC_DESIGN_PERSON_AND_ORGANIZATION_ASSIGNMENT ( #315, #32, ( #210 ) ) ;
#126 = ORIENTED_EDGE ( 'NONE', *, *, #367, .F. ) ;
#127 = DIRECTION ( 'NONE',  ( -1.000000000000000000, 0.000000000000000000, 0.000000000000000000 ) ) ;
#128 = LINE ( 'NONE', #368, #227 ) ;
#129 = CARTESIAN_POINT ( 'NONE',  ( 0.000000000000000000, 0.000000000000000000, 205.0000000000000284 ) ) ;
#130 = EDGE_CURVE ( 'NONE', #142, #204, #250, .T. ) ;
#131 = APPLICATION_CONTEXT ( 'configuration controlled 3d designs of mechanical parts and assemblies' ) ;
#132 = CARTESIAN_POINT ( 'NONE',  ( -5.000000000000000000, 0.000000000000000000, 5.500000000000005329 ) ) ;
#133 = LINE ( 'NONE', #311, #375 ) ;
#134 = CARTESIAN_POINT ( 'NONE',  ( 3.100000000000000089, 3.796405077356794918E-16, 0.000000000000000000 ) ) ;
#135 = AXIS2_PLACEMENT_3D ( 'NONE', #369, #110, #16 ) ;
#136 = ORIENTED_EDGE ( 'NONE', *, *, #61, .T. ) ;
#137 = CYLINDRICAL_SURFACE ( 'NONE', #356, 3.100000000000000089 ) ;
#138 = ORIENTED_EDGE ( 'NONE', *, *, #155, .F. ) ;
#139 = FACE_OUTER_BOUND ( 'NONE', #97, .T. ) ;
#140 = CARTESIAN_POINT ( 'NONE',  ( 0.000000000000000000, 0.000000000000000000, 5.000000000000000000 ) ) ;
#141 = AXIS2_PLACEMENT_3D ( 'NONE', #337, #73, #191 ) ;
#142 = VERTEX_POINT ( 'NONE', #104 ) ;
#143 = EDGE_CURVE ( 'NONE', #329, #272, #221, .T. ) ;
#144 = AXIS2_PLACEMENT_3D ( 'NONE', #193, #371, #283 ) ;
#145 = DATE_AND_TIME ( #346, #321 ) ;
#146 = ADVANCED_FACE ( 'NONE', ( #51, #288 ), #20, .T. ) ;
#147 = ORIENTED_EDGE ( 'NONE', *, *, #290, .F. ) ;
#148 = APPLICATION_CONTEXT ( 'configuration controlled 3d designs of mechanical parts and assemblies' ) ;
#149 = DIRECTION ( 'NONE',  ( 0.000000000000000000, 0.000000000000000000, 1.000000000000000000 ) ) ;
#150 = EDGE_LOOP ( 'NONE', ( #2, #121, #316, #4 ) ) ;
#151 = APPROVAL_DATE_TIME ( #1, #294 ) ;
#152 = TOROIDAL_SURFACE ( 'NONE', #261, 5.500000000000000000, 0.5000000000000000000 ) ;
#153 = CARTESIAN_POINT ( 'NONE',  ( 0.000000000000000000, 0.000000000000000000, 205.0000000000000284 ) ) ;
#154 = ORIENTED_EDGE ( 'NONE', *, *, #284, .F. ) ;
#155 = EDGE_CURVE ( 'NONE', #246, #275, #42, .T. ) ;
#156 = ORIENTED_EDGE ( 'NONE', *, *, #80, .T. ) ;
#157 = AXIS2_PLACEMENT_3D ( 'NONE', #129, #249, #77 ) ;
#158 = FACE_OUTER_BOUND ( 'NONE', #62, .T. ) ;
#159 = PERSON ( 'NEURÈENÝ', 'NEURÈENÝ', 'NEURÈENÝ', ('NEURÈENÝ'), ('NEURÈENÝ'), ('NEURÈENÝ') ) ;
#160 = ORIENTED_EDGE ( 'NONE', *, *, #374, .F. ) ;
#161 = DIRECTION ( 'NONE',  ( 1.000000000000000000, 0.000000000000000000, 0.000000000000000000 ) ) ;
#162 = EDGE_CURVE ( 'NONE', #204, #142, #222, .T. ) ;
#163 = DIRECTION ( 'NONE',  ( -0.000000000000000000, -0.000000000000000000, -1.000000000000000000 ) ) ;
#164 = CARTESIAN_POINT ( 'NONE',  ( 5.000000000000000000, 6.123233995736766282E-16, 5.500000000000005329 ) ) ;
#165 = DIRECTION ( 'NONE',  ( 1.000000000000000000, 0.000000000000000000, 0.000000000000000000 ) ) ;
#166 = DIRECTION ( 'NONE',  ( 1.000000000000000000, 0.000000000000000000, 0.000000000000000000 ) ) ;
#167 = CARTESIAN_POINT ( 'NONE',  ( 0.000000000000000000, 0.000000000000000000, 5.500000000000005329 ) ) ;
#168 = AXIS2_PLACEMENT_3D ( 'NONE', #325, #245, #66 ) ;
#169 = LINE ( 'NONE', #370, #354 ) ;
#170 = DIRECTION ( 'NONE',  ( -1.000000000000000000, 0.000000000000000000, 0.000000000000000000 ) ) ;
#171 = PERSON_AND_ORGANIZATION ( #159, #328 ) ;
#172 = EDGE_CURVE ( 'NONE', #33, #358, #90, .T. ) ;
#173 = DATE_AND_TIME ( #55, #267 ) ;
#174 = DATE_TIME_ROLE ( 'classification_date' ) ;
#175 =( LENGTH_UNIT ( ) NAMED_UNIT ( * ) SI_UNIT ( .MILLI., .METRE. ) );
#176 = AXIS2_PLACEMENT_3D ( 'NONE', #167, #44, #78 ) ;
#177 = CC_DESIGN_SECURITY_CLASSIFICATION ( #305, ( #98 ) ) ;
#178 = ADVANCED_FACE ( 'NONE', ( #158 ), #152, .F. ) ;
#179 = ORIENTED_EDGE ( 'NONE', *, *, #343, .F. ) ;
#180 = CARTESIAN_POINT ( 'NONE',  ( 0.000000000000000000, 0.000000000000000000, 5.000000000000000000 ) ) ;
#181 = ORIENTED_EDGE ( 'NONE', *, *, #330, .F. ) ;
#182 = CARTESIAN_POINT ( 'NONE',  ( -5.000000000000000000, 0.000000000000000000, 205.0000000000000284 ) ) ;
#183 = ORIENTED_EDGE ( 'NONE', *, *, #248, .T. ) ;
#184 = CIRCLE ( 'NONE', #135, 0.5000000000000004441 ) ;
#185 = VERTEX_POINT ( 'NONE', #243 ) ;
#186 = CYLINDRICAL_SURFACE ( 'NONE', #195, 5.000000000000000000 ) ;
#187 = ORIENTED_EDGE ( 'NONE', *, *, #284, .T. ) ;
#188 = CYLINDRICAL_SURFACE ( 'NONE', #22, 5.000000000000000000 ) ;
#189 = AXIS2_PLACEMENT_3D ( 'NONE', #41, #271, #60 ) ;
#190 = CARTESIAN_POINT ( 'NONE',  ( -5.500000000000000000, 6.735557395310442023E-16, 5.000000000000002665 ) ) ;
#191 = DIRECTION ( 'NONE',  ( 1.000000000000000000, 0.000000000000000000, 0.000000000000000000 ) ) ;
#192 = DIRECTION ( 'NONE',  ( -0.000000000000000000, -0.000000000000000000, -1.000000000000000000 ) ) ;
#193 = CARTESIAN_POINT ( 'NONE',  ( 0.000000000000000000, 0.000000000000000000, 5.000000000000000000 ) ) ;
#194 = ADVANCED_FACE ( 'NONE', ( #122 ), #71, .F. ) ;
#195 = AXIS2_PLACEMENT_3D ( 'NONE', #365, #274, #127 ) ;
#196 = FACE_OUTER_BOUND ( 'NONE', #12, .T. ) ;
#197 = ORIENTED_EDGE ( 'NONE', *, *, #89, .F. ) ;
#198 = PERSON_AND_ORGANIZATION_ROLE ( 'creator' ) ;
#199 = AXIS2_PLACEMENT_3D ( 'NONE', #206, #149, #38 ) ;
#200 = PERSON_AND_ORGANIZATION ( #159, #328 ) ;
#201 = VECTOR ( 'NONE', #17, 1000.000000000000000 ) ;
#202 = EDGE_CURVE ( 'NONE', #302, #300, #18, .T. ) ;
#203 = PERSON_AND_ORGANIZATION_ROLE ( 'creator' ) ;
#204 = VERTEX_POINT ( 'NONE', #182 ) ;
#205 = LOCAL_TIME ( 11, 4, 55.00000000000000000, #348 ) ;
#206 = CARTESIAN_POINT ( 'NONE',  ( 0.000000000000000000, 0.000000000000000000, 5.500000000000005329 ) ) ;
#207 = ORIENTED_EDGE ( 'NONE', *, *, #374, .T. ) ;
#208 = ADVANCED_FACE ( 'NONE', ( #211 ), #186, .T. ) ;
#209 = VERTEX_POINT ( 'NONE', #359 ) ;
#210 = PRODUCT ( 'd859', 'd859', '', ( #234 ) ) ;
#211 = FACE_OUTER_BOUND ( 'NONE', #123, .T. ) ;
#212 = EDGE_LOOP ( 'NONE', ( #364, #355, #297, #156 ) ) ;
#213 = APPROVAL_PERSON_ORGANIZATION ( #260, #74, #86 ) ;
#214 = DIRECTION ( 'NONE',  ( -0.000000000000000000, -0.000000000000000000, -1.000000000000000000 ) ) ;
#215 = ORIENTED_EDGE ( 'NONE', *, *, #367, .T. ) ;
#216 = EDGE_CURVE ( 'NONE', #275, #246, #344, .T. ) ;
#217 = CARTESIAN_POINT ( 'NONE',  ( 0.000000000000000000, 0.000000000000000000, 0.000000000000000000 ) ) ;
#218 = CARTESIAN_POINT ( 'NONE',  ( 8.000000000000000000, 9.797174393178825657E-16, 5.000000000000000000 ) ) ;
#219 = CIRCLE ( 'NONE', #285, 3.100000000000000089 ) ;
#220 = DIRECTION ( 'NONE',  ( 0.000000000000000000, 0.000000000000000000, 1.000000000000000000 ) ) ;
#221 = LINE ( 'NONE', #224, #201 ) ;
#222 = CIRCLE ( 'NONE', #84, 5.000000000000000000 ) ;
#223 = CARTESIAN_POINT ( 'NONE',  ( 5.500000000000000000, 0.000000000000000000, 5.000000000000002665 ) ) ;
#224 = CARTESIAN_POINT ( 'NONE',  ( 3.100000000000000089, 3.796405077356794918E-16, 205.0000000000000284 ) ) ;
#225 = ADVANCED_FACE ( 'NONE', ( #96 ), #241, .F. ) ;
#226 = FACE_OUTER_BOUND ( 'NONE', #277, .T. ) ;
#227 = VECTOR ( 'NONE', #338, 1000.000000000000000 ) ;
#228 = CARTESIAN_POINT ( 'NONE',  ( 0.000000000000000000, 0.000000000000000000, 5.000000000000000000 ) ) ;
#229 = CC_DESIGN_DATE_AND_TIME_ASSIGNMENT ( #173, #174, ( #305 ) ) ;
#230 = PERSON_AND_ORGANIZATION ( #159, #328 ) ;
#231 = ORIENTED_EDGE ( 'NONE', *, *, #216, .F. ) ;
#232 = APPLICATION_PROTOCOL_DEFINITION ( 'international standard', 'config_control_design', 1994, #148 ) ;
#233 = EDGE_LOOP ( 'NONE', ( #215, #322 ) ) ;
#234 = MECHANICAL_CONTEXT ( 'NONE', #131, 'mechanical' ) ;
#235 = AXIS2_PLACEMENT_3D ( 'NONE', #217, #323, #333 ) ;
#236 = COORDINATED_UNIVERSAL_TIME_OFFSET ( 1, 0, .AHEAD. ) ;
#237 = PERSON_AND_ORGANIZATION_ROLE ( 'design_supplier' ) ;
#238 = ORIENTED_EDGE ( 'NONE', *, *, #49, .F. ) ;
#239 = ORIENTED_EDGE ( 'NONE', *, *, #101, .T. ) ;
#240 = ADVANCED_FACE ( 'NONE', ( #281 ), #13, .T. ) ;
#241 = CYLINDRICAL_SURFACE ( 'NONE', #189, 3.100000000000000089 ) ;
#242 = ORIENTED_EDGE ( 'NONE', *, *, #6, .F. ) ;
#243 = CARTESIAN_POINT ( 'NONE',  ( -8.000000000000000000, 0.000000000000000000, 5.000000000000000000 ) ) ;
#244 = ORIENTED_EDGE ( 'NONE', *, *, #89, .T. ) ;
#245 = DIRECTION ( 'NONE',  ( 0.000000000000000000, 0.000000000000000000, 1.000000000000000000 ) ) ;
#246 = VERTEX_POINT ( 'NONE', #70 ) ;
#247 = DIRECTION ( 'NONE',  ( 0.000000000000000000, 0.000000000000000000, -1.000000000000000000 ) ) ;
#248 = EDGE_CURVE ( 'NONE', #25, #185, #3, .T. ) ;
#249 = DIRECTION ( 'NONE',  ( 0.000000000000000000, 0.000000000000000000, 1.000000000000000000 ) ) ;
#250 = CIRCLE ( 'NONE', #157, 5.000000000000000000 ) ;
#251 = CARTESIAN_POINT ( 'NONE',  ( 8.000000000000000000, 9.797174393178825657E-16, 5.000000000000000000 ) ) ;
#252 = DIRECTION ( 'NONE',  ( 1.000000000000000000, 0.000000000000000000, 0.000000000000000000 ) ) ;
#253 = ADVANCED_FACE ( 'NONE', ( #139 ), #137, .F. ) ;
#254 = VECTOR ( 'NONE', #373, 1000.000000000000000 ) ;
#255 = CARTESIAN_POINT ( 'NONE',  ( -5.500000000000000000, 6.735557395310442023E-16, 5.500000000000005329 ) ) ;
#256 = DIRECTION ( 'NONE',  ( 1.000000000000000000, 0.000000000000000000, 0.000000000000000000 ) ) ;
#257 = LINE ( 'NONE', #251, #254 ) ;
#258 = CYLINDRICAL_SURFACE ( 'NONE', #144, 8.000000000000000000 ) ;
#259 = DIRECTION ( 'NONE',  ( 1.000000000000000000, 0.000000000000000000, 0.000000000000000000 ) ) ;
#260 = PERSON_AND_ORGANIZATION ( #159, #328 ) ;
#261 = AXIS2_PLACEMENT_3D ( 'NONE', #363, #327, #65 ) ;
#262 = COORDINATED_UNIVERSAL_TIME_OFFSET ( 1, 0, .AHEAD. ) ;
#263 = CALENDAR_DATE ( 2022, 10, 7 ) ;
#264 = DATE_TIME_ROLE ( 'creation_date' ) ;
#265 = ADVANCED_FACE ( 'NONE', ( #111, #196 ), #306, .T. ) ;
#266 = CIRCLE ( 'NONE', #273, 0.5000000000000004441 ) ;
#267 = LOCAL_TIME ( 11, 4, 55.00000000000000000, #319 ) ;
#268 = EDGE_LOOP ( 'NONE', ( #37, #160 ) ) ;
#269 = APPROVAL_DATE_TIME ( #145, #74 ) ;
#270 = ORIENTED_EDGE ( 'NONE', *, *, #130, .T. ) ;
#271 = DIRECTION ( 'NONE',  ( 0.000000000000000000, 0.000000000000000000, -1.000000000000000000 ) ) ;
#272 = VERTEX_POINT ( 'NONE', #134 ) ;
#273 = AXIS2_PLACEMENT_3D ( 'NONE', #255, #339, #23 ) ;
#274 = DIRECTION ( 'NONE',  ( -0.000000000000000000, -0.000000000000000000, -1.000000000000000000 ) ) ;
#275 = VERTEX_POINT ( 'NONE', #313 ) ;
#276 = CARTESIAN_POINT ( 'NONE',  ( 0.000000000000000000, 0.000000000000000000, 0.000000000000000000 ) ) ;
#277 = EDGE_LOOP ( 'NONE', ( #138, #231 ) ) ;
#278 = EDGE_CURVE ( 'NONE', #302, #33, #266, .T. ) ;
#279 = ORIENTED_EDGE ( 'NONE', *, *, #343, .T. ) ;
#280 = CC_DESIGN_APPROVAL ( #296, ( #98 ) ) ;
#281 = FACE_OUTER_BOUND ( 'NONE', #150, .T. ) ;
#282 = CARTESIAN_POINT ( 'NONE',  ( 0.000000000000000000, 0.000000000000000000, 0.000000000000000000 ) ) ;
#283 = DIRECTION ( 'NONE',  ( -1.000000000000000000, 0.000000000000000000, 0.000000000000000000 ) ) ;
#284 = EDGE_CURVE ( 'NONE', #185, #25, #83, .T. ) ;
#285 = AXIS2_PLACEMENT_3D ( 'NONE', #307, #303, #256 ) ;
#286 = DIRECTION ( 'NONE',  ( 0.000000000000000000, 0.000000000000000000, 1.000000000000000000 ) ) ;
#287 = CC_DESIGN_APPROVAL ( #294, ( #305 ) ) ;
#288 = FACE_OUTER_BOUND ( 'NONE', #347, .T. ) ;
#289 = DIRECTION ( 'NONE',  ( -1.000000000000000000, 0.000000000000000000, 0.000000000000000000 ) ) ;
#290 = EDGE_CURVE ( 'NONE', #300, #302, #79, .T. ) ;
#291 = DESIGN_CONTEXT ( 'detailed design', #148, 'design' ) ;
#292 = ADVANCED_BREP_SHAPE_REPRESENTATION ( 'd859', ( #372, #64 ), #351 ) ;
#293 = PERSON_AND_ORGANIZATION ( #159, #328 ) ;
#294 = APPROVAL ( #380, 'NEURÈENÝ' ) ;
#295 = PERSON_AND_ORGANIZATION ( #159, #328 ) ;
#296 = APPROVAL ( #114, 'NEURÈENÝ' ) ;
#297 = ORIENTED_EDGE ( 'NONE', *, *, #36, .T. ) ;
#298 = ORIENTED_EDGE ( 'NONE', *, *, #61, .F. ) ;
#299 = ORIENTED_EDGE ( 'NONE', *, *, #202, .T. ) ;
#300 = VERTEX_POINT ( 'NONE', #164 ) ;
#301 = CC_DESIGN_PERSON_AND_ORGANIZATION_ASSIGNMENT ( #200, #237, ( #98 ) ) ;
#302 = VERTEX_POINT ( 'NONE', #132 ) ;
#303 = DIRECTION ( 'NONE',  ( 0.000000000000000000, 0.000000000000000000, 1.000000000000000000 ) ) ;
#304 = AXIS2_PLACEMENT_3D ( 'NONE', #276, #9, #161 ) ;
#305 = SECURITY_CLASSIFICATION ( '', '', #378 ) ;
#306 = PLANE ( 'NONE',  #54 ) ;
#307 = CARTESIAN_POINT ( 'NONE',  ( 0.000000000000000000, 0.000000000000000000, 205.0000000000000284 ) ) ;
#308 = CARTESIAN_POINT ( 'NONE',  ( 0.000000000000000000, 0.000000000000000000, 0.000000000000000000 ) ) ;
#309 = DIRECTION ( 'NONE',  ( -0.000000000000000000, -0.000000000000000000, -1.000000000000000000 ) ) ;
#310 = PRODUCT_DEFINITION_SHAPE ( 'NONE', 'NONE',  #349 ) ;
#311 = CARTESIAN_POINT ( 'NONE',  ( 5.000000000000000000, 6.123233995736766282E-16, 205.0000000000000284 ) ) ;
#312 = APPROVAL_PERSON_ORGANIZATION ( #230, #296, #350 ) ;
#313 = CARTESIAN_POINT ( 'NONE',  ( 8.000000000000000000, 9.797174393178825657E-16, 0.000000000000000000 ) ) ;
#314 = UNCERTAINTY_MEASURE_WITH_UNIT (LENGTH_MEASURE( 1.000000000000000082E-05 ), #175, 'distance_accuracy_value', 'NONE');
#315 = PERSON_AND_ORGANIZATION ( #159, #328 ) ;
#316 = ORIENTED_EDGE ( 'NONE', *, *, #216, .T. ) ;
#317 = AXIS2_PLACEMENT_3D ( 'NONE', #99, #214, #331 ) ;
#318 = PRODUCT_RELATED_PRODUCT_CATEGORY ( 'detail', '', ( #210 ) ) ;
#319 = COORDINATED_UNIVERSAL_TIME_OFFSET ( 1, 0, .AHEAD. ) ;
#320 = CC_DESIGN_PERSON_AND_ORGANIZATION_ASSIGNMENT ( #295, #82, ( #305 ) ) ;
#321 = LOCAL_TIME ( 11, 4, 55.00000000000000000, #262 ) ;
#322 = ORIENTED_EDGE ( 'NONE', *, *, #172, .T. ) ;
#323 = DIRECTION ( 'NONE',  ( 0.000000000000000000, 0.000000000000000000, 1.000000000000000000 ) ) ;
#324 = ORIENTED_EDGE ( 'NONE', *, *, #278, .F. ) ;
#325 = CARTESIAN_POINT ( 'NONE',  ( 0.000000000000000000, 0.000000000000000000, 5.500000000000005329 ) ) ;
#326 = ORIENTED_EDGE ( 'NONE', *, *, #36, .F. ) ;
#327 = DIRECTION ( 'NONE',  ( 0.000000000000000000, 0.000000000000000000, 1.000000000000000000 ) ) ;
#328 = ORGANIZATION ( 'NEURÈENÝ', 'NEURÈENÝ', '' ) ;
#329 = VERTEX_POINT ( 'NONE', #19 ) ;
#330 = EDGE_CURVE ( 'NONE', #25, #275, #257, .T. ) ;
#331 = DIRECTION ( 'NONE',  ( 1.000000000000000000, 0.000000000000000000, 0.000000000000000000 ) ) ;
#332 = ORIENTED_EDGE ( 'NONE', *, *, #162, .T. ) ;
#333 = DIRECTION ( 'NONE',  ( 1.000000000000000000, 0.000000000000000000, 0.000000000000000000 ) ) ;
#334 = CARTESIAN_POINT ( 'NONE',  ( 0.000000000000000000, 0.000000000000000000, 0.000000000000000000 ) ) ;
#335 = CARTESIAN_POINT ( 'NONE',  ( 0.000000000000000000, 0.000000000000000000, 205.0000000000000284 ) ) ;
#336 = AXIS2_PLACEMENT_3D ( 'NONE', #180, #21, #289 ) ;
#337 = CARTESIAN_POINT ( 'NONE',  ( 0.000000000000000000, 0.000000000000000000, 5.000000000000000000 ) ) ;
#338 = DIRECTION ( 'NONE',  ( -0.000000000000000000, -0.000000000000000000, -1.000000000000000000 ) ) ;
#339 = DIRECTION ( 'NONE',  ( 1.224646799147353207E-16, 1.000000000000000000, -0.000000000000000000 ) ) ;
#340 = DIRECTION ( 'NONE',  ( -1.000000000000000000, 0.000000000000000000, 0.000000000000000000 ) ) ;
#341 = AXIS2_PLACEMENT_3D ( 'NONE', #334, #286, #14 ) ;
#342 = CARTESIAN_POINT ( 'NONE',  ( 0.000000000000000000, 0.000000000000000000, 5.000000000000000000 ) ) ;
#343 = EDGE_CURVE ( 'NONE', #300, #358, #184, .T. ) ;
#344 = CIRCLE ( 'NONE', #235, 8.000000000000000000 ) ;
#345 = DIRECTION ( 'NONE',  ( 0.000000000000000000, 0.000000000000000000, 1.000000000000000000 ) ) ;
#346 = CALENDAR_DATE ( 2022, 10, 7 ) ;
#347 = EDGE_LOOP ( 'NONE', ( #332, #270 ) ) ;
#348 = COORDINATED_UNIVERSAL_TIME_OFFSET ( 1, 0, .AHEAD. ) ;
#349 = PRODUCT_DEFINITION ( 'NEZNÁMÝ', '', #98, #291 ) ;
#350 = APPROVAL_ROLE ( '' ) ;
#351 =( GEOMETRIC_REPRESENTATION_CONTEXT ( 3 ) GLOBAL_UNCERTAINTY_ASSIGNED_CONTEXT ( ( #314 ) ) GLOBAL_UNIT_ASSIGNED_CONTEXT ( ( #175, #56, #113 ) ) REPRESENTATION_CONTEXT ( 'NONE', 'WORKASPACE' ) );
#352 = LOCAL_TIME ( 11, 4, 55.00000000000000000, #236 ) ;
#353 = APPROVAL_STATUS ( 'not_yet_approved' ) ;
#354 = VECTOR ( 'NONE', #69, 1000.000000000000000 ) ;
#355 = ORIENTED_EDGE ( 'NONE', *, *, #49, .T. ) ;
#356 = AXIS2_PLACEMENT_3D ( 'NONE', #50, #376, #170 ) ;
#357 = VERTEX_POINT ( 'NONE', #106 ) ;
#358 = VERTEX_POINT ( 'NONE', #223 ) ;
#359 = CARTESIAN_POINT ( 'NONE',  ( -3.100000000000000089, 0.000000000000000000, 205.0000000000000284 ) ) ;
#360 = CC_DESIGN_DATE_AND_TIME_ASSIGNMENT ( #379, #264, ( #349 ) ) ;
#361 = AXIS2_PLACEMENT_3D ( 'NONE', #282, #192, #252 ) ;
#362 = ORIENTED_EDGE ( 'NONE', *, *, #143, .T. ) ;
#363 = CARTESIAN_POINT ( 'NONE',  ( 0.000000000000000000, 0.000000000000000000, 5.500000000000005329 ) ) ;
#364 = ORIENTED_EDGE ( 'NONE', *, *, #143, .F. ) ;
#365 = CARTESIAN_POINT ( 'NONE',  ( 0.000000000000000000, 0.000000000000000000, 205.0000000000000284 ) ) ;
#366 = PLANE ( 'NONE',  #341 ) ;
#367 = EDGE_CURVE ( 'NONE', #358, #33, #11, .T. ) ;
#368 = CARTESIAN_POINT ( 'NONE',  ( -8.000000000000000000, 0.000000000000000000, 5.000000000000000000 ) ) ;
#369 = CARTESIAN_POINT ( 'NONE',  ( 5.500000000000000000, 0.000000000000000000, 5.500000000000005329 ) ) ;
#370 = CARTESIAN_POINT ( 'NONE',  ( -5.000000000000000000, 0.000000000000000000, 205.0000000000000284 ) ) ;
#371 = DIRECTION ( 'NONE',  ( -0.000000000000000000, -0.000000000000000000, -1.000000000000000000 ) ) ;
#372 = MANIFOLD_SOLID_BREP ( 'Odebrat vysunutím3', #29 ) ;
#373 = DIRECTION ( 'NONE',  ( -0.000000000000000000, -0.000000000000000000, -1.000000000000000000 ) ) ;
#374 = EDGE_CURVE ( 'NONE', #272, #357, #58, .T. ) ;
#375 = VECTOR ( 'NONE', #163, 1000.000000000000000 ) ;
#376 = DIRECTION ( 'NONE',  ( 0.000000000000000000, 0.000000000000000000, -1.000000000000000000 ) ) ;
#377 = LOCAL_TIME ( 11, 4, 55.00000000000000000, #381 ) ;
#378 = SECURITY_CLASSIFICATION_LEVEL ( 'unclassified' ) ;
#379 = DATE_AND_TIME ( #263, #377 ) ;
#380 = APPROVAL_STATUS ( 'not_yet_approved' ) ;
#381 = COORDINATED_UNIVERSAL_TIME_OFFSET ( 1, 0, .AHEAD. ) ;
ENDSEC;
END-ISO-10303-21;
