ISO-10303-21;
HEADER;
FILE_DESCRIPTION (( 'STEP AP203' ),
    '1' );
FILE_NAME ('63f8.STEP',
    '2022-07-10T09:11:35',
    ( '' ),
    ( '' ),
    'SwSTEP 2.0',
    'SolidWorks 2019',
    '' );
FILE_SCHEMA (( 'CONFIG_CONTROL_DESIGN' ));
ENDSEC;

DATA;
#1 = DIRECTION ( 'NONE',  ( 1.000000000000000000, 0.000000000000000000, 0.000000000000000000 ) ) ;
#2 = CIRCLE ( 'NONE', #183, 2.250000000000000000 ) ;
#3 = DIRECTION ( 'NONE',  ( 1.000000000000000000, 0.000000000000000000, -0.000000000000000000 ) ) ;
#4 = DIRECTION ( 'NONE',  ( 0.000000000000000000, 0.000000000000000000, 1.000000000000000000 ) ) ;
#5 = DIRECTION ( 'NONE',  ( 1.000000000000000000, 0.000000000000000000, 0.000000000000000000 ) ) ;
#6 = CARTESIAN_POINT ( 'NONE',  ( 7.000000000000000000, 8.572527594031473190E-16, 5.000000000000000000 ) ) ;
#7 = DIRECTION ( 'NONE',  ( 1.000000000000000000, 0.000000000000000000, 0.000000000000000000 ) ) ;
#8 = VERTEX_POINT ( 'NONE', #138 ) ;
#9 = DIRECTION ( 'NONE',  ( -1.000000000000000000, 0.000000000000000000, 0.000000000000000000 ) ) ;
#10 = ORIENTED_EDGE ( 'NONE', *, *, #221, .F. ) ;
#11 = DIRECTION ( 'NONE',  ( 1.000000000000000000, 0.000000000000000000, 0.000000000000000000 ) ) ;
#12 = EDGE_CURVE ( 'NONE', #163, #321, #244, .T. ) ;
#13 = AXIS2_PLACEMENT_3D ( 'NONE', #337, #164, #44 ) ;
#14 = VERTEX_POINT ( 'NONE', #209 ) ;
#15 = CARTESIAN_POINT ( 'NONE',  ( 0.000000000000000000, 0.000000000000000000, 105.0000000000000142 ) ) ;
#16 = VERTEX_POINT ( 'NONE', #372 ) ;
#17 = CARTESIAN_POINT ( 'NONE',  ( 0.000000000000000000, 0.000000000000000000, 0.000000000000000000 ) ) ;
#18 = ADVANCED_FACE ( 'NONE', ( #19 ), #112, .F. ) ;
#19 = FACE_OUTER_BOUND ( 'NONE', #335, .T. ) ;
#20 = VECTOR ( 'NONE', #125, 1000.000000000000000 ) ;
#21 = PERSON ( 'NEURÈENÝ', 'NEURÈENÝ', 'NEURÈENÝ', ('NEURÈENÝ'), ('NEURÈENÝ'), ('NEURÈENÝ') ) ;
#22 = PERSON_AND_ORGANIZATION_ROLE ( 'design_owner' ) ;
#23 = COORDINATED_UNIVERSAL_TIME_OFFSET ( 1, 0, .AHEAD. ) ;
#24 = EDGE_CURVE ( 'NONE', #75, #163, #232, .T. ) ;
#25 = PERSON_AND_ORGANIZATION_ROLE ( 'creator' ) ;
#26 = VERTEX_POINT ( 'NONE', #377 ) ;
#27 = TOROIDAL_SURFACE ( 'NONE', #348, 4.500000000000000888, 0.5000000000000000000 ) ;
#28 = DIRECTION ( 'NONE',  ( -0.000000000000000000, -0.000000000000000000, -1.000000000000000000 ) ) ;
#29 = UNCERTAINTY_MEASURE_WITH_UNIT (LENGTH_MEASURE( 1.000000000000000082E-05 ), #50, 'distance_accuracy_value', 'NONE');
#30 = EDGE_CURVE ( 'NONE', #75, #311, #82, .T. ) ;
#31 = MANIFOLD_SOLID_BREP ( 'Odebrat vysunutím3', #290 ) ;
#32 = CARTESIAN_POINT ( 'NONE',  ( -4.000000000000000000, 0.000000000000000000, 5.500000000000005329 ) ) ;
#33 = DIRECTION ( 'NONE',  ( 0.000000000000000000, -1.000000000000000000, 0.000000000000000000 ) ) ;
#34 = ORIENTED_EDGE ( 'NONE', *, *, #363, .T. ) ;
#35 = DIRECTION ( 'NONE',  ( -0.000000000000000000, -0.000000000000000000, -1.000000000000000000 ) ) ;
#36 = EDGE_LOOP ( 'NONE', ( #349, #236, #282, #358 ) ) ;
#37 = FACE_BOUND ( 'NONE', #275, .T. ) ;
#38 = DIRECTION ( 'NONE',  ( 0.000000000000000000, 0.000000000000000000, 1.000000000000000000 ) ) ;
#39 = CIRCLE ( 'NONE', #188, 7.000000000000000000 ) ;
#40 = ADVANCED_BREP_SHAPE_REPRESENTATION ( '63f8', ( #31, #220 ), #203 ) ;
#41 = DIRECTION ( 'NONE',  ( -0.000000000000000000, -0.000000000000000000, -1.000000000000000000 ) ) ;
#42 = APPLICATION_CONTEXT ( 'configuration controlled 3d designs of mechanical parts and assemblies' ) ;
#43 = ORIENTED_EDGE ( 'NONE', *, *, #185, .T. ) ;
#44 = DIRECTION ( 'NONE',  ( 1.000000000000000000, 0.000000000000000000, 0.000000000000000000 ) ) ;
#45 = APPLICATION_CONTEXT ( 'configuration controlled 3d designs of mechanical parts and assemblies' ) ;
#46 = ORIENTED_EDGE ( 'NONE', *, *, #61, .F. ) ;
#47 = DIRECTION ( 'NONE',  ( -1.000000000000000000, 0.000000000000000000, 0.000000000000000000 ) ) ;
#48 = AXIS2_PLACEMENT_3D ( 'NONE', #318, #261, #194 ) ;
#49 = ORIENTED_EDGE ( 'NONE', *, *, #345, .F. ) ;
#50 =( LENGTH_UNIT ( ) NAMED_UNIT ( * ) SI_UNIT ( .MILLI., .METRE. ) );
#51 = ORIENTED_EDGE ( 'NONE', *, *, #198, .T. ) ;
#52 = APPROVAL_ROLE ( '' ) ;
#53 = EDGE_LOOP ( 'NONE', ( #219, #190, #179, #43 ) ) ;
#54 = APPROVAL_ROLE ( '' ) ;
#55 = PRODUCT_DEFINITION_SHAPE ( 'NONE', 'NONE',  #192 ) ;
#56 = CARTESIAN_POINT ( 'NONE',  ( 0.000000000000000000, 0.000000000000000000, 105.0000000000000142 ) ) ;
#57 = AXIS2_PLACEMENT_3D ( 'NONE', #133, #135, #173 ) ;
#58 = ADVANCED_FACE ( 'NONE', ( #368 ), #279, .T. ) ;
#59 = COORDINATED_UNIVERSAL_TIME_OFFSET ( 1, 0, .AHEAD. ) ;
#60 = DATE_AND_TIME ( #208, #80 ) ;
#61 = EDGE_CURVE ( 'NONE', #311, #75, #171, .T. ) ;
#62 = CIRCLE ( 'NONE', #57, 4.500000000000000888 ) ;
#63 = DIRECTION ( 'NONE',  ( 0.000000000000000000, 0.000000000000000000, 1.000000000000000000 ) ) ;
#64 = CARTESIAN_POINT ( 'NONE',  ( 0.000000000000000000, 0.000000000000000000, 5.000000000000000000 ) ) ;
#65 = DIRECTION ( 'NONE',  ( 0.000000000000000000, 0.000000000000000000, 1.000000000000000000 ) ) ;
#66 = TOROIDAL_SURFACE ( 'NONE', #178, 4.500000000000000888, 0.5000000000000000000 ) ;
#67 = LINE ( 'NONE', #334, #196 ) ;
#68 = ORIENTED_EDGE ( 'NONE', *, *, #345, .T. ) ;
#69 = DIRECTION ( 'NONE',  ( 1.000000000000000000, 0.000000000000000000, 0.000000000000000000 ) ) ;
#70 = CC_DESIGN_PERSON_AND_ORGANIZATION_ASSIGNMENT ( #326, #25, ( #192 ) ) ;
#71 = CARTESIAN_POINT ( 'NONE',  ( 4.000000000000000000, 4.898587196589412829E-16, 105.0000000000000142 ) ) ;
#72 = ORIENTED_EDGE ( 'NONE', *, *, #165, .F. ) ;
#73 = CARTESIAN_POINT ( 'NONE',  ( 0.000000000000000000, 0.000000000000000000, 105.0000000000000142 ) ) ;
#74 = AXIS2_PLACEMENT_3D ( 'NONE', #281, #231, #79 ) ;
#75 = VERTEX_POINT ( 'NONE', #276 ) ;
#76 = APPROVAL ( #355, 'NEURÈENÝ' ) ;
#77 = CARTESIAN_POINT ( 'NONE',  ( 2.250000000000000000, 2.755455298081544285E-16, 105.0000000000000142 ) ) ;
#78 = CYLINDRICAL_SURFACE ( 'NONE', #243, 7.000000000000000000 ) ;
#79 = DIRECTION ( 'NONE',  ( 1.000000000000000000, 0.000000000000000000, 0.000000000000000000 ) ) ;
#80 = LOCAL_TIME ( 11, 11, 35.00000000000000000, #119 ) ;
#81 = CARTESIAN_POINT ( 'NONE',  ( 0.000000000000000000, 0.000000000000000000, 105.0000000000000142 ) ) ;
#82 = CIRCLE ( 'NONE', #189, 4.000000000000000000 ) ;
#83 = APPROVAL_STATUS ( 'not_yet_approved' ) ;
#84 = EDGE_CURVE ( 'NONE', #26, #163, #150, .T. ) ;
#85 = EDGE_LOOP ( 'NONE', ( #46, #262, #201, #193 ) ) ;
#86 = PERSON_AND_ORGANIZATION ( #21, #273 ) ;
#87 = EDGE_LOOP ( 'NONE', ( #376, #223, #278, #374 ) ) ;
#88 = PERSON_AND_ORGANIZATION_ROLE ( 'classification_officer' ) ;
#89 = AXIS2_PLACEMENT_3D ( 'NONE', #222, #4, #247 ) ;
#90 = VECTOR ( 'NONE', #342, 1000.000000000000000 ) ;
#91 = DATE_AND_TIME ( #237, #161 ) ;
#92 = SHAPE_DEFINITION_REPRESENTATION ( #55, #40 ) ;
#93 = EDGE_LOOP ( 'NONE', ( #132, #296 ) ) ;
#94 = APPROVAL ( #267, 'NEURÈENÝ' ) ;
#95 = LOCAL_TIME ( 11, 11, 35.00000000000000000, #59 ) ;
#96 = AXIS2_PLACEMENT_3D ( 'NONE', #245, #364, #187 ) ;
#97 = CARTESIAN_POINT ( 'NONE',  ( 0.000000000000000000, 0.000000000000000000, 5.500000000000005329 ) ) ;
#98 = DIRECTION ( 'NONE',  ( 1.000000000000000000, 0.000000000000000000, 0.000000000000000000 ) ) ;
#99 = EDGE_CURVE ( 'NONE', #311, #26, #248, .T. ) ;
#100 = LINE ( 'NONE', #218, #20 ) ;
#101 = ORIENTED_EDGE ( 'NONE', *, *, #269, .T. ) ;
#102 = ADVANCED_FACE ( 'NONE', ( #126 ), #27, .F. ) ;
#103 = AXIS2_PLACEMENT_3D ( 'NONE', #310, #344, #369 ) ;
#104 = CARTESIAN_POINT ( 'NONE',  ( 4.500000000000000888, 0.000000000000000000, 5.500000000000005329 ) ) ;
#105 = AXIS2_PLACEMENT_3D ( 'NONE', #303, #329, #69 ) ;
#106 = ORIENTED_EDGE ( 'NONE', *, *, #260, .F. ) ;
#107 = CARTESIAN_POINT ( 'NONE',  ( 0.000000000000000000, 0.000000000000000000, 105.0000000000000142 ) ) ;
#108 = LINE ( 'NONE', #202, #240 ) ;
#109 = CARTESIAN_POINT ( 'NONE',  ( 7.000000000000000000, 8.572527594031473190E-16, 0.000000000000000000 ) ) ;
#110 = APPROVAL_PERSON_ORGANIZATION ( #320, #76, #52 ) ;
#111 = DIRECTION ( 'NONE',  ( -0.000000000000000000, -0.000000000000000000, -1.000000000000000000 ) ) ;
#112 = CYLINDRICAL_SURFACE ( 'NONE', #371, 2.250000000000000000 ) ;
#113 = ORIENTED_EDGE ( 'NONE', *, *, #198, .F. ) ;
#114 =( NAMED_UNIT ( * ) SI_UNIT ( $, .STERADIAN. ) SOLID_ANGLE_UNIT ( ) );
#115 = VERTEX_POINT ( 'NONE', #6 ) ;
#116 = PERSON_AND_ORGANIZATION ( #21, #273 ) ;
#117 = DATE_AND_TIME ( #298, #95 ) ;
#118 = CC_DESIGN_PERSON_AND_ORGANIZATION_ASSIGNMENT ( #299, #22, ( #249 ) ) ;
#119 = COORDINATED_UNIVERSAL_TIME_OFFSET ( 1, 0, .AHEAD. ) ;
#120 = AXIS2_PLACEMENT_3D ( 'NONE', #168, #136, #293 ) ;
#121 = ORIENTED_EDGE ( 'NONE', *, *, #238, .F. ) ;
#122 = CARTESIAN_POINT ( 'NONE',  ( 0.000000000000000000, 0.000000000000000000, 5.000000000000000000 ) ) ;
#123 = CIRCLE ( 'NONE', #229, 2.250000000000000000 ) ;
#124 = CC_DESIGN_SECURITY_CLASSIFICATION ( #359, ( #141 ) ) ;
#125 = DIRECTION ( 'NONE',  ( 0.000000000000000000, 0.000000000000000000, -1.000000000000000000 ) ) ;
#126 = FACE_OUTER_BOUND ( 'NONE', #87, .T. ) ;
#127 = VERTEX_POINT ( 'NONE', #307 ) ;
#128 = DIRECTION ( 'NONE',  ( 1.000000000000000000, 0.000000000000000000, 0.000000000000000000 ) ) ;
#129 = LOCAL_TIME ( 11, 11, 35.00000000000000000, #144 ) ;
#130 = PLANE ( 'NONE',  #96 ) ;
#131 = CARTESIAN_POINT ( 'NONE',  ( -7.000000000000000000, 0.000000000000000000, 0.000000000000000000 ) ) ;
#132 = ORIENTED_EDGE ( 'NONE', *, *, #160, .T. ) ;
#133 = CARTESIAN_POINT ( 'NONE',  ( 0.000000000000000000, 0.000000000000000000, 5.000000000000000000 ) ) ;
#134 = VERTEX_POINT ( 'NONE', #155 ) ;
#135 = DIRECTION ( 'NONE',  ( -0.000000000000000000, -0.000000000000000000, -1.000000000000000000 ) ) ;
#136 = DIRECTION ( 'NONE',  ( 1.224646799147353207E-16, 1.000000000000000000, -0.000000000000000000 ) ) ;
#137 = CYLINDRICAL_SURFACE ( 'NONE', #48, 2.250000000000000000 ) ;
#138 = CARTESIAN_POINT ( 'NONE',  ( -2.250000000000000000, 0.000000000000000000, 105.0000000000000142 ) ) ;
#139 = DIRECTION ( 'NONE',  ( -0.000000000000000000, -0.000000000000000000, -1.000000000000000000 ) ) ;
#140 = ORIENTED_EDGE ( 'NONE', *, *, #225, .T. ) ;
#141 = PRODUCT_DEFINITION_FORMATION_WITH_SPECIFIED_SOURCE ( 'LIBOVOLNÝ', '', #249, .NOT_KNOWN. ) ;
#142 = DIRECTION ( 'NONE',  ( 0.000000000000000000, 0.000000000000000000, -1.000000000000000000 ) ) ;
#143 = AXIS2_PLACEMENT_3D ( 'NONE', #64, #251, #217 ) ;
#144 = COORDINATED_UNIVERSAL_TIME_OFFSET ( 1, 0, .AHEAD. ) ;
#145 = CC_DESIGN_DATE_AND_TIME_ASSIGNMENT ( #210, #380, ( #359 ) ) ;
#146 = APPROVAL_DATE_TIME ( #117, #213 ) ;
#147 = PERSON_AND_ORGANIZATION ( #21, #273 ) ;
#148 = AXIS2_PLACEMENT_3D ( 'NONE', #312, #199, #292 ) ;
#149 = ADVANCED_FACE ( 'NONE', ( #274, #330 ), #130, .F. ) ;
#150 = CIRCLE ( 'NONE', #366, 4.000000000000000000 ) ;
#151 = DATE_TIME_ROLE ( 'creation_date' ) ;
#152 = DIRECTION ( 'NONE',  ( 1.000000000000000000, 0.000000000000000000, 0.000000000000000000 ) ) ;
#153 = DIRECTION ( 'NONE',  ( 0.000000000000000000, 0.000000000000000000, -1.000000000000000000 ) ) ;
#154 = APPROVAL_PERSON_ORGANIZATION ( #86, #94, #54 ) ;
#155 = CARTESIAN_POINT ( 'NONE',  ( 4.500000000000000888, 0.000000000000000000, 5.000000000000002665 ) ) ;
#156 = ORIENTED_EDGE ( 'NONE', *, *, #269, .F. ) ;
#157 = LINE ( 'NONE', #336, #263 ) ;
#158 = EDGE_LOOP ( 'NONE', ( #156, #172 ) ) ;
#159 = CARTESIAN_POINT ( 'NONE',  ( 0.000000000000000000, 0.000000000000000000, 5.000000000000000000 ) ) ;
#160 = EDGE_CURVE ( 'NONE', #127, #115, #309, .T. ) ;
#161 = LOCAL_TIME ( 11, 11, 35.00000000000000000, #352 ) ;
#162 = FACE_OUTER_BOUND ( 'NONE', #85, .T. ) ;
#163 = VERTEX_POINT ( 'NONE', #32 ) ;
#164 = DIRECTION ( 'NONE',  ( 0.000000000000000000, 0.000000000000000000, 1.000000000000000000 ) ) ;
#165 = EDGE_CURVE ( 'NONE', #26, #134, #332, .T. ) ;
#166 = EDGE_LOOP ( 'NONE', ( #317, #207 ) ) ;
#167 = FACE_OUTER_BOUND ( 'NONE', #176, .T. ) ;
#168 = CARTESIAN_POINT ( 'NONE',  ( -4.500000000000000888, 5.510910596163089556E-16, 5.500000000000005329 ) ) ;
#169 = CARTESIAN_POINT ( 'NONE',  ( 0.000000000000000000, 0.000000000000000000, 5.500000000000005329 ) ) ;
#170 = CIRCLE ( 'NONE', #234, 2.250000000000000000 ) ;
#171 = CIRCLE ( 'NONE', #105, 4.000000000000000000 ) ;
#172 = ORIENTED_EDGE ( 'NONE', *, *, #225, .F. ) ;
#173 = DIRECTION ( 'NONE',  ( 1.000000000000000000, 0.000000000000000000, 0.000000000000000000 ) ) ;
#174 = ORIENTED_EDGE ( 'NONE', *, *, #356, .T. ) ;
#175 = DATE_AND_TIME ( #268, #129 ) ;
#176 = EDGE_LOOP ( 'NONE', ( #333, #287 ) ) ;
#177 = PERSON_AND_ORGANIZATION_ROLE ( 'creator' ) ;
#178 = AXIS2_PLACEMENT_3D ( 'NONE', #169, #38, #11 ) ;
#179 = ORIENTED_EDGE ( 'NONE', *, *, #238, .T. ) ;
#180 = MECHANICAL_CONTEXT ( 'NONE', #45, 'mechanical' ) ;
#181 = ADVANCED_FACE ( 'NONE', ( #37, #305 ), #272, .T. ) ;
#182 = DIRECTION ( 'NONE',  ( 1.000000000000000000, 0.000000000000000000, 0.000000000000000000 ) ) ;
#183 = AXIS2_PLACEMENT_3D ( 'NONE', #73, #197, #256 ) ;
#184 = CARTESIAN_POINT ( 'NONE',  ( 0.000000000000000000, 0.000000000000000000, 0.000000000000000000 ) ) ;
#185 = EDGE_CURVE ( 'NONE', #306, #254, #325, .T. ) ;
#186 = CARTESIAN_POINT ( 'NONE',  ( 0.000000000000000000, 0.000000000000000000, 5.500000000000005329 ) ) ;
#187 = DIRECTION ( 'NONE',  ( 1.000000000000000000, 0.000000000000000000, -0.000000000000000000 ) ) ;
#188 = AXIS2_PLACEMENT_3D ( 'NONE', #331, #361, #98 ) ;
#189 = AXIS2_PLACEMENT_3D ( 'NONE', #56, #65, #242 ) ;
#190 = ORIENTED_EDGE ( 'NONE', *, *, #160, .F. ) ;
#191 = DIRECTION ( 'NONE',  ( 0.000000000000000000, 0.000000000000000000, 1.000000000000000000 ) ) ;
#192 = PRODUCT_DEFINITION ( 'NEZNÁMÝ', '', #141, #214 ) ;
#193 = ORIENTED_EDGE ( 'NONE', *, *, #24, .F. ) ;
#194 = DIRECTION ( 'NONE',  ( -1.000000000000000000, 0.000000000000000000, 0.000000000000000000 ) ) ;
#195 = ORIENTED_EDGE ( 'NONE', *, *, #12, .T. ) ;
#196 = VECTOR ( 'NONE', #35, 1000.000000000000000 ) ;
#197 = DIRECTION ( 'NONE',  ( 0.000000000000000000, 0.000000000000000000, 1.000000000000000000 ) ) ;
#198 = EDGE_CURVE ( 'NONE', #254, #306, #211, .T. ) ;
#199 = DIRECTION ( 'NONE',  ( -0.000000000000000000, -0.000000000000000000, -1.000000000000000000 ) ) ;
#200 = CARTESIAN_POINT ( 'NONE',  ( 0.000000000000000000, 0.000000000000000000, 5.000000000000000000 ) ) ;
#201 = ORIENTED_EDGE ( 'NONE', *, *, #84, .T. ) ;
#202 = CARTESIAN_POINT ( 'NONE',  ( 2.250000000000000000, 2.755455298081544285E-16, 105.0000000000000142 ) ) ;
#203 =( GEOMETRIC_REPRESENTATION_CONTEXT ( 3 ) GLOBAL_UNCERTAINTY_ASSIGNED_CONTEXT ( ( #29 ) ) GLOBAL_UNIT_ASSIGNED_CONTEXT ( ( #50, #347, #114 ) ) REPRESENTATION_CONTEXT ( 'NONE', 'WORKASPACE' ) );
#204 = VECTOR ( 'NONE', #28, 1000.000000000000000 ) ;
#205 = EDGE_LOOP ( 'NONE', ( #257, #113 ) ) ;
#206 = PERSON_AND_ORGANIZATION ( #21, #273 ) ;
#207 = ORIENTED_EDGE ( 'NONE', *, *, #379, .F. ) ;
#208 = CALENDAR_DATE ( 2022, 10, 7 ) ;
#209 = CARTESIAN_POINT ( 'NONE',  ( 2.250000000000000000, 2.755455298081544285E-16, 0.000000000000000000 ) ) ;
#210 = DATE_AND_TIME ( #239, #294 ) ;
#211 = CIRCLE ( 'NONE', #338, 7.000000000000000000 ) ;
#212 = DIRECTION ( 'NONE',  ( 0.000000000000000000, 0.000000000000000000, 1.000000000000000000 ) ) ;
#213 = APPROVAL ( #83, 'NEURÈENÝ' ) ;
#214 = DESIGN_CONTEXT ( 'detailed design', #42, 'design' ) ;
#215 = CARTESIAN_POINT ( 'NONE',  ( 4.000000000000000000, 4.898587196589412829E-16, 105.0000000000000142 ) ) ;
#216 = CC_DESIGN_PERSON_AND_ORGANIZATION_ASSIGNMENT ( #297, #88, ( #359 ) ) ;
#217 = DIRECTION ( 'NONE',  ( 1.000000000000000000, 0.000000000000000000, 0.000000000000000000 ) ) ;
#218 = CARTESIAN_POINT ( 'NONE',  ( -2.250000000000000000, 0.000000000000000000, 105.0000000000000142 ) ) ;
#219 = ORIENTED_EDGE ( 'NONE', *, *, #246, .F. ) ;
#220 = AXIS2_PLACEMENT_3D ( 'NONE', #378, #212, #182 ) ;
#221 = EDGE_CURVE ( 'NONE', #8, #16, #100, .T. ) ;
#222 = CARTESIAN_POINT ( 'NONE',  ( 0.000000000000000000, 0.000000000000000000, 0.000000000000000000 ) ) ;
#223 = ORIENTED_EDGE ( 'NONE', *, *, #84, .F. ) ;
#224 = FACE_OUTER_BOUND ( 'NONE', #36, .T. ) ;
#225 = EDGE_CURVE ( 'NONE', #14, #16, #123, .T. ) ;
#226 = EDGE_LOOP ( 'NONE', ( #106, #195, #49, #72 ) ) ;
#227 = FACE_BOUND ( 'NONE', #166, .T. ) ;
#228 = ORIENTED_EDGE ( 'NONE', *, *, #221, .T. ) ;
#229 = AXIS2_PLACEMENT_3D ( 'NONE', #271, #301, #1 ) ;
#230 = DIRECTION ( 'NONE',  ( 0.000000000000000000, 0.000000000000000000, -1.000000000000000000 ) ) ;
#231 = DIRECTION ( 'NONE',  ( -0.000000000000000000, -0.000000000000000000, -1.000000000000000000 ) ) ;
#232 = LINE ( 'NONE', #314, #90 ) ;
#233 = APPLICATION_PROTOCOL_DEFINITION ( 'international standard', 'config_control_design', 1994, #42 ) ;
#234 = AXIS2_PLACEMENT_3D ( 'NONE', #17, #139, #7 ) ;
#235 = EDGE_CURVE ( 'NONE', #115, #127, #39, .T. ) ;
#236 = ORIENTED_EDGE ( 'NONE', *, *, #30, .F. ) ;
#237 = CALENDAR_DATE ( 2022, 10, 7 ) ;
#238 = EDGE_CURVE ( 'NONE', #127, #306, #67, .T. ) ;
#239 = CALENDAR_DATE ( 2022, 10, 7 ) ;
#240 = VECTOR ( 'NONE', #230, 1000.000000000000000 ) ;
#241 = ORIENTED_EDGE ( 'NONE', *, *, #235, .F. ) ;
#242 = DIRECTION ( 'NONE',  ( 1.000000000000000000, 0.000000000000000000, 0.000000000000000000 ) ) ;
#243 = AXIS2_PLACEMENT_3D ( 'NONE', #200, #315, #47 ) ;
#244 = CIRCLE ( 'NONE', #120, 0.5000000000000004441 ) ;
#245 = CARTESIAN_POINT ( 'NONE',  ( 0.000000000000000000, 0.000000000000000000, 0.000000000000000000 ) ) ;
#246 = EDGE_CURVE ( 'NONE', #115, #254, #157, .T. ) ;
#247 = DIRECTION ( 'NONE',  ( 1.000000000000000000, 0.000000000000000000, 0.000000000000000000 ) ) ;
#248 = LINE ( 'NONE', #215, #204 ) ;
#249 = PRODUCT ( '63f8', '63f8', '', ( #180 ) ) ;
#250 = APPROVAL_PERSON_ORGANIZATION ( #116, #213, #350 ) ;
#251 = DIRECTION ( 'NONE',  ( 0.000000000000000000, 0.000000000000000000, 1.000000000000000000 ) ) ;
#252 = ADVANCED_FACE ( 'NONE', ( #162 ), #370, .T. ) ;
#253 = ORIENTED_EDGE ( 'NONE', *, *, #246, .T. ) ;
#254 = VERTEX_POINT ( 'NONE', #109 ) ;
#255 = AXIS2_PLACEMENT_3D ( 'NONE', #104, #33, #153 ) ;
#256 = DIRECTION ( 'NONE',  ( 1.000000000000000000, 0.000000000000000000, 0.000000000000000000 ) ) ;
#257 = ORIENTED_EDGE ( 'NONE', *, *, #185, .F. ) ;
#258 = DIRECTION ( 'NONE',  ( 0.000000000000000000, 0.000000000000000000, 1.000000000000000000 ) ) ;
#259 = ORIENTED_EDGE ( 'NONE', *, *, #379, .T. ) ;
#260 = EDGE_CURVE ( 'NONE', #163, #26, #280, .T. ) ;
#261 = DIRECTION ( 'NONE',  ( 0.000000000000000000, 0.000000000000000000, -1.000000000000000000 ) ) ;
#262 = ORIENTED_EDGE ( 'NONE', *, *, #99, .T. ) ;
#263 = VECTOR ( 'NONE', #111, 1000.000000000000000 ) ;
#264 = PERSON_AND_ORGANIZATION_ROLE ( 'design_supplier' ) ;
#265 = AXIS2_PLACEMENT_3D ( 'NONE', #122, #360, #327 ) ;
#266 = ORIENTED_EDGE ( 'NONE', *, *, #277, .T. ) ;
#267 = APPROVAL_STATUS ( 'not_yet_approved' ) ;
#268 = CALENDAR_DATE ( 2022, 10, 7 ) ;
#269 = EDGE_CURVE ( 'NONE', #16, #14, #170, .T. ) ;
#270 = AXIS2_PLACEMENT_3D ( 'NONE', #107, #41, #9 ) ;
#271 = CARTESIAN_POINT ( 'NONE',  ( 0.000000000000000000, 0.000000000000000000, 0.000000000000000000 ) ) ;
#272 = PLANE ( 'NONE',  #353 ) ;
#273 = ORGANIZATION ( 'NEURÈENÝ', 'NEURÈENÝ', '' ) ;
#274 = FACE_BOUND ( 'NONE', #158, .T. ) ;
#275 = EDGE_LOOP ( 'NONE', ( #68, #34 ) ) ;
#276 = CARTESIAN_POINT ( 'NONE',  ( -4.000000000000000000, 0.000000000000000000, 105.0000000000000142 ) ) ;
#277 = EDGE_CURVE ( 'NONE', #339, #14, #108, .T. ) ;
#278 = ORIENTED_EDGE ( 'NONE', *, *, #165, .T. ) ;
#279 = CYLINDRICAL_SURFACE ( 'NONE', #265, 7.000000000000000000 ) ;
#280 = CIRCLE ( 'NONE', #13, 4.000000000000000000 ) ;
#281 = CARTESIAN_POINT ( 'NONE',  ( 0.000000000000000000, 0.000000000000000000, 5.000000000000000000 ) ) ;
#282 = ORIENTED_EDGE ( 'NONE', *, *, #24, .T. ) ;
#283 = CC_DESIGN_PERSON_AND_ORGANIZATION_ASSIGNMENT ( #206, #177, ( #141 ) ) ;
#284 = CARTESIAN_POINT ( 'NONE',  ( -4.500000000000000888, 5.510910596163088569E-16, 5.000000000000002665 ) ) ;
#285 = EDGE_LOOP ( 'NONE', ( #174, #266, #140, #10 ) ) ;
#286 = FACE_OUTER_BOUND ( 'NONE', #226, .T. ) ;
#287 = ORIENTED_EDGE ( 'NONE', *, *, #61, .T. ) ;
#288 = CC_DESIGN_APPROVAL ( #213, ( #192 ) ) ;
#289 = CYLINDRICAL_SURFACE ( 'NONE', #270, 4.000000000000000000 ) ;
#290 = CLOSED_SHELL ( 'NONE', ( #313, #343, #252, #58, #367, #181, #149, #357, #316, #102, #18 ) ) ;
#291 = ORIENTED_EDGE ( 'NONE', *, *, #277, .F. ) ;
#292 = DIRECTION ( 'NONE',  ( -1.000000000000000000, 0.000000000000000000, 0.000000000000000000 ) ) ;
#293 = DIRECTION ( 'NONE',  ( -1.000000000000000000, 1.224646799147351482E-16, 0.000000000000000000 ) ) ;
#294 = LOCAL_TIME ( 11, 11, 35.00000000000000000, #23 ) ;
#295 = SECURITY_CLASSIFICATION_LEVEL ( 'unclassified' ) ;
#296 = ORIENTED_EDGE ( 'NONE', *, *, #235, .T. ) ;
#297 = PERSON_AND_ORGANIZATION ( #21, #273 ) ;
#298 = CALENDAR_DATE ( 2022, 10, 7 ) ;
#299 = PERSON_AND_ORGANIZATION ( #21, #273 ) ;
#300 = CC_DESIGN_APPROVAL ( #94, ( #141 ) ) ;
#301 = DIRECTION ( 'NONE',  ( -0.000000000000000000, -0.000000000000000000, -1.000000000000000000 ) ) ;
#302 = DIRECTION ( 'NONE',  ( 0.000000000000000000, 0.000000000000000000, 1.000000000000000000 ) ) ;
#303 = CARTESIAN_POINT ( 'NONE',  ( 0.000000000000000000, 0.000000000000000000, 105.0000000000000142 ) ) ;
#304 = CIRCLE ( 'NONE', #74, 4.500000000000000888 ) ;
#305 = FACE_OUTER_BOUND ( 'NONE', #93, .T. ) ;
#306 = VERTEX_POINT ( 'NONE', #131 ) ;
#307 = CARTESIAN_POINT ( 'NONE',  ( -7.000000000000000000, 0.000000000000000000, 5.000000000000000000 ) ) ;
#308 = FACE_OUTER_BOUND ( 'NONE', #285, .T. ) ;
#309 = CIRCLE ( 'NONE', #143, 7.000000000000000000 ) ;
#310 = CARTESIAN_POINT ( 'NONE',  ( 0.000000000000000000, 0.000000000000000000, 105.0000000000000142 ) ) ;
#311 = VERTEX_POINT ( 'NONE', #71 ) ;
#312 = CARTESIAN_POINT ( 'NONE',  ( 0.000000000000000000, 0.000000000000000000, 105.0000000000000142 ) ) ;
#313 = ADVANCED_FACE ( 'NONE', ( #308 ), #137, .F. ) ;
#314 = CARTESIAN_POINT ( 'NONE',  ( -4.000000000000000000, 0.000000000000000000, 105.0000000000000142 ) ) ;
#315 = DIRECTION ( 'NONE',  ( -0.000000000000000000, -0.000000000000000000, -1.000000000000000000 ) ) ;
#316 = ADVANCED_FACE ( 'NONE', ( #227, #167 ), #340, .T. ) ;
#317 = ORIENTED_EDGE ( 'NONE', *, *, #356, .F. ) ;
#318 = CARTESIAN_POINT ( 'NONE',  ( 0.000000000000000000, 0.000000000000000000, 105.0000000000000142 ) ) ;
#319 = EDGE_LOOP ( 'NONE', ( #241, #253, #51, #121 ) ) ;
#320 = PERSON_AND_ORGANIZATION ( #21, #273 ) ;
#321 = VERTEX_POINT ( 'NONE', #284 ) ;
#322 = APPLICATION_PROTOCOL_DEFINITION ( 'international standard', 'config_control_design', 1994, #45 ) ;
#323 = DIRECTION ( 'NONE',  ( -1.000000000000000000, 0.000000000000000000, 0.000000000000000000 ) ) ;
#324 = PRODUCT_RELATED_PRODUCT_CATEGORY ( 'detail', '', ( #249 ) ) ;
#325 = CIRCLE ( 'NONE', #89, 7.000000000000000000 ) ;
#326 = PERSON_AND_ORGANIZATION ( #21, #273 ) ;
#327 = DIRECTION ( 'NONE',  ( -1.000000000000000000, 0.000000000000000000, 0.000000000000000000 ) ) ;
#328 = CIRCLE ( 'NONE', #365, 2.250000000000000000 ) ;
#329 = DIRECTION ( 'NONE',  ( 0.000000000000000000, 0.000000000000000000, 1.000000000000000000 ) ) ;
#330 = FACE_OUTER_BOUND ( 'NONE', #205, .T. ) ;
#331 = CARTESIAN_POINT ( 'NONE',  ( 0.000000000000000000, 0.000000000000000000, 5.000000000000000000 ) ) ;
#332 = CIRCLE ( 'NONE', #255, 0.5000000000000004441 ) ;
#333 = ORIENTED_EDGE ( 'NONE', *, *, #30, .T. ) ;
#334 = CARTESIAN_POINT ( 'NONE',  ( -7.000000000000000000, 0.000000000000000000, 5.000000000000000000 ) ) ;
#335 = EDGE_LOOP ( 'NONE', ( #291, #259, #228, #101 ) ) ;
#336 = CARTESIAN_POINT ( 'NONE',  ( 7.000000000000000000, 8.572527594031473190E-16, 5.000000000000000000 ) ) ;
#337 = CARTESIAN_POINT ( 'NONE',  ( 0.000000000000000000, 0.000000000000000000, 5.500000000000005329 ) ) ;
#338 = AXIS2_PLACEMENT_3D ( 'NONE', #184, #362, #128 ) ;
#339 = VERTEX_POINT ( 'NONE', #77 ) ;
#340 = PLANE ( 'NONE',  #103 ) ;
#341 = FACE_OUTER_BOUND ( 'NONE', #53, .T. ) ;
#342 = DIRECTION ( 'NONE',  ( -0.000000000000000000, -0.000000000000000000, -1.000000000000000000 ) ) ;
#343 = ADVANCED_FACE ( 'NONE', ( #286 ), #66, .F. ) ;
#344 = DIRECTION ( 'NONE',  ( 0.000000000000000000, 0.000000000000000000, 1.000000000000000000 ) ) ;
#345 = EDGE_CURVE ( 'NONE', #134, #321, #62, .T. ) ;
#346 = CC_DESIGN_APPROVAL ( #76, ( #359 ) ) ;
#347 =( NAMED_UNIT ( * ) PLANE_ANGLE_UNIT ( ) SI_UNIT ( $, .RADIAN. ) );
#348 = AXIS2_PLACEMENT_3D ( 'NONE', #186, #302, #5 ) ;
#349 = ORIENTED_EDGE ( 'NONE', *, *, #99, .F. ) ;
#350 = APPROVAL_ROLE ( '' ) ;
#351 = CC_DESIGN_DATE_AND_TIME_ASSIGNMENT ( #91, #151, ( #192 ) ) ;
#352 = COORDINATED_UNIVERSAL_TIME_OFFSET ( 1, 0, .AHEAD. ) ;
#353 = AXIS2_PLACEMENT_3D ( 'NONE', #159, #63, #3 ) ;
#354 = APPROVAL_DATE_TIME ( #175, #76 ) ;
#355 = APPROVAL_STATUS ( 'not_yet_approved' ) ;
#356 = EDGE_CURVE ( 'NONE', #8, #339, #2, .T. ) ;
#357 = ADVANCED_FACE ( 'NONE', ( #224 ), #289, .T. ) ;
#358 = ORIENTED_EDGE ( 'NONE', *, *, #260, .T. ) ;
#359 = SECURITY_CLASSIFICATION ( '', '', #295 ) ;
#360 = DIRECTION ( 'NONE',  ( -0.000000000000000000, -0.000000000000000000, -1.000000000000000000 ) ) ;
#361 = DIRECTION ( 'NONE',  ( 0.000000000000000000, 0.000000000000000000, 1.000000000000000000 ) ) ;
#362 = DIRECTION ( 'NONE',  ( 0.000000000000000000, 0.000000000000000000, 1.000000000000000000 ) ) ;
#363 = EDGE_CURVE ( 'NONE', #321, #134, #304, .T. ) ;
#364 = DIRECTION ( 'NONE',  ( 0.000000000000000000, 0.000000000000000000, 1.000000000000000000 ) ) ;
#365 = AXIS2_PLACEMENT_3D ( 'NONE', #15, #258, #373 ) ;
#366 = AXIS2_PLACEMENT_3D ( 'NONE', #97, #191, #152 ) ;
#367 = ADVANCED_FACE ( 'NONE', ( #341 ), #78, .T. ) ;
#368 = FACE_OUTER_BOUND ( 'NONE', #319, .T. ) ;
#369 = DIRECTION ( 'NONE',  ( 1.000000000000000000, 0.000000000000000000, -0.000000000000000000 ) ) ;
#370 = CYLINDRICAL_SURFACE ( 'NONE', #148, 4.000000000000000000 ) ;
#371 = AXIS2_PLACEMENT_3D ( 'NONE', #81, #142, #323 ) ;
#372 = CARTESIAN_POINT ( 'NONE',  ( -2.250000000000000000, 0.000000000000000000, 0.000000000000000000 ) ) ;
#373 = DIRECTION ( 'NONE',  ( 1.000000000000000000, 0.000000000000000000, 0.000000000000000000 ) ) ;
#374 = ORIENTED_EDGE ( 'NONE', *, *, #363, .F. ) ;
#375 = APPROVAL_DATE_TIME ( #60, #94 ) ;
#376 = ORIENTED_EDGE ( 'NONE', *, *, #12, .F. ) ;
#377 = CARTESIAN_POINT ( 'NONE',  ( 4.000000000000000000, 4.898587196589412829E-16, 5.500000000000005329 ) ) ;
#378 = CARTESIAN_POINT ( 'NONE',  ( 0.000000000000000000, 0.000000000000000000, 0.000000000000000000 ) ) ;
#379 = EDGE_CURVE ( 'NONE', #339, #8, #328, .T. ) ;
#380 = DATE_TIME_ROLE ( 'classification_date' ) ;
#381 = CC_DESIGN_PERSON_AND_ORGANIZATION_ASSIGNMENT ( #147, #264, ( #141 ) ) ;
ENDSEC;
END-ISO-10303-21;
