ISO-10303-21;
HEADER;
FILE_DESCRIPTION (( 'STEP AP203' ),
    '1' );
FILE_NAME ('678f.STEP',
    '2022-07-10T09:07:27',
    ( '' ),
    ( '' ),
    'SwSTEP 2.0',
    'SolidWorks 2019',
    '' );
FILE_SCHEMA (( 'CONFIG_CONTROL_DESIGN' ));
ENDSEC;

DATA;
#1 = CALENDAR_DATE ( 2022, 10, 7 ) ;
#2 = DIRECTION ( 'NONE',  ( -1.000000000000000000, 0.000000000000000000, 0.000000000000000000 ) ) ;
#3 = CC_DESIGN_PERSON_AND_ORGANIZATION_ASSIGNMENT ( #246, #47, ( #202 ) ) ;
#4 = CARTESIAN_POINT ( 'NONE',  ( 8.000000000000000000, 9.797174393178825657E-16, 5.000000000000000000 ) ) ;
#5 = AXIS2_PLACEMENT_3D ( 'NONE', #130, #76, #187 ) ;
#6 = EDGE_LOOP ( 'NONE', ( #68, #168, #109, #171 ) ) ;
#7 = ADVANCED_FACE ( 'NONE', ( #48 ), #376, .T. ) ;
#8 = EDGE_LOOP ( 'NONE', ( #360, #350, #9, #200 ) ) ;
#9 = ORIENTED_EDGE ( 'NONE', *, *, #124, .T. ) ;
#10 = DIRECTION ( 'NONE',  ( 0.000000000000000000, 0.000000000000000000, 1.000000000000000000 ) ) ;
#11 = APPROVAL ( #288, 'NEURÈENÝ' ) ;
#12 = FACE_OUTER_BOUND ( 'NONE', #6, .T. ) ;
#13 = VERTEX_POINT ( 'NONE', #337 ) ;
#14 =( LENGTH_UNIT ( ) NAMED_UNIT ( * ) SI_UNIT ( .MILLI., .METRE. ) );
#15 = CARTESIAN_POINT ( 'NONE',  ( 0.000000000000000000, 0.000000000000000000, 5.000000000000000000 ) ) ;
#16 = CIRCLE ( 'NONE', #224, 5.500000000000000000 ) ;
#17 = CIRCLE ( 'NONE', #151, 0.5000000000000004441 ) ;
#18 = EDGE_CURVE ( 'NONE', #41, #122, #245, .T. ) ;
#19 = ORIENTED_EDGE ( 'NONE', *, *, #67, .T. ) ;
#20 = CARTESIAN_POINT ( 'NONE',  ( 0.000000000000000000, 0.000000000000000000, 0.000000000000000000 ) ) ;
#21 = DIRECTION ( 'NONE',  ( 0.000000000000000000, 0.000000000000000000, 1.000000000000000000 ) ) ;
#22 = VECTOR ( 'NONE', #348, 1000.000000000000000 ) ;
#23 = PERSON_AND_ORGANIZATION ( #297, #226 ) ;
#24 = ADVANCED_FACE ( 'NONE', ( #150 ), #275, .F. ) ;
#25 = FACE_OUTER_BOUND ( 'NONE', #172, .T. ) ;
#26 = LINE ( 'NONE', #4, #53 ) ;
#27 = PRODUCT_DEFINITION ( 'NEZNÁMÝ', '', #136, #42 ) ;
#28 = PERSON_AND_ORGANIZATION_ROLE ( 'classification_officer' ) ;
#29 = CARTESIAN_POINT ( 'NONE',  ( 0.000000000000000000, 0.000000000000000000, 105.0000000000000142 ) ) ;
#30 = ORIENTED_EDGE ( 'NONE', *, *, #56, .T. ) ;
#31 = APPROVAL_ROLE ( '' ) ;
#32 = ADVANCED_FACE ( 'NONE', ( #72 ), #186, .T. ) ;
#33 = VERTEX_POINT ( 'NONE', #180 ) ;
#34 = ORIENTED_EDGE ( 'NONE', *, *, #75, .F. ) ;
#35 = DIRECTION ( 'NONE',  ( 0.000000000000000000, 0.000000000000000000, -1.000000000000000000 ) ) ;
#36 = CIRCLE ( 'NONE', #230, 8.000000000000000000 ) ;
#37 = EDGE_LOOP ( 'NONE', ( #148, #356 ) ) ;
#38 = CC_DESIGN_PERSON_AND_ORGANIZATION_ASSIGNMENT ( #352, #28, ( #88 ) ) ;
#39 = CARTESIAN_POINT ( 'NONE',  ( -5.500000000000000000, 6.735557395310442023E-16, 5.000000000000002665 ) ) ;
#40 = AXIS2_PLACEMENT_3D ( 'NONE', #147, #10, #117 ) ;
#41 = VERTEX_POINT ( 'NONE', #49 ) ;
#42 = DESIGN_CONTEXT ( 'detailed design', #212, 'design' ) ;
#43 = EDGE_CURVE ( 'NONE', #353, #243, #334, .T. ) ;
#44 = COORDINATED_UNIVERSAL_TIME_OFFSET ( 1, 0, .AHEAD. ) ;
#45 = ORIENTED_EDGE ( 'NONE', *, *, #354, .F. ) ;
#46 = LOCAL_TIME ( 11, 7, 27.00000000000000000, #165 ) ;
#47 = PERSON_AND_ORGANIZATION_ROLE ( 'design_owner' ) ;
#48 = FACE_OUTER_BOUND ( 'NONE', #330, .T. ) ;
#49 = CARTESIAN_POINT ( 'NONE',  ( 5.000000000000000000, 6.123233995736766282E-16, 105.0000000000000142 ) ) ;
#50 = EDGE_CURVE ( 'NONE', #71, #365, #189, .T. ) ;
#51 = DIRECTION ( 'NONE',  ( 0.000000000000000000, 0.000000000000000000, 1.000000000000000000 ) ) ;
#52 = DIRECTION ( 'NONE',  ( 0.000000000000000000, 0.000000000000000000, 1.000000000000000000 ) ) ;
#53 = VECTOR ( 'NONE', #231, 1000.000000000000000 ) ;
#54 = FACE_OUTER_BOUND ( 'NONE', #141, .T. ) ;
#55 = CARTESIAN_POINT ( 'NONE',  ( 0.000000000000000000, 0.000000000000000000, 0.000000000000000000 ) ) ;
#56 = EDGE_CURVE ( 'NONE', #353, #41, #203, .T. ) ;
#57 = CIRCLE ( 'NONE', #40, 8.000000000000000000 ) ;
#58 = DIRECTION ( 'NONE',  ( 0.000000000000000000, -1.000000000000000000, 0.000000000000000000 ) ) ;
#59 = ORIENTED_EDGE ( 'NONE', *, *, #173, .F. ) ;
#60 = EDGE_CURVE ( 'NONE', #143, #209, #156, .T. ) ;
#61 = ORIENTED_EDGE ( 'NONE', *, *, #43, .T. ) ;
#62 = CARTESIAN_POINT ( 'NONE',  ( 0.000000000000000000, 0.000000000000000000, 0.000000000000000000 ) ) ;
#63 = APPROVAL_PERSON_ORGANIZATION ( #188, #316, #158 ) ;
#64 = ORIENTED_EDGE ( 'NONE', *, *, #89, .F. ) ;
#65 = DIRECTION ( 'NONE',  ( 1.000000000000000000, 0.000000000000000000, 0.000000000000000000 ) ) ;
#66 = ORIENTED_EDGE ( 'NONE', *, *, #179, .F. ) ;
#67 = EDGE_CURVE ( 'NONE', #208, #33, #112, .T. ) ;
#68 = ORIENTED_EDGE ( 'NONE', *, *, #97, .F. ) ;
#69 = APPROVAL_PERSON_ORGANIZATION ( #185, #242, #79 ) ;
#70 = ORIENTED_EDGE ( 'NONE', *, *, #50, .F. ) ;
#71 = VERTEX_POINT ( 'NONE', #251 ) ;
#72 = FACE_OUTER_BOUND ( 'NONE', #114, .T. ) ;
#73 = DIRECTION ( 'NONE',  ( 0.000000000000000000, 0.000000000000000000, -1.000000000000000000 ) ) ;
#74 = COORDINATED_UNIVERSAL_TIME_OFFSET ( 1, 0, .AHEAD. ) ;
#75 = EDGE_CURVE ( 'NONE', #174, #167, #36, .T. ) ;
#76 = DIRECTION ( 'NONE',  ( -0.000000000000000000, -0.000000000000000000, -1.000000000000000000 ) ) ;
#77 = DIRECTION ( 'NONE',  ( 0.000000000000000000, 0.000000000000000000, -1.000000000000000000 ) ) ;
#78 = CARTESIAN_POINT ( 'NONE',  ( 0.000000000000000000, 0.000000000000000000, 5.500000000000005329 ) ) ;
#79 = APPROVAL_ROLE ( '' ) ;
#80 = CARTESIAN_POINT ( 'NONE',  ( 0.000000000000000000, 0.000000000000000000, 105.0000000000000142 ) ) ;
#81 = ORIENTED_EDGE ( 'NONE', *, *, #67, .F. ) ;
#82 = ADVANCED_FACE ( 'NONE', ( #108 ), #285, .T. ) ;
#83 = DIRECTION ( 'NONE',  ( 0.000000000000000000, 0.000000000000000000, 1.000000000000000000 ) ) ;
#84 = CARTESIAN_POINT ( 'NONE',  ( 0.000000000000000000, 0.000000000000000000, 0.000000000000000000 ) ) ;
#85 = AXIS2_PLACEMENT_3D ( 'NONE', #320, #52, #129 ) ;
#86 = ORIENTED_EDGE ( 'NONE', *, *, #366, .F. ) ;
#87 = VECTOR ( 'NONE', #138, 1000.000000000000000 ) ;
#88 = SECURITY_CLASSIFICATION ( '', '', #196 ) ;
#89 = EDGE_CURVE ( 'NONE', #167, #174, #262, .T. ) ;
#90 = ORIENTED_EDGE ( 'NONE', *, *, #18, .F. ) ;
#91 = CARTESIAN_POINT ( 'NONE',  ( 5.500000000000000000, 0.000000000000000000, 5.000000000000002665 ) ) ;
#92 = ORIENTED_EDGE ( 'NONE', *, *, #366, .T. ) ;
#93 = VECTOR ( 'NONE', #102, 1000.000000000000000 ) ;
#94 = AXIS2_PLACEMENT_3D ( 'NONE', #380, #127, #2 ) ;
#95 = DIRECTION ( 'NONE',  ( 1.000000000000000000, 0.000000000000000000, 0.000000000000000000 ) ) ;
#96 = DIRECTION ( 'NONE',  ( -0.000000000000000000, -0.000000000000000000, -1.000000000000000000 ) ) ;
#97 = EDGE_CURVE ( 'NONE', #243, #209, #291, .T. ) ;
#98 = CALENDAR_DATE ( 2022, 10, 7 ) ;
#99 = DIRECTION ( 'NONE',  ( -1.000000000000000000, 0.000000000000000000, 0.000000000000000000 ) ) ;
#100 = DIRECTION ( 'NONE',  ( 1.000000000000000000, 0.000000000000000000, -0.000000000000000000 ) ) ;
#101 = CC_DESIGN_PERSON_AND_ORGANIZATION_ASSIGNMENT ( #215, #278, ( #136 ) ) ;
#102 = DIRECTION ( 'NONE',  ( -0.000000000000000000, -0.000000000000000000, -1.000000000000000000 ) ) ;
#103 = AXIS2_PLACEMENT_3D ( 'NONE', #229, #161, #289 ) ;
#104 = DIRECTION ( 'NONE',  ( 1.000000000000000000, 0.000000000000000000, 0.000000000000000000 ) ) ;
#105 = FACE_BOUND ( 'NONE', #37, .T. ) ;
#106 = VECTOR ( 'NONE', #276, 1000.000000000000000 ) ;
#107 = CARTESIAN_POINT ( 'NONE',  ( 5.500000000000000000, 0.000000000000000000, 5.500000000000005329 ) ) ;
#108 = FACE_OUTER_BOUND ( 'NONE', #8, .T. ) ;
#109 = ORIENTED_EDGE ( 'NONE', *, *, #354, .T. ) ;
#110 = ORIENTED_EDGE ( 'NONE', *, *, #381, .T. ) ;
#111 = ADVANCED_FACE ( 'NONE', ( #264, #25 ), #378, .F. ) ;
#112 = CIRCLE ( 'NONE', #267, 3.000000000000000444 ) ;
#113 = CLOSED_SHELL ( 'NONE', ( #24, #279, #290, #32, #82, #329, #111, #7, #296, #277, #118 ) ) ;
#114 = EDGE_LOOP ( 'NONE', ( #239, #110, #232, #121 ) ) ;
#115 =( GEOMETRIC_REPRESENTATION_CONTEXT ( 3 ) GLOBAL_UNCERTAINTY_ASSIGNED_CONTEXT ( ( #176 ) ) GLOBAL_UNIT_ASSIGNED_CONTEXT ( ( #14, #363, #359 ) ) REPRESENTATION_CONTEXT ( 'NONE', 'WORKASPACE' ) );
#116 = EDGE_LOOP ( 'NONE', ( #86, #244, #300, #339 ) ) ;
#117 = DIRECTION ( 'NONE',  ( 1.000000000000000000, 0.000000000000000000, 0.000000000000000000 ) ) ;
#118 = ADVANCED_FACE ( 'NONE', ( #340 ), #225, .F. ) ;
#119 = AXIS2_PLACEMENT_3D ( 'NONE', #213, #73, #280 ) ;
#120 = FACE_OUTER_BOUND ( 'NONE', #170, .T. ) ;
#121 = ORIENTED_EDGE ( 'NONE', *, *, #124, .F. ) ;
#122 = VERTEX_POINT ( 'NONE', #346 ) ;
#123 = DIRECTION ( 'NONE',  ( 1.000000000000000000, 0.000000000000000000, 0.000000000000000000 ) ) ;
#124 = EDGE_CURVE ( 'NONE', #13, #167, #195, .T. ) ;
#125 = COORDINATED_UNIVERSAL_TIME_OFFSET ( 1, 0, .AHEAD. ) ;
#126 = EDGE_LOOP ( 'NONE', ( #367, #295, #298, #19 ) ) ;
#127 = DIRECTION ( 'NONE',  ( -0.000000000000000000, -0.000000000000000000, -1.000000000000000000 ) ) ;
#128 = PERSON_AND_ORGANIZATION_ROLE ( 'creator' ) ;
#129 = DIRECTION ( 'NONE',  ( 1.000000000000000000, 0.000000000000000000, 0.000000000000000000 ) ) ;
#130 = CARTESIAN_POINT ( 'NONE',  ( 0.000000000000000000, 0.000000000000000000, 0.000000000000000000 ) ) ;
#131 = PERSON_AND_ORGANIZATION ( #297, #226 ) ;
#132 = DIRECTION ( 'NONE',  ( 1.000000000000000000, 0.000000000000000000, 0.000000000000000000 ) ) ;
#133 = AXIS2_PLACEMENT_3D ( 'NONE', #223, #342, #132 ) ;
#134 = CARTESIAN_POINT ( 'NONE',  ( 0.000000000000000000, 0.000000000000000000, 5.000000000000000000 ) ) ;
#135 = PERSON_AND_ORGANIZATION ( #297, #226 ) ;
#136 = PRODUCT_DEFINITION_FORMATION_WITH_SPECIFIED_SOURCE ( 'LIBOVOLNÝ', '', #202, .NOT_KNOWN. ) ;
#137 = LINE ( 'NONE', #237, #22 ) ;
#138 = DIRECTION ( 'NONE',  ( -0.000000000000000000, -0.000000000000000000, -1.000000000000000000 ) ) ;
#139 = APPROVAL_DATE_TIME ( #162, #11 ) ;
#140 = TOROIDAL_SURFACE ( 'NONE', #248, 5.500000000000000000, 0.5000000000000000000 ) ;
#141 = EDGE_LOOP ( 'NONE', ( #30, #92 ) ) ;
#142 = EDGE_CURVE ( 'NONE', #209, #143, #16, .T. ) ;
#143 = VERTEX_POINT ( 'NONE', #91 ) ;
#144 = ORIENTED_EDGE ( 'NONE', *, *, #152, .T. ) ;
#145 = CC_DESIGN_APPROVAL ( #242, ( #136 ) ) ;
#146 = EDGE_LOOP ( 'NONE', ( #236, #241 ) ) ;
#147 = CARTESIAN_POINT ( 'NONE',  ( 0.000000000000000000, 0.000000000000000000, 5.000000000000000000 ) ) ;
#148 = ORIENTED_EDGE ( 'NONE', *, *, #60, .T. ) ;
#149 = CARTESIAN_POINT ( 'NONE',  ( 8.000000000000000000, 9.797174393178825657E-16, 0.000000000000000000 ) ) ;
#150 = FACE_OUTER_BOUND ( 'NONE', #266, .T. ) ;
#151 = AXIS2_PLACEMENT_3D ( 'NONE', #107, #58, #160 ) ;
#152 = EDGE_CURVE ( 'NONE', #243, #122, #308, .T. ) ;
#153 = DIRECTION ( 'NONE',  ( -1.000000000000000000, 0.000000000000000000, 0.000000000000000000 ) ) ;
#154 = APPROVAL_STATUS ( 'not_yet_approved' ) ;
#155 = DIRECTION ( 'NONE',  ( 0.000000000000000000, 0.000000000000000000, 1.000000000000000000 ) ) ;
#156 = CIRCLE ( 'NONE', #133, 5.500000000000000000 ) ;
#157 = DIRECTION ( 'NONE',  ( 1.000000000000000000, 0.000000000000000000, 0.000000000000000000 ) ) ;
#158 = APPROVAL_ROLE ( '' ) ;
#159 = DIRECTION ( 'NONE',  ( -0.000000000000000000, -0.000000000000000000, -1.000000000000000000 ) ) ;
#160 = DIRECTION ( 'NONE',  ( 0.000000000000000000, 0.000000000000000000, -1.000000000000000000 ) ) ;
#161 = DIRECTION ( 'NONE',  ( 0.000000000000000000, 0.000000000000000000, 1.000000000000000000 ) ) ;
#162 = DATE_AND_TIME ( #1, #46 ) ;
#163 = AXIS2_PLACEMENT_3D ( 'NONE', #214, #301, #65 ) ;
#164 = CC_DESIGN_PERSON_AND_ORGANIZATION_ASSIGNMENT ( #131, #252, ( #136 ) ) ;
#165 = COORDINATED_UNIVERSAL_TIME_OFFSET ( 1, 0, .AHEAD. ) ;
#166 = DIRECTION ( 'NONE',  ( -1.000000000000000000, 0.000000000000000000, 0.000000000000000000 ) ) ;
#167 = VERTEX_POINT ( 'NONE', #304 ) ;
#168 = ORIENTED_EDGE ( 'NONE', *, *, #372, .F. ) ;
#169 = DIRECTION ( 'NONE',  ( 1.000000000000000000, 0.000000000000000000, -0.000000000000000000 ) ) ;
#170 = EDGE_LOOP ( 'NONE', ( #332, #325, #373, #45 ) ) ;
#171 = ORIENTED_EDGE ( 'NONE', *, *, #142, .F. ) ;
#172 = EDGE_LOOP ( 'NONE', ( #64, #34 ) ) ;
#173 = EDGE_CURVE ( 'NONE', #365, #71, #181, .T. ) ;
#174 = VERTEX_POINT ( 'NONE', #149 ) ;
#175 = DIRECTION ( 'NONE',  ( -0.000000000000000000, -0.000000000000000000, -1.000000000000000000 ) ) ;
#176 = UNCERTAINTY_MEASURE_WITH_UNIT (LENGTH_MEASURE( 1.000000000000000082E-05 ), #14, 'distance_accuracy_value', 'NONE');
#177 = CARTESIAN_POINT ( 'NONE',  ( 0.000000000000000000, 0.000000000000000000, 5.000000000000000000 ) ) ;
#178 = DIRECTION ( 'NONE',  ( 1.000000000000000000, 0.000000000000000000, 0.000000000000000000 ) ) ;
#179 = EDGE_CURVE ( 'NONE', #365, #208, #294, .T. ) ;
#180 = CARTESIAN_POINT ( 'NONE',  ( 3.000000000000000444, 3.673940397442060361E-16, 0.000000000000000000 ) ) ;
#181 = CIRCLE ( 'NONE', #163, 3.000000000000000444 ) ;
#182 = CC_DESIGN_SECURITY_CLASSIFICATION ( #88, ( #136 ) ) ;
#183 = AXIS2_PLACEMENT_3D ( 'NONE', #374, #21, #100 ) ;
#184 = FACE_BOUND ( 'NONE', #265, .T. ) ;
#185 = PERSON_AND_ORGANIZATION ( #297, #226 ) ;
#186 = CYLINDRICAL_SURFACE ( 'NONE', #314, 8.000000000000000000 ) ;
#187 = DIRECTION ( 'NONE',  ( 1.000000000000000000, 0.000000000000000000, 0.000000000000000000 ) ) ;
#188 = PERSON_AND_ORGANIZATION ( #297, #226 ) ;
#189 = CIRCLE ( 'NONE', #253, 3.000000000000000444 ) ;
#190 = DIRECTION ( 'NONE',  ( 1.000000000000000000, 0.000000000000000000, 0.000000000000000000 ) ) ;
#191 = CALENDAR_DATE ( 2022, 10, 7 ) ;
#192 = AXIS2_PLACEMENT_3D ( 'NONE', #62, #318, #169 ) ;
#193 = DIRECTION ( 'NONE',  ( -1.000000000000000000, 1.224646799147351482E-16, 0.000000000000000000 ) ) ;
#194 = CARTESIAN_POINT ( 'NONE',  ( -5.000000000000000000, 0.000000000000000000, 105.0000000000000142 ) ) ;
#195 = LINE ( 'NONE', #326, #87 ) ;
#196 = SECURITY_CLASSIFICATION_LEVEL ( 'unclassified' ) ;
#197 = COORDINATED_UNIVERSAL_TIME_OFFSET ( 1, 0, .AHEAD. ) ;
#198 = CC_DESIGN_APPROVAL ( #11, ( #88 ) ) ;
#199 = PRODUCT_DEFINITION_SHAPE ( 'NONE', 'NONE',  #27 ) ;
#200 = ORIENTED_EDGE ( 'NONE', *, *, #89, .T. ) ;
#201 = ORIENTED_EDGE ( 'NONE', *, *, #173, .T. ) ;
#202 = PRODUCT ( '678f', '678f', '', ( #311 ) ) ;
#203 = CIRCLE ( 'NONE', #85, 5.000000000000000000 ) ;
#204 = DIRECTION ( 'NONE',  ( 0.000000000000000000, 0.000000000000000000, 1.000000000000000000 ) ) ;
#205 = MANIFOLD_SOLID_BREP ( 'Odebrat vysunutím3', #113 ) ;
#206 = AXIS2_PLACEMENT_3D ( 'NONE', #177, #221, #157 ) ;
#207 = DIRECTION ( 'NONE',  ( 1.000000000000000000, 0.000000000000000000, 0.000000000000000000 ) ) ;
#208 = VERTEX_POINT ( 'NONE', #362 ) ;
#209 = VERTEX_POINT ( 'NONE', #39 ) ;
#210 = AXIS2_PLACEMENT_3D ( 'NONE', #328, #222, #193 ) ;
#211 = CIRCLE ( 'NONE', #293, 5.000000000000000000 ) ;
#212 = APPLICATION_CONTEXT ( 'configuration controlled 3d designs of mechanical parts and assemblies' ) ;
#213 = CARTESIAN_POINT ( 'NONE',  ( 0.000000000000000000, 0.000000000000000000, 105.0000000000000142 ) ) ;
#214 = CARTESIAN_POINT ( 'NONE',  ( 0.000000000000000000, 0.000000000000000000, 105.0000000000000142 ) ) ;
#215 = PERSON_AND_ORGANIZATION ( #297, #226 ) ;
#216 = ORIENTED_EDGE ( 'NONE', *, *, #345, .T. ) ;
#217 = CARTESIAN_POINT ( 'NONE',  ( 0.000000000000000000, 0.000000000000000000, 105.0000000000000142 ) ) ;
#218 = VECTOR ( 'NONE', #35, 1000.000000000000000 ) ;
#219 = AXIS2_PLACEMENT_3D ( 'NONE', #78, #247, #123 ) ;
#220 = APPROVAL_DATE_TIME ( #375, #316 ) ;
#221 = DIRECTION ( 'NONE',  ( 0.000000000000000000, 0.000000000000000000, 1.000000000000000000 ) ) ;
#222 = DIRECTION ( 'NONE',  ( 1.224646799147353207E-16, 1.000000000000000000, -0.000000000000000000 ) ) ;
#223 = CARTESIAN_POINT ( 'NONE',  ( 0.000000000000000000, 0.000000000000000000, 5.000000000000000000 ) ) ;
#224 = AXIS2_PLACEMENT_3D ( 'NONE', #234, #175, #207 ) ;
#225 = CYLINDRICAL_SURFACE ( 'NONE', #344, 3.000000000000000444 ) ;
#226 = ORGANIZATION ( 'NEURÈENÝ', 'NEURÈENÝ', '' ) ;
#227 = CARTESIAN_POINT ( 'NONE',  ( -3.000000000000000444, 0.000000000000000000, 105.0000000000000142 ) ) ;
#228 = APPLICATION_CONTEXT ( 'configuration controlled 3d designs of mechanical parts and assemblies' ) ;
#229 = CARTESIAN_POINT ( 'NONE',  ( 0.000000000000000000, 0.000000000000000000, 5.500000000000005329 ) ) ;
#230 = AXIS2_PLACEMENT_3D ( 'NONE', #84, #83, #254 ) ;
#231 = DIRECTION ( 'NONE',  ( -0.000000000000000000, -0.000000000000000000, -1.000000000000000000 ) ) ;
#232 = ORIENTED_EDGE ( 'NONE', *, *, #75, .T. ) ;
#233 = DIRECTION ( 'NONE',  ( 0.000000000000000000, 0.000000000000000000, 1.000000000000000000 ) ) ;
#234 = CARTESIAN_POINT ( 'NONE',  ( 0.000000000000000000, 0.000000000000000000, 5.000000000000000000 ) ) ;
#235 = CALENDAR_DATE ( 2022, 10, 7 ) ;
#236 = ORIENTED_EDGE ( 'NONE', *, *, #287, .T. ) ;
#237 = CARTESIAN_POINT ( 'NONE',  ( 3.000000000000000444, 3.673940397442060361E-16, 105.0000000000000142 ) ) ;
#238 = CARTESIAN_POINT ( 'NONE',  ( 0.000000000000000000, 0.000000000000000000, 0.000000000000000000 ) ) ;
#239 = ORIENTED_EDGE ( 'NONE', *, *, #256, .F. ) ;
#240 = DIRECTION ( 'NONE',  ( 1.000000000000000000, 0.000000000000000000, 0.000000000000000000 ) ) ;
#241 = ORIENTED_EDGE ( 'NONE', *, *, #256, .T. ) ;
#242 = APPROVAL ( #154, 'NEURÈENÝ' ) ;
#243 = VERTEX_POINT ( 'NONE', #272 ) ;
#244 = ORIENTED_EDGE ( 'NONE', *, *, #18, .T. ) ;
#245 = LINE ( 'NONE', #303, #93 ) ;
#246 = PERSON_AND_ORGANIZATION ( #297, #226 ) ;
#247 = DIRECTION ( 'NONE',  ( 0.000000000000000000, 0.000000000000000000, 1.000000000000000000 ) ) ;
#248 = AXIS2_PLACEMENT_3D ( 'NONE', #364, #371, #190 ) ;
#249 = DATE_TIME_ROLE ( 'creation_date' ) ;
#250 = APPROVAL_STATUS ( 'not_yet_approved' ) ;
#251 = CARTESIAN_POINT ( 'NONE',  ( 3.000000000000000444, 3.673940397442060361E-16, 105.0000000000000142 ) ) ;
#252 = PERSON_AND_ORGANIZATION_ROLE ( 'creator' ) ;
#253 = AXIS2_PLACEMENT_3D ( 'NONE', #335, #155, #95 ) ;
#254 = DIRECTION ( 'NONE',  ( 1.000000000000000000, 0.000000000000000000, 0.000000000000000000 ) ) ;
#255 = FACE_OUTER_BOUND ( 'NONE', #146, .T. ) ;
#256 = EDGE_CURVE ( 'NONE', #270, #13, #57, .T. ) ;
#257 = DATE_TIME_ROLE ( 'classification_date' ) ;
#258 = AXIS2_PLACEMENT_3D ( 'NONE', #55, #204, #104 ) ;
#259 = LOCAL_TIME ( 11, 7, 27.00000000000000000, #197 ) ;
#260 = SHAPE_DEFINITION_REPRESENTATION ( #199, #261 ) ;
#261 = ADVANCED_BREP_SHAPE_REPRESENTATION ( '678f', ( #205, #377 ), #115 ) ;
#262 = CIRCLE ( 'NONE', #258, 8.000000000000000000 ) ;
#263 = PLANE ( 'NONE',  #331 ) ;
#264 = FACE_BOUND ( 'NONE', #333, .T. ) ;
#265 = EDGE_LOOP ( 'NONE', ( #59, #70 ) ) ;
#266 = EDGE_LOOP ( 'NONE', ( #201, #216, #273, #66 ) ) ;
#267 = AXIS2_PLACEMENT_3D ( 'NONE', #238, #159, #355 ) ;
#268 = CC_DESIGN_DATE_AND_TIME_ASSIGNMENT ( #379, #249, ( #27 ) ) ;
#269 = CARTESIAN_POINT ( 'NONE',  ( -3.000000000000000444, 0.000000000000000000, 105.0000000000000142 ) ) ;
#270 = VERTEX_POINT ( 'NONE', #274 ) ;
#271 = TOROIDAL_SURFACE ( 'NONE', #219, 5.500000000000000000, 0.5000000000000000000 ) ;
#272 = CARTESIAN_POINT ( 'NONE',  ( -5.000000000000000000, 0.000000000000000000, 5.500000000000005329 ) ) ;
#273 = ORIENTED_EDGE ( 'NONE', *, *, #305, .T. ) ;
#274 = CARTESIAN_POINT ( 'NONE',  ( 8.000000000000000000, 9.797174393178825657E-16, 5.000000000000000000 ) ) ;
#275 = CYLINDRICAL_SURFACE ( 'NONE', #119, 3.000000000000000444 ) ;
#276 = DIRECTION ( 'NONE',  ( -0.000000000000000000, -0.000000000000000000, -1.000000000000000000 ) ) ;
#277 = ADVANCED_FACE ( 'NONE', ( #12 ), #140, .F. ) ;
#278 = PERSON_AND_ORGANIZATION_ROLE ( 'design_supplier' ) ;
#279 = ADVANCED_FACE ( 'NONE', ( #120 ), #271, .F. ) ;
#280 = DIRECTION ( 'NONE',  ( -1.000000000000000000, 0.000000000000000000, 0.000000000000000000 ) ) ;
#281 = AXIS2_PLACEMENT_3D ( 'NONE', #217, #96, #99 ) ;
#282 = FACE_OUTER_BOUND ( 'NONE', #116, .T. ) ;
#283 = CIRCLE ( 'NONE', #206, 8.000000000000000000 ) ;
#284 = CALENDAR_DATE ( 2022, 10, 7 ) ;
#285 = CYLINDRICAL_SURFACE ( 'NONE', #94, 8.000000000000000000 ) ;
#286 = APPROVAL_DATE_TIME ( #317, #242 ) ;
#287 = EDGE_CURVE ( 'NONE', #13, #270, #283, .T. ) ;
#288 = APPROVAL_STATUS ( 'not_yet_approved' ) ;
#289 = DIRECTION ( 'NONE',  ( 1.000000000000000000, 0.000000000000000000, 0.000000000000000000 ) ) ;
#290 = ADVANCED_FACE ( 'NONE', ( #282 ), #336, .T. ) ;
#291 = CIRCLE ( 'NONE', #210, 0.5000000000000004441 ) ;
#292 = ORIENTED_EDGE ( 'NONE', *, *, #305, .F. ) ;
#293 = AXIS2_PLACEMENT_3D ( 'NONE', #80, #321, #322 ) ;
#294 = LINE ( 'NONE', #269, #218 ) ;
#295 = ORIENTED_EDGE ( 'NONE', *, *, #50, .T. ) ;
#296 = ADVANCED_FACE ( 'NONE', ( #184, #54 ), #343, .T. ) ;
#297 = PERSON ( 'NEURÈENÝ', 'NEURÈENÝ', 'NEURÈENÝ', ('NEURÈENÝ'), ('NEURÈENÝ'), ('NEURÈENÝ') ) ;
#298 = ORIENTED_EDGE ( 'NONE', *, *, #179, .T. ) ;
#299 = CARTESIAN_POINT ( 'NONE',  ( 0.000000000000000000, 0.000000000000000000, 5.500000000000005329 ) ) ;
#300 = ORIENTED_EDGE ( 'NONE', *, *, #372, .T. ) ;
#301 = DIRECTION ( 'NONE',  ( 0.000000000000000000, 0.000000000000000000, 1.000000000000000000 ) ) ;
#302 = APPLICATION_PROTOCOL_DEFINITION ( 'international standard', 'config_control_design', 1994, #228 ) ;
#303 = CARTESIAN_POINT ( 'NONE',  ( 5.000000000000000000, 6.123233995736766282E-16, 105.0000000000000142 ) ) ;
#304 = CARTESIAN_POINT ( 'NONE',  ( -8.000000000000000000, 0.000000000000000000, 0.000000000000000000 ) ) ;
#305 = EDGE_CURVE ( 'NONE', #33, #208, #361, .T. ) ;
#306 = DIRECTION ( 'NONE',  ( -0.000000000000000000, -0.000000000000000000, -1.000000000000000000 ) ) ;
#307 = CARTESIAN_POINT ( 'NONE',  ( -5.000000000000000000, 0.000000000000000000, 105.0000000000000142 ) ) ;
#308 = CIRCLE ( 'NONE', #357, 5.000000000000000000 ) ;
#309 = CARTESIAN_POINT ( 'NONE',  ( 0.000000000000000000, 0.000000000000000000, 105.0000000000000142 ) ) ;
#310 = AXIS2_PLACEMENT_3D ( 'NONE', #309, #306, #153 ) ;
#311 = MECHANICAL_CONTEXT ( 'NONE', #228, 'mechanical' ) ;
#312 = CC_DESIGN_PERSON_AND_ORGANIZATION_ASSIGNMENT ( #23, #128, ( #27 ) ) ;
#313 = DIRECTION ( 'NONE',  ( -0.000000000000000000, -0.000000000000000000, -1.000000000000000000 ) ) ;
#314 = AXIS2_PLACEMENT_3D ( 'NONE', #15, #313, #370 ) ;
#315 = LOCAL_TIME ( 11, 7, 27.00000000000000000, #44 ) ;
#316 = APPROVAL ( #250, 'NEURÈENÝ' ) ;
#317 = DATE_AND_TIME ( #191, #315 ) ;
#318 = DIRECTION ( 'NONE',  ( 0.000000000000000000, 0.000000000000000000, 1.000000000000000000 ) ) ;
#319 = DATE_AND_TIME ( #235, #259 ) ;
#320 = CARTESIAN_POINT ( 'NONE',  ( 0.000000000000000000, 0.000000000000000000, 105.0000000000000142 ) ) ;
#321 = DIRECTION ( 'NONE',  ( 0.000000000000000000, 0.000000000000000000, 1.000000000000000000 ) ) ;
#322 = DIRECTION ( 'NONE',  ( 1.000000000000000000, 0.000000000000000000, 0.000000000000000000 ) ) ;
#323 = CC_DESIGN_APPROVAL ( #316, ( #27 ) ) ;
#324 = PRODUCT_RELATED_PRODUCT_CATEGORY ( 'detail', '', ( #202 ) ) ;
#325 = ORIENTED_EDGE ( 'NONE', *, *, #97, .T. ) ;
#326 = CARTESIAN_POINT ( 'NONE',  ( -8.000000000000000000, 0.000000000000000000, 5.000000000000000000 ) ) ;
#327 = ORIENTED_EDGE ( 'NONE', *, *, #56, .F. ) ;
#328 = CARTESIAN_POINT ( 'NONE',  ( -5.500000000000000000, 6.735557395310442023E-16, 5.500000000000005329 ) ) ;
#329 = ADVANCED_FACE ( 'NONE', ( #105, #255 ), #263, .T. ) ;
#330 = EDGE_LOOP ( 'NONE', ( #90, #327, #61, #144 ) ) ;
#331 = AXIS2_PLACEMENT_3D ( 'NONE', #134, #233, #351 ) ;
#332 = ORIENTED_EDGE ( 'NONE', *, *, #152, .F. ) ;
#333 = EDGE_LOOP ( 'NONE', ( #81, #292 ) ) ;
#334 = LINE ( 'NONE', #307, #106 ) ;
#335 = CARTESIAN_POINT ( 'NONE',  ( 0.000000000000000000, 0.000000000000000000, 105.0000000000000142 ) ) ;
#336 = CYLINDRICAL_SURFACE ( 'NONE', #310, 5.000000000000000000 ) ;
#337 = CARTESIAN_POINT ( 'NONE',  ( -8.000000000000000000, 0.000000000000000000, 5.000000000000000000 ) ) ;
#338 = LOCAL_TIME ( 11, 7, 27.00000000000000000, #74 ) ;
#339 = ORIENTED_EDGE ( 'NONE', *, *, #43, .F. ) ;
#340 = FACE_OUTER_BOUND ( 'NONE', #126, .T. ) ;
#341 = APPLICATION_PROTOCOL_DEFINITION ( 'international standard', 'config_control_design', 1994, #212 ) ;
#342 = DIRECTION ( 'NONE',  ( -0.000000000000000000, -0.000000000000000000, -1.000000000000000000 ) ) ;
#343 = PLANE ( 'NONE',  #183 ) ;
#344 = AXIS2_PLACEMENT_3D ( 'NONE', #29, #77, #166 ) ;
#345 = EDGE_CURVE ( 'NONE', #71, #33, #137, .T. ) ;
#346 = CARTESIAN_POINT ( 'NONE',  ( 5.000000000000000000, 6.123233995736766282E-16, 5.500000000000005329 ) ) ;
#347 = CC_DESIGN_DATE_AND_TIME_ASSIGNMENT ( #319, #257, ( #88 ) ) ;
#348 = DIRECTION ( 'NONE',  ( 0.000000000000000000, 0.000000000000000000, -1.000000000000000000 ) ) ;
#349 = CIRCLE ( 'NONE', #103, 5.000000000000000000 ) ;
#350 = ORIENTED_EDGE ( 'NONE', *, *, #287, .F. ) ;
#351 = DIRECTION ( 'NONE',  ( 1.000000000000000000, 0.000000000000000000, -0.000000000000000000 ) ) ;
#352 = PERSON_AND_ORGANIZATION ( #297, #226 ) ;
#353 = VERTEX_POINT ( 'NONE', #194 ) ;
#354 = EDGE_CURVE ( 'NONE', #122, #143, #17, .T. ) ;
#355 = DIRECTION ( 'NONE',  ( 1.000000000000000000, 0.000000000000000000, 0.000000000000000000 ) ) ;
#356 = ORIENTED_EDGE ( 'NONE', *, *, #142, .T. ) ;
#357 = AXIS2_PLACEMENT_3D ( 'NONE', #299, #369, #240 ) ;
#358 = APPROVAL_PERSON_ORGANIZATION ( #135, #11, #31 ) ;
#359 =( NAMED_UNIT ( * ) SI_UNIT ( $, .STERADIAN. ) SOLID_ANGLE_UNIT ( ) );
#360 = ORIENTED_EDGE ( 'NONE', *, *, #381, .F. ) ;
#361 = CIRCLE ( 'NONE', #5, 3.000000000000000444 ) ;
#362 = CARTESIAN_POINT ( 'NONE',  ( -3.000000000000000444, 0.000000000000000000, 0.000000000000000000 ) ) ;
#363 =( NAMED_UNIT ( * ) PLANE_ANGLE_UNIT ( ) SI_UNIT ( $, .RADIAN. ) );
#364 = CARTESIAN_POINT ( 'NONE',  ( 0.000000000000000000, 0.000000000000000000, 5.500000000000005329 ) ) ;
#365 = VERTEX_POINT ( 'NONE', #227 ) ;
#366 = EDGE_CURVE ( 'NONE', #41, #353, #211, .T. ) ;
#367 = ORIENTED_EDGE ( 'NONE', *, *, #345, .F. ) ;
#368 = LOCAL_TIME ( 11, 7, 27.00000000000000000, #125 ) ;
#369 = DIRECTION ( 'NONE',  ( 0.000000000000000000, 0.000000000000000000, 1.000000000000000000 ) ) ;
#370 = DIRECTION ( 'NONE',  ( -1.000000000000000000, 0.000000000000000000, 0.000000000000000000 ) ) ;
#371 = DIRECTION ( 'NONE',  ( 0.000000000000000000, 0.000000000000000000, 1.000000000000000000 ) ) ;
#372 = EDGE_CURVE ( 'NONE', #122, #243, #349, .T. ) ;
#373 = ORIENTED_EDGE ( 'NONE', *, *, #60, .F. ) ;
#374 = CARTESIAN_POINT ( 'NONE',  ( 0.000000000000000000, 0.000000000000000000, 105.0000000000000142 ) ) ;
#375 = DATE_AND_TIME ( #284, #368 ) ;
#376 = CYLINDRICAL_SURFACE ( 'NONE', #281, 5.000000000000000000 ) ;
#377 = AXIS2_PLACEMENT_3D ( 'NONE', #20, #51, #178 ) ;
#378 = PLANE ( 'NONE',  #192 ) ;
#379 = DATE_AND_TIME ( #98, #338 ) ;
#380 = CARTESIAN_POINT ( 'NONE',  ( 0.000000000000000000, 0.000000000000000000, 5.000000000000000000 ) ) ;
#381 = EDGE_CURVE ( 'NONE', #270, #174, #26, .T. ) ;
ENDSEC;
END-ISO-10303-21;
