ISO-10303-21;
HEADER;
FILE_DESCRIPTION (( 'STEP AP203' ),
    '1' );
FILE_NAME ('a455.STEP',
    '2022-07-10T09:13:10',
    ( '' ),
    ( '' ),
    'SwSTEP 2.0',
    'SolidWorks 2019',
    '' );
FILE_SCHEMA (( 'CONFIG_CONTROL_DESIGN' ));
ENDSEC;

DATA;
#1 = CLOSED_SHELL ( 'NONE', ( #276, #317, #253, #213, #201, #157, #111, #369, #282, #138, #342 ) ) ;
#2 = CIRCLE ( 'NONE', #222, 0.5000000000000004441 ) ;
#3 = APPROVAL ( #251, 'NEURÈENÝ' ) ;
#4 = CARTESIAN_POINT ( 'NONE',  ( 0.000000000000000000, 0.000000000000000000, 80.00000000000000000 ) ) ;
#5 = CYLINDRICAL_SURFACE ( 'NONE', #159, 7.000000000000000000 ) ;
#6 = AXIS2_PLACEMENT_3D ( 'NONE', #38, #329, #173 ) ;
#7 = CARTESIAN_POINT ( 'NONE',  ( 7.000000000000000000, 8.572527594031473190E-16, 5.000000000000000000 ) ) ;
#8 = AXIS2_PLACEMENT_3D ( 'NONE', #101, #104, #309 ) ;
#9 = FACE_OUTER_BOUND ( 'NONE', #310, .T. ) ;
#10 = ORIENTED_EDGE ( 'NONE', *, *, #271, .F. ) ;
#11 = EDGE_LOOP ( 'NONE', ( #360, #303, #305, #66 ) ) ;
#12 = PERSON_AND_ORGANIZATION ( #172, #112 ) ;
#13 = CC_DESIGN_PERSON_AND_ORGANIZATION_ASSIGNMENT ( #83, #374, ( #210 ) ) ;
#14 = EDGE_LOOP ( 'NONE', ( #102, #215 ) ) ;
#15 = PERSON_AND_ORGANIZATION_ROLE ( 'creator' ) ;
#16 = ORIENTED_EDGE ( 'NONE', *, *, #19, .F. ) ;
#17 = FACE_OUTER_BOUND ( 'NONE', #41, .T. ) ;
#18 = EDGE_LOOP ( 'NONE', ( #286, #193, #308, #284 ) ) ;
#19 = EDGE_CURVE ( 'NONE', #333, #229, #205, .T. ) ;
#20 = COORDINATED_UNIVERSAL_TIME_OFFSET ( 1, 0, .AHEAD. ) ;
#21 = TOROIDAL_SURFACE ( 'NONE', #237, 4.500000000000000888, 0.5000000000000000000 ) ;
#22 = ORIENTED_EDGE ( 'NONE', *, *, #31, .T. ) ;
#23 = LINE ( 'NONE', #139, #273 ) ;
#24 = AXIS2_PLACEMENT_3D ( 'NONE', #148, #124, #328 ) ;
#25 = DIRECTION ( 'NONE',  ( 0.000000000000000000, 0.000000000000000000, -1.000000000000000000 ) ) ;
#26 = CARTESIAN_POINT ( 'NONE',  ( -7.000000000000000000, 0.000000000000000000, 5.000000000000000000 ) ) ;
#27 = EDGE_CURVE ( 'NONE', #188, #335, #265, .T. ) ;
#28 = CIRCLE ( 'NONE', #320, 4.000000000000000000 ) ;
#29 = DIRECTION ( 'NONE',  ( 0.000000000000000000, 0.000000000000000000, 1.000000000000000000 ) ) ;
#30 = DIRECTION ( 'NONE',  ( 1.000000000000000000, 0.000000000000000000, -0.000000000000000000 ) ) ;
#31 = EDGE_CURVE ( 'NONE', #231, #368, #56, .T. ) ;
#32 = CARTESIAN_POINT ( 'NONE',  ( -7.000000000000000000, 0.000000000000000000, 0.000000000000000000 ) ) ;
#33 = PRODUCT_DEFINITION_FORMATION_WITH_SPECIFIED_SOURCE ( 'LIBOVOLNÝ', '', #285, .NOT_KNOWN. ) ;
#34 = CARTESIAN_POINT ( 'NONE',  ( 2.100000000000000089, 2.571758278209441957E-16, 80.00000000000000000 ) ) ;
#35 = DIRECTION ( 'NONE',  ( -0.000000000000000000, -0.000000000000000000, -1.000000000000000000 ) ) ;
#36 = DIRECTION ( 'NONE',  ( 0.000000000000000000, 0.000000000000000000, -1.000000000000000000 ) ) ;
#37 = CIRCLE ( 'NONE', #64, 4.000000000000000000 ) ;
#38 = CARTESIAN_POINT ( 'NONE',  ( 0.000000000000000000, 0.000000000000000000, 5.500000000000005329 ) ) ;
#39 = UNCERTAINTY_MEASURE_WITH_UNIT (LENGTH_MEASURE( 1.000000000000000082E-05 ), #249, 'distance_accuracy_value', 'NONE');
#40 = CARTESIAN_POINT ( 'NONE',  ( 0.000000000000000000, 0.000000000000000000, 80.00000000000000000 ) ) ;
#41 = EDGE_LOOP ( 'NONE', ( #48, #277, #340, #158 ) ) ;
#42 = CC_DESIGN_DATE_AND_TIME_ASSIGNMENT ( #135, #113, ( #210 ) ) ;
#43 = DATE_AND_TIME ( #189, #376 ) ;
#44 = ORIENTED_EDGE ( 'NONE', *, *, #248, .T. ) ;
#45 = CALENDAR_DATE ( 2022, 10, 7 ) ;
#46 = ORIENTED_EDGE ( 'NONE', *, *, #238, .F. ) ;
#47 = DIRECTION ( 'NONE',  ( 0.000000000000000000, 0.000000000000000000, -1.000000000000000000 ) ) ;
#48 = ORIENTED_EDGE ( 'NONE', *, *, #170, .F. ) ;
#49 = CC_DESIGN_PERSON_AND_ORGANIZATION_ASSIGNMENT ( #12, #128, ( #33 ) ) ;
#50 = EDGE_LOOP ( 'NONE', ( #275, #257 ) ) ;
#51 = CARTESIAN_POINT ( 'NONE',  ( 0.000000000000000000, 0.000000000000000000, 0.000000000000000000 ) ) ;
#52 = DIRECTION ( 'NONE',  ( 0.000000000000000000, 0.000000000000000000, -1.000000000000000000 ) ) ;
#53 = DIRECTION ( 'NONE',  ( 1.000000000000000000, 0.000000000000000000, 0.000000000000000000 ) ) ;
#54 = APPLICATION_CONTEXT ( 'configuration controlled 3d designs of mechanical parts and assemblies' ) ;
#55 = DIRECTION ( 'NONE',  ( 0.000000000000000000, 0.000000000000000000, 1.000000000000000000 ) ) ;
#56 = LINE ( 'NONE', #236, #60 ) ;
#57 = EDGE_CURVE ( 'NONE', #252, #161, #37, .T. ) ;
#58 = DIRECTION ( 'NONE',  ( -0.000000000000000000, -0.000000000000000000, -1.000000000000000000 ) ) ;
#59 = CARTESIAN_POINT ( 'NONE',  ( 4.500000000000000888, 0.000000000000000000, 5.000000000000002665 ) ) ;
#60 = VECTOR ( 'NONE', #25, 1000.000000000000000 ) ;
#61 = DIRECTION ( 'NONE',  ( 0.000000000000000000, 0.000000000000000000, 1.000000000000000000 ) ) ;
#62 = PRODUCT_RELATED_PRODUCT_CATEGORY ( 'detail', '', ( #285 ) ) ;
#63 = DIRECTION ( 'NONE',  ( -0.000000000000000000, -0.000000000000000000, -1.000000000000000000 ) ) ;
#64 = AXIS2_PLACEMENT_3D ( 'NONE', #167, #195, #53 ) ;
#65 = CARTESIAN_POINT ( 'NONE',  ( 0.000000000000000000, 0.000000000000000000, 80.00000000000000000 ) ) ;
#66 = ORIENTED_EDGE ( 'NONE', *, *, #174, .F. ) ;
#67 = EDGE_CURVE ( 'NONE', #252, #103, #164, .T. ) ;
#68 = CIRCLE ( 'NONE', #288, 7.000000000000000000 ) ;
#69 = APPLICATION_PROTOCOL_DEFINITION ( 'international standard', 'config_control_design', 1994, #54 ) ;
#70 = ORIENTED_EDGE ( 'NONE', *, *, #146, .T. ) ;
#71 = DIRECTION ( 'NONE',  ( 1.000000000000000000, 0.000000000000000000, 0.000000000000000000 ) ) ;
#72 = ORIENTED_EDGE ( 'NONE', *, *, #208, .F. ) ;
#73 = ORIENTED_EDGE ( 'NONE', *, *, #67, .F. ) ;
#74 = AXIS2_PLACEMENT_3D ( 'NONE', #165, #312, #370 ) ;
#75 = COORDINATED_UNIVERSAL_TIME_OFFSET ( 1, 0, .AHEAD. ) ;
#76 = ORIENTED_EDGE ( 'NONE', *, *, #336, .T. ) ;
#77 = DIRECTION ( 'NONE',  ( -0.000000000000000000, -0.000000000000000000, -1.000000000000000000 ) ) ;
#78 = CALENDAR_DATE ( 2022, 10, 7 ) ;
#79 = DIRECTION ( 'NONE',  ( 1.000000000000000000, 0.000000000000000000, 0.000000000000000000 ) ) ;
#80 = CC_DESIGN_PERSON_AND_ORGANIZATION_ASSIGNMENT ( #182, #339, ( #285 ) ) ;
#81 = DIRECTION ( 'NONE',  ( -1.000000000000000000, 1.224646799147351482E-16, 0.000000000000000000 ) ) ;
#82 = FACE_BOUND ( 'NONE', #108, .T. ) ;
#83 = PERSON_AND_ORGANIZATION ( #172, #112 ) ;
#84 = CARTESIAN_POINT ( 'NONE',  ( 0.000000000000000000, 0.000000000000000000, 5.000000000000000000 ) ) ;
#85 = AXIS2_PLACEMENT_3D ( 'NONE', #314, #140, #116 ) ;
#86 = CIRCLE ( 'NONE', #147, 4.000000000000000000 ) ;
#87 = DIRECTION ( 'NONE',  ( 1.000000000000000000, 0.000000000000000000, 0.000000000000000000 ) ) ;
#88 = PLANE ( 'NONE',  #258 ) ;
#89 = DIRECTION ( 'NONE',  ( -1.000000000000000000, 0.000000000000000000, 0.000000000000000000 ) ) ;
#90 = EDGE_CURVE ( 'NONE', #231, #188, #243, .T. ) ;
#91 = CARTESIAN_POINT ( 'NONE',  ( -4.000000000000000000, 0.000000000000000000, 5.500000000000005329 ) ) ;
#92 = ADVANCED_BREP_SHAPE_REPRESENTATION ( 'a455', ( #109, #8 ), #150 ) ;
#93 = VERTEX_POINT ( 'NONE', #375 ) ;
#94 = CARTESIAN_POINT ( 'NONE',  ( 0.000000000000000000, 0.000000000000000000, 5.000000000000000000 ) ) ;
#95 = CARTESIAN_POINT ( 'NONE',  ( 0.000000000000000000, 0.000000000000000000, 80.00000000000000000 ) ) ;
#96 = EDGE_CURVE ( 'NONE', #206, #103, #301, .T. ) ;
#97 = ORIENTED_EDGE ( 'NONE', *, *, #117, .F. ) ;
#98 = CIRCLE ( 'NONE', #74, 7.000000000000000000 ) ;
#99 =( NAMED_UNIT ( * ) PLANE_ANGLE_UNIT ( ) SI_UNIT ( $, .RADIAN. ) );
#100 = VERTEX_POINT ( 'NONE', #26 ) ;
#101 = CARTESIAN_POINT ( 'NONE',  ( 0.000000000000000000, 0.000000000000000000, 0.000000000000000000 ) ) ;
#102 = ORIENTED_EDGE ( 'NONE', *, *, #178, .T. ) ;
#103 = VERTEX_POINT ( 'NONE', #200 ) ;
#104 = DIRECTION ( 'NONE',  ( 0.000000000000000000, 0.000000000000000000, 1.000000000000000000 ) ) ;
#105 = EDGE_LOOP ( 'NONE', ( #46, #16 ) ) ;
#106 = CIRCLE ( 'NONE', #199, 2.100000000000000089 ) ;
#107 = SECURITY_CLASSIFICATION_LEVEL ( 'unclassified' ) ;
#108 = EDGE_LOOP ( 'NONE', ( #133, #154 ) ) ;
#109 = MANIFOLD_SOLID_BREP ( 'Odebrat vysunutím3', #1 ) ;
#110 = CARTESIAN_POINT ( 'NONE',  ( 0.000000000000000000, 0.000000000000000000, 80.00000000000000000 ) ) ;
#111 = ADVANCED_FACE ( 'NONE', ( #82, #318 ), #233, .F. ) ;
#112 = ORGANIZATION ( 'NEURÈENÝ', 'NEURÈENÝ', '' ) ;
#113 = DATE_TIME_ROLE ( 'classification_date' ) ;
#114 = AXIS2_PLACEMENT_3D ( 'NONE', #351, #235, #168 ) ;
#115 = CARTESIAN_POINT ( 'NONE',  ( -7.000000000000000000, 0.000000000000000000, 5.000000000000000000 ) ) ;
#116 = DIRECTION ( 'NONE',  ( 1.000000000000000000, 0.000000000000000000, 0.000000000000000000 ) ) ;
#117 = EDGE_CURVE ( 'NONE', #100, #229, #372, .T. ) ;
#118 = CARTESIAN_POINT ( 'NONE',  ( -2.100000000000000089, 0.000000000000000000, 80.00000000000000000 ) ) ;
#119 = AXIS2_PLACEMENT_3D ( 'NONE', #40, #364, #274 ) ;
#120 = DIRECTION ( 'NONE',  ( -1.000000000000000000, 0.000000000000000000, 0.000000000000000000 ) ) ;
#121 = DIRECTION ( 'NONE',  ( -0.000000000000000000, -0.000000000000000000, -1.000000000000000000 ) ) ;
#122 = DIRECTION ( 'NONE',  ( 1.000000000000000000, 0.000000000000000000, 0.000000000000000000 ) ) ;
#123 = CARTESIAN_POINT ( 'NONE',  ( 0.000000000000000000, 0.000000000000000000, 5.500000000000005329 ) ) ;
#124 = DIRECTION ( 'NONE',  ( 0.000000000000000000, 0.000000000000000000, 1.000000000000000000 ) ) ;
#125 = APPLICATION_PROTOCOL_DEFINITION ( 'international standard', 'config_control_design', 1994, #344 ) ;
#126 = CC_DESIGN_APPROVAL ( #354, ( #210 ) ) ;
#127 = ORIENTED_EDGE ( 'NONE', *, *, #19, .T. ) ;
#128 = PERSON_AND_ORGANIZATION_ROLE ( 'creator' ) ;
#129 = ORIENTED_EDGE ( 'NONE', *, *, #117, .T. ) ;
#130 = DIRECTION ( 'NONE',  ( 0.000000000000000000, 0.000000000000000000, 1.000000000000000000 ) ) ;
#131 = EDGE_LOOP ( 'NONE', ( #331, #281 ) ) ;
#132 = CC_DESIGN_DATE_AND_TIME_ASSIGNMENT ( #366, #332, ( #325 ) ) ;
#133 = ORIENTED_EDGE ( 'NONE', *, *, #336, .F. ) ;
#134 = APPROVAL_PERSON_ORGANIZATION ( #330, #186, #226 ) ;
#135 = DATE_AND_TIME ( #78, #349 ) ;
#136 = ORIENTED_EDGE ( 'NONE', *, *, #238, .T. ) ;
#137 = AXIS2_PLACEMENT_3D ( 'NONE', #4, #36, #216 ) ;
#138 = ADVANCED_FACE ( 'NONE', ( #379 ), #21, .F. ) ;
#139 = CARTESIAN_POINT ( 'NONE',  ( -4.000000000000000000, 0.000000000000000000, 80.00000000000000000 ) ) ;
#140 = DIRECTION ( 'NONE',  ( 0.000000000000000000, 0.000000000000000000, 1.000000000000000000 ) ) ;
#141 = CC_DESIGN_PERSON_AND_ORGANIZATION_ASSIGNMENT ( #192, #15, ( #325 ) ) ;
#142 = CIRCLE ( 'NONE', #357, 7.000000000000000000 ) ;
#143 = FACE_BOUND ( 'NONE', #131, .T. ) ;
#144 = CARTESIAN_POINT ( 'NONE',  ( 4.000000000000000000, 4.898587196589412829E-16, 5.500000000000005329 ) ) ;
#145 = FACE_OUTER_BOUND ( 'NONE', #11, .T. ) ;
#146 = EDGE_CURVE ( 'NONE', #161, #206, #2, .T. ) ;
#147 = AXIS2_PLACEMENT_3D ( 'NONE', #110, #343, #79 ) ;
#148 = CARTESIAN_POINT ( 'NONE',  ( 0.000000000000000000, 0.000000000000000000, 80.00000000000000000 ) ) ;
#149 = CARTESIAN_POINT ( 'NONE',  ( 0.000000000000000000, 0.000000000000000000, 5.000000000000000000 ) ) ;
#150 =( GEOMETRIC_REPRESENTATION_CONTEXT ( 3 ) GLOBAL_UNCERTAINTY_ASSIGNED_CONTEXT ( ( #39 ) ) GLOBAL_UNIT_ASSIGNED_CONTEXT ( ( #249, #99, #254 ) ) REPRESENTATION_CONTEXT ( 'NONE', 'WORKASPACE' ) );
#151 = CARTESIAN_POINT ( 'NONE',  ( 0.000000000000000000, 0.000000000000000000, 80.00000000000000000 ) ) ;
#152 = DATE_AND_TIME ( #45, #380 ) ;
#153 = CARTESIAN_POINT ( 'NONE',  ( -4.000000000000000000, 0.000000000000000000, 80.00000000000000000 ) ) ;
#154 = ORIENTED_EDGE ( 'NONE', *, *, #248, .F. ) ;
#155 = APPROVAL_DATE_TIME ( #43, #3 ) ;
#156 = ORIENTED_EDGE ( 'NONE', *, *, #90, .T. ) ;
#157 = ADVANCED_FACE ( 'NONE', ( #143, #262 ), #234, .T. ) ;
#158 = ORIENTED_EDGE ( 'NONE', *, *, #57, .T. ) ;
#159 = AXIS2_PLACEMENT_3D ( 'NONE', #149, #321, #300 ) ;
#160 = ORIENTED_EDGE ( 'NONE', *, *, #27, .F. ) ;
#161 = VERTEX_POINT ( 'NONE', #144 ) ;
#162 = CIRCLE ( 'NONE', #337, 4.000000000000000000 ) ;
#163 = EDGE_CURVE ( 'NONE', #255, #100, #98, .T. ) ;
#164 = CIRCLE ( 'NONE', #256, 0.5000000000000004441 ) ;
#165 = CARTESIAN_POINT ( 'NONE',  ( 0.000000000000000000, 0.000000000000000000, 5.000000000000000000 ) ) ;
#166 = APPROVAL_ROLE ( '' ) ;
#167 = CARTESIAN_POINT ( 'NONE',  ( 0.000000000000000000, 0.000000000000000000, 5.500000000000005329 ) ) ;
#168 = DIRECTION ( 'NONE',  ( 1.000000000000000000, 0.000000000000000000, 0.000000000000000000 ) ) ;
#169 = DIRECTION ( 'NONE',  ( 1.000000000000000000, 0.000000000000000000, 0.000000000000000000 ) ) ;
#170 = EDGE_CURVE ( 'NONE', #93, #161, #232, .T. ) ;
#171 = CARTESIAN_POINT ( 'NONE',  ( 0.000000000000000000, 0.000000000000000000, 5.500000000000005329 ) ) ;
#172 = PERSON ( 'NEURÈENÝ', 'NEURÈENÝ', 'NEURÈENÝ', ('NEURÈENÝ'), ('NEURÈENÝ'), ('NEURÈENÝ') ) ;
#173 = DIRECTION ( 'NONE',  ( 1.000000000000000000, 0.000000000000000000, 0.000000000000000000 ) ) ;
#174 = EDGE_CURVE ( 'NONE', #367, #252, #23, .T. ) ;
#175 = CARTESIAN_POINT ( 'NONE',  ( 0.000000000000000000, 0.000000000000000000, 0.000000000000000000 ) ) ;
#176 = DIRECTION ( 'NONE',  ( 1.000000000000000000, 0.000000000000000000, 0.000000000000000000 ) ) ;
#177 = CYLINDRICAL_SURFACE ( 'NONE', #327, 7.000000000000000000 ) ;
#178 = EDGE_CURVE ( 'NONE', #367, #93, #86, .T. ) ;
#179 = FACE_BOUND ( 'NONE', #221, .T. ) ;
#180 = ORIENTED_EDGE ( 'NONE', *, *, #263, .F. ) ;
#181 = VECTOR ( 'NONE', #203, 1000.000000000000000 ) ;
#182 = PERSON_AND_ORGANIZATION ( #172, #112 ) ;
#183 = EDGE_LOOP ( 'NONE', ( #72, #306, #129, #136 ) ) ;
#184 = PERSON_AND_ORGANIZATION ( #172, #112 ) ;
#185 = EDGE_LOOP ( 'NONE', ( #217, #156, #363, #76 ) ) ;
#186 = APPROVAL ( #187, 'NEURÈENÝ' ) ;
#187 = APPROVAL_STATUS ( 'not_yet_approved' ) ;
#188 = VERTEX_POINT ( 'NONE', #198 ) ;
#189 = CALENDAR_DATE ( 2022, 10, 7 ) ;
#190 = ORIENTED_EDGE ( 'NONE', *, *, #302, .T. ) ;
#191 = CIRCLE ( 'NONE', #250, 4.500000000000000888 ) ;
#192 = PERSON_AND_ORGANIZATION ( #172, #112 ) ;
#193 = ORIENTED_EDGE ( 'NONE', *, *, #67, .T. ) ;
#194 = CC_DESIGN_SECURITY_CLASSIFICATION ( #210, ( #33 ) ) ;
#195 = DIRECTION ( 'NONE',  ( 0.000000000000000000, 0.000000000000000000, 1.000000000000000000 ) ) ;
#196 = VECTOR ( 'NONE', #319, 1000.000000000000000 ) ;
#197 = PERSON_AND_ORGANIZATION ( #172, #112 ) ;
#198 = CARTESIAN_POINT ( 'NONE',  ( -2.100000000000000089, 0.000000000000000000, 80.00000000000000000 ) ) ;
#199 = AXIS2_PLACEMENT_3D ( 'NONE', #296, #58, #176 ) ;
#200 = CARTESIAN_POINT ( 'NONE',  ( -4.500000000000000888, 5.510910596163088569E-16, 5.000000000000002665 ) ) ;
#201 = ADVANCED_FACE ( 'NONE', ( #353 ), #177, .T. ) ;
#202 = APPROVAL_PERSON_ORGANIZATION ( #197, #354, #166 ) ;
#203 = DIRECTION ( 'NONE',  ( -0.000000000000000000, -0.000000000000000000, -1.000000000000000000 ) ) ;
#204 = COORDINATED_UNIVERSAL_TIME_OFFSET ( 1, 0, .AHEAD. ) ;
#205 = CIRCLE ( 'NONE', #361, 7.000000000000000000 ) ;
#206 = VERTEX_POINT ( 'NONE', #59 ) ;
#207 = FACE_OUTER_BOUND ( 'NONE', #18, .T. ) ;
#208 = EDGE_CURVE ( 'NONE', #255, #333, #266, .T. ) ;
#209 = DIRECTION ( 'NONE',  ( -0.000000000000000000, -0.000000000000000000, -1.000000000000000000 ) ) ;
#210 = SECURITY_CLASSIFICATION ( '', '', #107 ) ;
#211 = AXIS2_PLACEMENT_3D ( 'NONE', #51, #348, #289 ) ;
#212 = CYLINDRICAL_SURFACE ( 'NONE', #298, 4.000000000000000000 ) ;
#213 = ADVANCED_FACE ( 'NONE', ( #9 ), #5, .T. ) ;
#214 = DIRECTION ( 'NONE',  ( 1.000000000000000000, 0.000000000000000000, -0.000000000000000000 ) ) ;
#215 = ORIENTED_EDGE ( 'NONE', *, *, #378, .T. ) ;
#216 = DIRECTION ( 'NONE',  ( -1.000000000000000000, 0.000000000000000000, 0.000000000000000000 ) ) ;
#217 = ORIENTED_EDGE ( 'NONE', *, *, #31, .F. ) ;
#218 = CC_DESIGN_APPROVAL ( #186, ( #325 ) ) ;
#219 = APPROVAL_DATE_TIME ( #152, #186 ) ;
#220 = AXIS2_PLACEMENT_3D ( 'NONE', #84, #295, #30 ) ;
#221 = EDGE_LOOP ( 'NONE', ( #338, #315 ) ) ;
#222 = AXIS2_PLACEMENT_3D ( 'NONE', #294, #341, #52 ) ;
#223 = APPROVAL_PERSON_ORGANIZATION ( #184, #3, #304 ) ;
#224 = ORIENTED_EDGE ( 'NONE', *, *, #208, .T. ) ;
#225 = EDGE_CURVE ( 'NONE', #100, #255, #68, .T. ) ;
#226 = APPROVAL_ROLE ( '' ) ;
#227 = EDGE_LOOP ( 'NONE', ( #73, #10, #70, #180 ) ) ;
#228 = COORDINATED_UNIVERSAL_TIME_OFFSET ( 1, 0, .AHEAD. ) ;
#229 = VERTEX_POINT ( 'NONE', #32 ) ;
#230 = AXIS2_PLACEMENT_3D ( 'NONE', #95, #47, #359 ) ;
#231 = VERTEX_POINT ( 'NONE', #34 ) ;
#232 = LINE ( 'NONE', #287, #268 ) ;
#233 = PLANE ( 'NONE',  #211 ) ;
#234 = PLANE ( 'NONE',  #220 ) ;
#235 = DIRECTION ( 'NONE',  ( -0.000000000000000000, -0.000000000000000000, -1.000000000000000000 ) ) ;
#236 = CARTESIAN_POINT ( 'NONE',  ( 2.100000000000000089, 2.571758278209441957E-16, 80.00000000000000000 ) ) ;
#237 = AXIS2_PLACEMENT_3D ( 'NONE', #171, #55, #169 ) ;
#238 = EDGE_CURVE ( 'NONE', #229, #333, #142, .T. ) ;
#239 = CARTESIAN_POINT ( 'NONE',  ( 0.000000000000000000, 0.000000000000000000, 0.000000000000000000 ) ) ;
#240 = VECTOR ( 'NONE', #272, 1000.000000000000000 ) ;
#241 = CYLINDRICAL_SURFACE ( 'NONE', #137, 2.100000000000000089 ) ;
#242 = FACE_OUTER_BOUND ( 'NONE', #185, .T. ) ;
#243 = CIRCLE ( 'NONE', #85, 2.100000000000000089 ) ;
#244 = FACE_OUTER_BOUND ( 'NONE', #279, .T. ) ;
#245 = CARTESIAN_POINT ( 'NONE',  ( 7.000000000000000000, 8.572527594031473190E-16, 5.000000000000000000 ) ) ;
#246 = CIRCLE ( 'NONE', #24, 2.100000000000000089 ) ;
#247 = MECHANICAL_CONTEXT ( 'NONE', #344, 'mechanical' ) ;
#248 = EDGE_CURVE ( 'NONE', #368, #335, #106, .T. ) ;
#249 =( LENGTH_UNIT ( ) NAMED_UNIT ( * ) SI_UNIT ( .MILLI., .METRE. ) );
#250 = AXIS2_PLACEMENT_3D ( 'NONE', #352, #121, #87 ) ;
#251 = APPROVAL_STATUS ( 'not_yet_approved' ) ;
#252 = VERTEX_POINT ( 'NONE', #91 ) ;
#253 = ADVANCED_FACE ( 'NONE', ( #145 ), #212, .T. ) ;
#254 =( NAMED_UNIT ( * ) SI_UNIT ( $, .STERADIAN. ) SOLID_ANGLE_UNIT ( ) );
#255 = VERTEX_POINT ( 'NONE', #7 ) ;
#256 = AXIS2_PLACEMENT_3D ( 'NONE', #346, #377, #81 ) ;
#257 = ORIENTED_EDGE ( 'NONE', *, *, #163, .T. ) ;
#258 = AXIS2_PLACEMENT_3D ( 'NONE', #151, #61, #214 ) ;
#259 = TOROIDAL_SURFACE ( 'NONE', #6, 4.500000000000000888, 0.5000000000000000000 ) ;
#260 = DIRECTION ( 'NONE',  ( -0.000000000000000000, -0.000000000000000000, -1.000000000000000000 ) ) ;
#261 = PRODUCT_DEFINITION_SHAPE ( 'NONE', 'NONE',  #325 ) ;
#262 = FACE_OUTER_BOUND ( 'NONE', #50, .T. ) ;
#263 = EDGE_CURVE ( 'NONE', #103, #206, #191, .T. ) ;
#264 = CARTESIAN_POINT ( 'NONE',  ( 0.000000000000000000, 0.000000000000000000, 0.000000000000000000 ) ) ;
#265 = LINE ( 'NONE', #118, #196 ) ;
#266 = LINE ( 'NONE', #245, #240 ) ;
#267 = CARTESIAN_POINT ( 'NONE',  ( 0.000000000000000000, 0.000000000000000000, 80.00000000000000000 ) ) ;
#268 = VECTOR ( 'NONE', #77, 1000.000000000000000 ) ;
#269 = DIRECTION ( 'NONE',  ( 1.000000000000000000, 0.000000000000000000, 0.000000000000000000 ) ) ;
#270 = DIRECTION ( 'NONE',  ( 1.000000000000000000, 0.000000000000000000, 0.000000000000000000 ) ) ;
#271 = EDGE_CURVE ( 'NONE', #161, #252, #28, .T. ) ;
#272 = DIRECTION ( 'NONE',  ( -0.000000000000000000, -0.000000000000000000, -1.000000000000000000 ) ) ;
#273 = VECTOR ( 'NONE', #260, 1000.000000000000000 ) ;
#274 = DIRECTION ( 'NONE',  ( -1.000000000000000000, 0.000000000000000000, 0.000000000000000000 ) ) ;
#275 = ORIENTED_EDGE ( 'NONE', *, *, #225, .T. ) ;
#276 = ADVANCED_FACE ( 'NONE', ( #244 ), #241, .F. ) ;
#277 = ORIENTED_EDGE ( 'NONE', *, *, #178, .F. ) ;
#278 = COORDINATED_UNIVERSAL_TIME_OFFSET ( 1, 0, .AHEAD. ) ;
#279 = EDGE_LOOP ( 'NONE', ( #190, #22, #44, #160 ) ) ;
#280 = CYLINDRICAL_SURFACE ( 'NONE', #119, 4.000000000000000000 ) ;
#281 = ORIENTED_EDGE ( 'NONE', *, *, #263, .T. ) ;
#282 = ADVANCED_FACE ( 'NONE', ( #179, #297 ), #88, .T. ) ;
#283 = CYLINDRICAL_SURFACE ( 'NONE', #230, 2.100000000000000089 ) ;
#284 = ORIENTED_EDGE ( 'NONE', *, *, #146, .F. ) ;
#285 = PRODUCT ( 'a455', 'a455', '', ( #247 ) ) ;
#286 = ORIENTED_EDGE ( 'NONE', *, *, #57, .F. ) ;
#287 = CARTESIAN_POINT ( 'NONE',  ( 4.000000000000000000, 4.898587196589412829E-16, 80.00000000000000000 ) ) ;
#288 = AXIS2_PLACEMENT_3D ( 'NONE', #94, #381, #270 ) ;
#289 = DIRECTION ( 'NONE',  ( 1.000000000000000000, 0.000000000000000000, -0.000000000000000000 ) ) ;
#290 = LOCAL_TIME ( 11, 13, 10.00000000000000000, #20 ) ;
#291 = DIRECTION ( 'NONE',  ( 1.000000000000000000, 0.000000000000000000, 0.000000000000000000 ) ) ;
#292 = CIRCLE ( 'NONE', #324, 2.100000000000000089 ) ;
#293 = DATE_AND_TIME ( #350, #290 ) ;
#294 = CARTESIAN_POINT ( 'NONE',  ( 4.500000000000000888, 0.000000000000000000, 5.500000000000005329 ) ) ;
#295 = DIRECTION ( 'NONE',  ( 0.000000000000000000, 0.000000000000000000, 1.000000000000000000 ) ) ;
#296 = CARTESIAN_POINT ( 'NONE',  ( 0.000000000000000000, 0.000000000000000000, 0.000000000000000000 ) ) ;
#297 = FACE_OUTER_BOUND ( 'NONE', #14, .T. ) ;
#298 = AXIS2_PLACEMENT_3D ( 'NONE', #267, #209, #120 ) ;
#299 = DIRECTION ( 'NONE',  ( 0.000000000000000000, 0.000000000000000000, 1.000000000000000000 ) ) ;
#300 = DIRECTION ( 'NONE',  ( -1.000000000000000000, 0.000000000000000000, 0.000000000000000000 ) ) ;
#301 = CIRCLE ( 'NONE', #114, 4.500000000000000888 ) ;
#302 = EDGE_CURVE ( 'NONE', #188, #231, #246, .T. ) ;
#303 = ORIENTED_EDGE ( 'NONE', *, *, #170, .T. ) ;
#304 = APPROVAL_ROLE ( '' ) ;
#305 = ORIENTED_EDGE ( 'NONE', *, *, #271, .T. ) ;
#306 = ORIENTED_EDGE ( 'NONE', *, *, #225, .F. ) ;
#307 = PERSON_AND_ORGANIZATION ( #172, #112 ) ;
#308 = ORIENTED_EDGE ( 'NONE', *, *, #96, .F. ) ;
#309 = DIRECTION ( 'NONE',  ( 1.000000000000000000, 0.000000000000000000, 0.000000000000000000 ) ) ;
#310 = EDGE_LOOP ( 'NONE', ( #365, #224, #127, #97 ) ) ;
#311 = APPROVAL_STATUS ( 'not_yet_approved' ) ;
#312 = DIRECTION ( 'NONE',  ( 0.000000000000000000, 0.000000000000000000, 1.000000000000000000 ) ) ;
#313 = CC_DESIGN_PERSON_AND_ORGANIZATION_ASSIGNMENT ( #307, #347, ( #33 ) ) ;
#314 = CARTESIAN_POINT ( 'NONE',  ( 0.000000000000000000, 0.000000000000000000, 80.00000000000000000 ) ) ;
#315 = ORIENTED_EDGE ( 'NONE', *, *, #90, .F. ) ;
#316 = DESIGN_CONTEXT ( 'detailed design', #54, 'design' ) ;
#317 = ADVANCED_FACE ( 'NONE', ( #207 ), #259, .F. ) ;
#318 = FACE_OUTER_BOUND ( 'NONE', #105, .T. ) ;
#319 = DIRECTION ( 'NONE',  ( 0.000000000000000000, 0.000000000000000000, -1.000000000000000000 ) ) ;
#320 = AXIS2_PLACEMENT_3D ( 'NONE', #123, #299, #326 ) ;
#321 = DIRECTION ( 'NONE',  ( -0.000000000000000000, -0.000000000000000000, -1.000000000000000000 ) ) ;
#322 = CC_DESIGN_APPROVAL ( #3, ( #33 ) ) ;
#323 = CARTESIAN_POINT ( 'NONE',  ( -2.100000000000000089, 0.000000000000000000, 0.000000000000000000 ) ) ;
#324 = AXIS2_PLACEMENT_3D ( 'NONE', #175, #63, #122 ) ;
#325 = PRODUCT_DEFINITION ( 'NEZNÁMÝ', '', #33, #316 ) ;
#326 = DIRECTION ( 'NONE',  ( 1.000000000000000000, 0.000000000000000000, 0.000000000000000000 ) ) ;
#327 = AXIS2_PLACEMENT_3D ( 'NONE', #355, #35, #89 ) ;
#328 = DIRECTION ( 'NONE',  ( 1.000000000000000000, 0.000000000000000000, 0.000000000000000000 ) ) ;
#329 = DIRECTION ( 'NONE',  ( 0.000000000000000000, 0.000000000000000000, 1.000000000000000000 ) ) ;
#330 = PERSON_AND_ORGANIZATION ( #172, #112 ) ;
#331 = ORIENTED_EDGE ( 'NONE', *, *, #96, .T. ) ;
#332 = DATE_TIME_ROLE ( 'creation_date' ) ;
#333 = VERTEX_POINT ( 'NONE', #358 ) ;
#334 = CARTESIAN_POINT ( 'NONE',  ( 2.100000000000000089, 2.571758278209441957E-16, 0.000000000000000000 ) ) ;
#335 = VERTEX_POINT ( 'NONE', #323 ) ;
#336 = EDGE_CURVE ( 'NONE', #335, #368, #292, .T. ) ;
#337 = AXIS2_PLACEMENT_3D ( 'NONE', #65, #130, #71 ) ;
#338 = ORIENTED_EDGE ( 'NONE', *, *, #302, .F. ) ;
#339 = PERSON_AND_ORGANIZATION_ROLE ( 'design_owner' ) ;
#340 = ORIENTED_EDGE ( 'NONE', *, *, #174, .T. ) ;
#341 = DIRECTION ( 'NONE',  ( 0.000000000000000000, -1.000000000000000000, 0.000000000000000000 ) ) ;
#342 = ADVANCED_FACE ( 'NONE', ( #242 ), #283, .F. ) ;
#343 = DIRECTION ( 'NONE',  ( 0.000000000000000000, 0.000000000000000000, 1.000000000000000000 ) ) ;
#344 = APPLICATION_CONTEXT ( 'configuration controlled 3d designs of mechanical parts and assemblies' ) ;
#345 = APPROVAL_DATE_TIME ( #293, #354 ) ;
#346 = CARTESIAN_POINT ( 'NONE',  ( -4.500000000000000888, 5.510910596163089556E-16, 5.500000000000005329 ) ) ;
#347 = PERSON_AND_ORGANIZATION_ROLE ( 'design_supplier' ) ;
#348 = DIRECTION ( 'NONE',  ( 0.000000000000000000, 0.000000000000000000, 1.000000000000000000 ) ) ;
#349 = LOCAL_TIME ( 11, 13, 10.00000000000000000, #204 ) ;
#350 = CALENDAR_DATE ( 2022, 10, 7 ) ;
#351 = CARTESIAN_POINT ( 'NONE',  ( 0.000000000000000000, 0.000000000000000000, 5.000000000000000000 ) ) ;
#352 = CARTESIAN_POINT ( 'NONE',  ( 0.000000000000000000, 0.000000000000000000, 5.000000000000000000 ) ) ;
#353 = FACE_OUTER_BOUND ( 'NONE', #183, .T. ) ;
#354 = APPROVAL ( #311, 'NEURÈENÝ' ) ;
#355 = CARTESIAN_POINT ( 'NONE',  ( 0.000000000000000000, 0.000000000000000000, 5.000000000000000000 ) ) ;
#356 = DIRECTION ( 'NONE',  ( 0.000000000000000000, 0.000000000000000000, 1.000000000000000000 ) ) ;
#357 = AXIS2_PLACEMENT_3D ( 'NONE', #239, #356, #269 ) ;
#358 = CARTESIAN_POINT ( 'NONE',  ( 7.000000000000000000, 8.572527594031473190E-16, 0.000000000000000000 ) ) ;
#359 = DIRECTION ( 'NONE',  ( -1.000000000000000000, 0.000000000000000000, 0.000000000000000000 ) ) ;
#360 = ORIENTED_EDGE ( 'NONE', *, *, #378, .F. ) ;
#361 = AXIS2_PLACEMENT_3D ( 'NONE', #264, #29, #291 ) ;
#362 = CALENDAR_DATE ( 2022, 10, 7 ) ;
#363 = ORIENTED_EDGE ( 'NONE', *, *, #27, .T. ) ;
#364 = DIRECTION ( 'NONE',  ( -0.000000000000000000, -0.000000000000000000, -1.000000000000000000 ) ) ;
#365 = ORIENTED_EDGE ( 'NONE', *, *, #163, .F. ) ;
#366 = DATE_AND_TIME ( #362, #373 ) ;
#367 = VERTEX_POINT ( 'NONE', #153 ) ;
#368 = VERTEX_POINT ( 'NONE', #334 ) ;
#369 = ADVANCED_FACE ( 'NONE', ( #17 ), #280, .T. ) ;
#370 = DIRECTION ( 'NONE',  ( 1.000000000000000000, 0.000000000000000000, 0.000000000000000000 ) ) ;
#371 = SHAPE_DEFINITION_REPRESENTATION ( #261, #92 ) ;
#372 = LINE ( 'NONE', #115, #181 ) ;
#373 = LOCAL_TIME ( 11, 13, 10.00000000000000000, #278 ) ;
#374 = PERSON_AND_ORGANIZATION_ROLE ( 'classification_officer' ) ;
#375 = CARTESIAN_POINT ( 'NONE',  ( 4.000000000000000000, 4.898587196589412829E-16, 80.00000000000000000 ) ) ;
#376 = LOCAL_TIME ( 11, 13, 10.00000000000000000, #228 ) ;
#377 = DIRECTION ( 'NONE',  ( 1.224646799147353207E-16, 1.000000000000000000, -0.000000000000000000 ) ) ;
#378 = EDGE_CURVE ( 'NONE', #93, #367, #162, .T. ) ;
#379 = FACE_OUTER_BOUND ( 'NONE', #227, .T. ) ;
#380 = LOCAL_TIME ( 11, 13, 10.00000000000000000, #75 ) ;
#381 = DIRECTION ( 'NONE',  ( 0.000000000000000000, 0.000000000000000000, 1.000000000000000000 ) ) ;
ENDSEC;
END-ISO-10303-21;
