ISO-10303-21;
HEADER;
FILE_DESCRIPTION (( 'STEP AP203' ),
    '1' );
FILE_NAME ('84a7.STEP',
    '2022-07-10T09:13:01',
    ( '' ),
    ( '' ),
    'SwSTEP 2.0',
    'SolidWorks 2019',
    '' );
FILE_SCHEMA (( 'CONFIG_CONTROL_DESIGN' ));
ENDSEC;

DATA;
#1 = ADVANCED_FACE ( 'NONE', ( #54 ), #81, .F. ) ;
#2 = FACE_OUTER_BOUND ( 'NONE', #231, .T. ) ;
#3 = CIRCLE ( 'NONE', #110, 4.500000000000000888 ) ;
#4 =( GEOMETRIC_REPRESENTATION_CONTEXT ( 3 ) GLOBAL_UNCERTAINTY_ASSIGNED_CONTEXT ( ( #336 ) ) GLOBAL_UNIT_ASSIGNED_CONTEXT ( ( #113, #206, #253 ) ) REPRESENTATION_CONTEXT ( 'NONE', 'WORKASPACE' ) );
#5 = FACE_OUTER_BOUND ( 'NONE', #40, .T. ) ;
#6 = LINE ( 'NONE', #220, #174 ) ;
#7 = ORIENTED_EDGE ( 'NONE', *, *, #301, .F. ) ;
#8 = DIRECTION ( 'NONE',  ( 0.000000000000000000, 0.000000000000000000, 1.000000000000000000 ) ) ;
#9 = PRODUCT_RELATED_PRODUCT_CATEGORY ( 'detail', '', ( #283 ) ) ;
#10 = DIRECTION ( 'NONE',  ( -1.000000000000000000, 0.000000000000000000, 0.000000000000000000 ) ) ;
#11 = PERSON_AND_ORGANIZATION ( #371, #285 ) ;
#12 = ORIENTED_EDGE ( 'NONE', *, *, #93, .F. ) ;
#13 = EDGE_CURVE ( 'NONE', #199, #37, #184, .T. ) ;
#14 = DIRECTION ( 'NONE',  ( 0.000000000000000000, 0.000000000000000000, 1.000000000000000000 ) ) ;
#15 = ORIENTED_EDGE ( 'NONE', *, *, #25, .T. ) ;
#16 = DIRECTION ( 'NONE',  ( 0.000000000000000000, 0.000000000000000000, 1.000000000000000000 ) ) ;
#17 = DIRECTION ( 'NONE',  ( -0.000000000000000000, -0.000000000000000000, -1.000000000000000000 ) ) ;
#18 = DIRECTION ( 'NONE',  ( -1.000000000000000000, 0.000000000000000000, 0.000000000000000000 ) ) ;
#19 = ADVANCED_FACE ( 'NONE', ( #286 ), #313, .T. ) ;
#20 = DIRECTION ( 'NONE',  ( 0.000000000000000000, 0.000000000000000000, 1.000000000000000000 ) ) ;
#21 = DIRECTION ( 'NONE',  ( 1.000000000000000000, 0.000000000000000000, 0.000000000000000000 ) ) ;
#22 = DATE_AND_TIME ( #87, #223 ) ;
#23 = CARTESIAN_POINT ( 'NONE',  ( 0.000000000000000000, 0.000000000000000000, 5.500000000000005329 ) ) ;
#24 = CIRCLE ( 'NONE', #252, 7.000000000000000000 ) ;
#25 = EDGE_CURVE ( 'NONE', #250, #96, #368, .T. ) ;
#26 = APPROVAL_ROLE ( '' ) ;
#27 = AXIS2_PLACEMENT_3D ( 'NONE', #354, #160, #10 ) ;
#28 = AXIS2_PLACEMENT_3D ( 'NONE', #277, #107, #145 ) ;
#29 = DIRECTION ( 'NONE',  ( 0.000000000000000000, -1.000000000000000000, 0.000000000000000000 ) ) ;
#30 = DIRECTION ( 'NONE',  ( 1.000000000000000000, 0.000000000000000000, 0.000000000000000000 ) ) ;
#31 = AXIS2_PLACEMENT_3D ( 'NONE', #207, #49, #203 ) ;
#32 = ORIENTED_EDGE ( 'NONE', *, *, #13, .F. ) ;
#33 = TOROIDAL_SURFACE ( 'NONE', #279, 4.500000000000000888, 0.5000000000000000000 ) ;
#34 = DIRECTION ( 'NONE',  ( 1.000000000000000000, 0.000000000000000000, 0.000000000000000000 ) ) ;
#35 = CIRCLE ( 'NONE', #118, 2.100000000000000089 ) ;
#36 = CARTESIAN_POINT ( 'NONE',  ( 0.000000000000000000, 0.000000000000000000, 0.000000000000000000 ) ) ;
#37 = VERTEX_POINT ( 'NONE', #369 ) ;
#38 = PRODUCT_DEFINITION ( 'NEZNÁMÝ', '', #111, #167 ) ;
#39 = CARTESIAN_POINT ( 'NONE',  ( 0.000000000000000000, 0.000000000000000000, 0.000000000000000000 ) ) ;
#40 = EDGE_LOOP ( 'NONE', ( #359, #76, #56, #264 ) ) ;
#41 = DIRECTION ( 'NONE',  ( 1.000000000000000000, 0.000000000000000000, 0.000000000000000000 ) ) ;
#42 = ORIENTED_EDGE ( 'NONE', *, *, #327, .T. ) ;
#43 = APPROVAL_ROLE ( '' ) ;
#44 = CC_DESIGN_APPROVAL ( #172, ( #111 ) ) ;
#45 = EDGE_CURVE ( 'NONE', #141, #332, #126, .T. ) ;
#46 = ORIENTED_EDGE ( 'NONE', *, *, #212, .F. ) ;
#47 = DIRECTION ( 'NONE',  ( 1.000000000000000000, 0.000000000000000000, 0.000000000000000000 ) ) ;
#48 = ORIENTED_EDGE ( 'NONE', *, *, #45, .F. ) ;
#49 = DIRECTION ( 'NONE',  ( 0.000000000000000000, 0.000000000000000000, 1.000000000000000000 ) ) ;
#50 = EDGE_CURVE ( 'NONE', #250, #298, #218, .T. ) ;
#51 = CYLINDRICAL_SURFACE ( 'NONE', #177, 4.000000000000000000 ) ;
#52 = CIRCLE ( 'NONE', #266, 4.500000000000000888 ) ;
#53 = CC_DESIGN_SECURITY_CLASSIFICATION ( #85, ( #111 ) ) ;
#54 = FACE_OUTER_BOUND ( 'NONE', #222, .T. ) ;
#55 = DIRECTION ( 'NONE',  ( -0.000000000000000000, -0.000000000000000000, -1.000000000000000000 ) ) ;
#56 = ORIENTED_EDGE ( 'NONE', *, *, #337, .T. ) ;
#57 = APPROVAL_DATE_TIME ( #347, #135 ) ;
#58 = CYLINDRICAL_SURFACE ( 'NONE', #376, 2.100000000000000089 ) ;
#59 = PERSON_AND_ORGANIZATION ( #371, #285 ) ;
#60 = CARTESIAN_POINT ( 'NONE',  ( -7.000000000000000000, 0.000000000000000000, 5.000000000000000000 ) ) ;
#61 = AXIS2_PLACEMENT_3D ( 'NONE', #365, #233, #18 ) ;
#62 = CALENDAR_DATE ( 2022, 10, 7 ) ;
#63 = AXIS2_PLACEMENT_3D ( 'NONE', #343, #372, #182 ) ;
#64 = APPROVAL ( #202, 'NEURÈENÝ' ) ;
#65 = CC_DESIGN_APPROVAL ( #64, ( #38 ) ) ;
#66 = CARTESIAN_POINT ( 'NONE',  ( 0.000000000000000000, 0.000000000000000000, 5.000000000000000000 ) ) ;
#67 = CARTESIAN_POINT ( 'NONE',  ( 7.000000000000000000, 8.572527594031473190E-16, 5.000000000000000000 ) ) ;
#68 = VERTEX_POINT ( 'NONE', #259 ) ;
#69 = MANIFOLD_SOLID_BREP ( 'Odebrat vysunutím3', #339 ) ;
#70 = PLANE ( 'NONE',  #297 ) ;
#71 = EDGE_CURVE ( 'NONE', #298, #330, #148, .T. ) ;
#72 = CIRCLE ( 'NONE', #119, 7.000000000000000000 ) ;
#73 = FACE_BOUND ( 'NONE', #162, .T. ) ;
#74 = ORIENTED_EDGE ( 'NONE', *, *, #245, .T. ) ;
#75 = CYLINDRICAL_SURFACE ( 'NONE', #27, 7.000000000000000000 ) ;
#76 = ORIENTED_EDGE ( 'NONE', *, *, #13, .T. ) ;
#77 = ORIENTED_EDGE ( 'NONE', *, *, #130, .T. ) ;
#78 = CARTESIAN_POINT ( 'NONE',  ( 0.000000000000000000, 0.000000000000000000, 105.0000000000000142 ) ) ;
#79 = ORIENTED_EDGE ( 'NONE', *, *, #262, .T. ) ;
#80 = ORIENTED_EDGE ( 'NONE', *, *, #152, .F. ) ;
#81 = TOROIDAL_SURFACE ( 'NONE', #315, 4.500000000000000888, 0.5000000000000000000 ) ;
#82 = PERSON_AND_ORGANIZATION_ROLE ( 'design_owner' ) ;
#83 = CC_DESIGN_DATE_AND_TIME_ASSIGNMENT ( #22, #260, ( #85 ) ) ;
#84 = CALENDAR_DATE ( 2022, 10, 7 ) ;
#85 = SECURITY_CLASSIFICATION ( '', '', #122 ) ;
#86 = CARTESIAN_POINT ( 'NONE',  ( 0.000000000000000000, 0.000000000000000000, 105.0000000000000142 ) ) ;
#87 = CALENDAR_DATE ( 2022, 10, 7 ) ;
#88 = DIRECTION ( 'NONE',  ( 0.000000000000000000, 0.000000000000000000, -1.000000000000000000 ) ) ;
#89 = EDGE_CURVE ( 'NONE', #194, #298, #241, .T. ) ;
#90 = CARTESIAN_POINT ( 'NONE',  ( 7.000000000000000000, 8.572527594031473190E-16, 5.000000000000000000 ) ) ;
#91 = CIRCLE ( 'NONE', #296, 4.000000000000000000 ) ;
#92 = AXIS2_PLACEMENT_3D ( 'NONE', #322, #8, #161 ) ;
#93 = EDGE_CURVE ( 'NONE', #68, #250, #149, .T. ) ;
#94 = APPROVAL_DATE_TIME ( #312, #172 ) ;
#95 = FACE_OUTER_BOUND ( 'NONE', #228, .T. ) ;
#96 = VERTEX_POINT ( 'NONE', #351 ) ;
#97 = CARTESIAN_POINT ( 'NONE',  ( 4.000000000000000000, 4.898587196589412829E-16, 5.500000000000005329 ) ) ;
#98 = DIRECTION ( 'NONE',  ( 1.000000000000000000, 0.000000000000000000, 0.000000000000000000 ) ) ;
#99 = ADVANCED_FACE ( 'NONE', ( #95 ), #58, .F. ) ;
#100 = DIRECTION ( 'NONE',  ( 0.000000000000000000, 0.000000000000000000, 1.000000000000000000 ) ) ;
#101 = ORIENTED_EDGE ( 'NONE', *, *, #186, .T. ) ;
#102 = AXIS2_PLACEMENT_3D ( 'NONE', #271, #244, #157 ) ;
#103 = FACE_OUTER_BOUND ( 'NONE', #249, .T. ) ;
#104 = ORIENTED_EDGE ( 'NONE', *, *, #105, .T. ) ;
#105 = EDGE_CURVE ( 'NONE', #141, #112, #121, .T. ) ;
#106 = ORIENTED_EDGE ( 'NONE', *, *, #71, .T. ) ;
#107 = DIRECTION ( 'NONE',  ( 0.000000000000000000, 0.000000000000000000, 1.000000000000000000 ) ) ;
#108 = ORIENTED_EDGE ( 'NONE', *, *, #240, .T. ) ;
#109 = CARTESIAN_POINT ( 'NONE',  ( 2.100000000000000089, 2.571758278209441957E-16, 0.000000000000000000 ) ) ;
#110 = AXIS2_PLACEMENT_3D ( 'NONE', #219, #215, #263 ) ;
#111 = PRODUCT_DEFINITION_FORMATION_WITH_SPECIFIED_SOURCE ( 'LIBOVOLNÝ', '', #283, .NOT_KNOWN. ) ;
#112 = VERTEX_POINT ( 'NONE', #178 ) ;
#113 =( LENGTH_UNIT ( ) NAMED_UNIT ( * ) SI_UNIT ( .MILLI., .METRE. ) );
#114 = ADVANCED_FACE ( 'NONE', ( #208 ), #33, .F. ) ;
#115 = CARTESIAN_POINT ( 'NONE',  ( -4.500000000000000888, 5.510910596163089556E-16, 5.500000000000005329 ) ) ;
#116 = COORDINATED_UNIVERSAL_TIME_OFFSET ( 1, 0, .AHEAD. ) ;
#117 = LINE ( 'NONE', #60, #257 ) ;
#118 = AXIS2_PLACEMENT_3D ( 'NONE', #39, #166, #30 ) ;
#119 = AXIS2_PLACEMENT_3D ( 'NONE', #367, #175, #335 ) ;
#120 = CARTESIAN_POINT ( 'NONE',  ( 4.000000000000000000, 4.898587196589412829E-16, 105.0000000000000142 ) ) ;
#121 = CIRCLE ( 'NONE', #31, 2.100000000000000089 ) ;
#122 = SECURITY_CLASSIFICATION_LEVEL ( 'unclassified' ) ;
#123 = COORDINATED_UNIVERSAL_TIME_OFFSET ( 1, 0, .AHEAD. ) ;
#124 = AXIS2_PLACEMENT_3D ( 'NONE', #132, #265, #299 ) ;
#125 = AXIS2_PLACEMENT_3D ( 'NONE', #200, #14, #47 ) ;
#126 = LINE ( 'NONE', #308, #180 ) ;
#127 = APPLICATION_CONTEXT ( 'configuration controlled 3d designs of mechanical parts and assemblies' ) ;
#128 = DIRECTION ( 'NONE',  ( 1.000000000000000000, 0.000000000000000000, 0.000000000000000000 ) ) ;
#129 = LOCAL_TIME ( 11, 13, 1.000000000000000000, #187 ) ;
#130 = EDGE_CURVE ( 'NONE', #171, #196, #117, .T. ) ;
#131 = CARTESIAN_POINT ( 'NONE',  ( -2.100000000000000089, 0.000000000000000000, 0.000000000000000000 ) ) ;
#132 = CARTESIAN_POINT ( 'NONE',  ( 0.000000000000000000, 0.000000000000000000, 105.0000000000000142 ) ) ;
#133 = ORIENTED_EDGE ( 'NONE', *, *, #262, .F. ) ;
#134 = FACE_OUTER_BOUND ( 'NONE', #235, .T. ) ;
#135 = APPROVAL ( #236, 'NEURÈENÝ' ) ;
#136 = ORIENTED_EDGE ( 'NONE', *, *, #45, .T. ) ;
#137 = AXIS2_PLACEMENT_3D ( 'NONE', #195, #230, #370 ) ;
#138 = DIRECTION ( 'NONE',  ( 0.000000000000000000, 0.000000000000000000, -1.000000000000000000 ) ) ;
#139 = ORIENTED_EDGE ( 'NONE', *, *, #373, .T. ) ;
#140 = DATE_AND_TIME ( #84, #216 ) ;
#141 = VERTEX_POINT ( 'NONE', #292 ) ;
#142 = PRODUCT_DEFINITION_SHAPE ( 'NONE', 'NONE',  #38 ) ;
#143 = EDGE_LOOP ( 'NONE', ( #32, #361, #77, #278 ) ) ;
#144 = ADVANCED_FACE ( 'NONE', ( #73, #2 ), #318, .T. ) ;
#145 = DIRECTION ( 'NONE',  ( 1.000000000000000000, 0.000000000000000000, 0.000000000000000000 ) ) ;
#146 = CIRCLE ( 'NONE', #92, 2.100000000000000089 ) ;
#147 = CARTESIAN_POINT ( 'NONE',  ( 4.500000000000000888, 0.000000000000000000, 5.500000000000005329 ) ) ;
#148 = CIRCLE ( 'NONE', #270, 0.5000000000000004441 ) ;
#149 = LINE ( 'NONE', #120, #319 ) ;
#150 = CYLINDRICAL_SURFACE ( 'NONE', #61, 2.100000000000000089 ) ;
#151 = CARTESIAN_POINT ( 'NONE',  ( -4.000000000000000000, 0.000000000000000000, 105.0000000000000142 ) ) ;
#152 = EDGE_CURVE ( 'NONE', #225, #332, #35, .T. ) ;
#153 = DIRECTION ( 'NONE',  ( 0.000000000000000000, 0.000000000000000000, 1.000000000000000000 ) ) ;
#154 = PERSON_AND_ORGANIZATION ( #371, #285 ) ;
#155 = ORIENTED_EDGE ( 'NONE', *, *, #50, .T. ) ;
#156 = CC_DESIGN_PERSON_AND_ORGANIZATION_ASSIGNMENT ( #290, #287, ( #111 ) ) ;
#157 = DIRECTION ( 'NONE',  ( 1.000000000000000000, 0.000000000000000000, -0.000000000000000000 ) ) ;
#158 = EDGE_CURVE ( 'NONE', #112, #225, #6, .T. ) ;
#159 = ORIENTED_EDGE ( 'NONE', *, *, #93, .T. ) ;
#160 = DIRECTION ( 'NONE',  ( -0.000000000000000000, -0.000000000000000000, -1.000000000000000000 ) ) ;
#161 = DIRECTION ( 'NONE',  ( 1.000000000000000000, 0.000000000000000000, 0.000000000000000000 ) ) ;
#162 = EDGE_LOOP ( 'NONE', ( #133, #269 ) ) ;
#163 = ADVANCED_FACE ( 'NONE', ( #295 ), #75, .T. ) ;
#164 = FACE_BOUND ( 'NONE', #201, .T. ) ;
#165 = EDGE_LOOP ( 'NONE', ( #108, #272 ) ) ;
#166 = DIRECTION ( 'NONE',  ( -0.000000000000000000, -0.000000000000000000, -1.000000000000000000 ) ) ;
#167 = DESIGN_CONTEXT ( 'detailed design', #168, 'design' ) ;
#168 = APPLICATION_CONTEXT ( 'configuration controlled 3d designs of mechanical parts and assemblies' ) ;
#169 = ORIENTED_EDGE ( 'NONE', *, *, #158, .F. ) ;
#170 = PERSON_AND_ORGANIZATION_ROLE ( 'creator' ) ;
#171 = VERTEX_POINT ( 'NONE', #189 ) ;
#172 = APPROVAL ( #239, 'NEURÈENÝ' ) ;
#173 = DIRECTION ( 'NONE',  ( -1.000000000000000000, 0.000000000000000000, 0.000000000000000000 ) ) ;
#174 = VECTOR ( 'NONE', #138, 1000.000000000000000 ) ;
#175 = DIRECTION ( 'NONE',  ( 0.000000000000000000, 0.000000000000000000, 1.000000000000000000 ) ) ;
#176 = APPROVAL_PERSON_ORGANIZATION ( #306, #64, #43 ) ;
#177 = AXIS2_PLACEMENT_3D ( 'NONE', #78, #55, #173 ) ;
#178 = CARTESIAN_POINT ( 'NONE',  ( -2.100000000000000089, 0.000000000000000000, 105.0000000000000142 ) ) ;
#179 = DIRECTION ( 'NONE',  ( 1.000000000000000000, 0.000000000000000000, 0.000000000000000000 ) ) ;
#180 = VECTOR ( 'NONE', #255, 1000.000000000000000 ) ;
#181 = CC_DESIGN_PERSON_AND_ORGANIZATION_ASSIGNMENT ( #198, #170, ( #38 ) ) ;
#182 = DIRECTION ( 'NONE',  ( 1.000000000000000000, 0.000000000000000000, 0.000000000000000000 ) ) ;
#183 = DIRECTION ( 'NONE',  ( 1.224646799147353207E-16, 1.000000000000000000, -0.000000000000000000 ) ) ;
#184 = LINE ( 'NONE', #90, #288 ) ;
#185 = DATE_TIME_ROLE ( 'creation_date' ) ;
#186 = EDGE_CURVE ( 'NONE', #298, #250, #205, .T. ) ;
#187 = COORDINATED_UNIVERSAL_TIME_OFFSET ( 1, 0, .AHEAD. ) ;
#188 = DIRECTION ( 'NONE',  ( -0.000000000000000000, -0.000000000000000000, -1.000000000000000000 ) ) ;
#189 = CARTESIAN_POINT ( 'NONE',  ( -7.000000000000000000, 0.000000000000000000, 5.000000000000000000 ) ) ;
#190 = CARTESIAN_POINT ( 'NONE',  ( -4.000000000000000000, 0.000000000000000000, 5.500000000000005329 ) ) ;
#191 = LOCAL_TIME ( 11, 13, 1.000000000000000000, #317 ) ;
#192 = EDGE_LOOP ( 'NONE', ( #294, #159, #155, #303 ) ) ;
#193 = CARTESIAN_POINT ( 'NONE',  ( 0.000000000000000000, 0.000000000000000000, 5.500000000000005329 ) ) ;
#194 = VERTEX_POINT ( 'NONE', #328 ) ;
#195 = CARTESIAN_POINT ( 'NONE',  ( 0.000000000000000000, 0.000000000000000000, 0.000000000000000000 ) ) ;
#196 = VERTEX_POINT ( 'NONE', #273 ) ;
#197 = AXIS2_PLACEMENT_3D ( 'NONE', #193, #242, #34 ) ;
#198 = PERSON_AND_ORGANIZATION ( #371, #285 ) ;
#199 = VERTEX_POINT ( 'NONE', #67 ) ;
#200 = CARTESIAN_POINT ( 'NONE',  ( 0.000000000000000000, 0.000000000000000000, 0.000000000000000000 ) ) ;
#201 = EDGE_LOOP ( 'NONE', ( #80, #334 ) ) ;
#202 = APPROVAL_STATUS ( 'not_yet_approved' ) ;
#203 = DIRECTION ( 'NONE',  ( 1.000000000000000000, 0.000000000000000000, 0.000000000000000000 ) ) ;
#204 = ADVANCED_FACE ( 'NONE', ( #164, #103 ), #355, .F. ) ;
#205 = CIRCLE ( 'NONE', #197, 4.000000000000000000 ) ;
#206 =( NAMED_UNIT ( * ) PLANE_ANGLE_UNIT ( ) SI_UNIT ( $, .RADIAN. ) );
#207 = CARTESIAN_POINT ( 'NONE',  ( 0.000000000000000000, 0.000000000000000000, 105.0000000000000142 ) ) ;
#208 = FACE_OUTER_BOUND ( 'NONE', #226, .T. ) ;
#209 = DATE_AND_TIME ( #62, #234 ) ;
#210 = DIRECTION ( 'NONE',  ( 1.000000000000000000, 0.000000000000000000, 0.000000000000000000 ) ) ;
#211 = AXIS2_PLACEMENT_3D ( 'NONE', #66, #217, #302 ) ;
#212 = EDGE_CURVE ( 'NONE', #330, #96, #3, .T. ) ;
#213 = PERSON_AND_ORGANIZATION ( #371, #285 ) ;
#214 = ADVANCED_FACE ( 'NONE', ( #5 ), #248, .T. ) ;
#215 = DIRECTION ( 'NONE',  ( -0.000000000000000000, -0.000000000000000000, -1.000000000000000000 ) ) ;
#216 = LOCAL_TIME ( 11, 13, 1.000000000000000000, #116 ) ;
#217 = DIRECTION ( 'NONE',  ( -0.000000000000000000, -0.000000000000000000, -1.000000000000000000 ) ) ;
#218 = CIRCLE ( 'NONE', #63, 4.000000000000000000 ) ;
#219 = CARTESIAN_POINT ( 'NONE',  ( 0.000000000000000000, 0.000000000000000000, 5.000000000000000000 ) ) ;
#220 = CARTESIAN_POINT ( 'NONE',  ( -2.100000000000000089, 0.000000000000000000, 105.0000000000000142 ) ) ;
#221 = CC_DESIGN_PERSON_AND_ORGANIZATION_ASSIGNMENT ( #213, #350, ( #111 ) ) ;
#222 = EDGE_LOOP ( 'NONE', ( #366, #106, #300, #340 ) ) ;
#223 = LOCAL_TIME ( 11, 13, 1.000000000000000000, #314 ) ;
#224 = DIRECTION ( 'NONE',  ( 0.000000000000000000, 0.000000000000000000, 1.000000000000000000 ) ) ;
#225 = VERTEX_POINT ( 'NONE', #131 ) ;
#226 = EDGE_LOOP ( 'NONE', ( #363, #276, #15, #46 ) ) ;
#227 = FACE_OUTER_BOUND ( 'NONE', #192, .T. ) ;
#228 = EDGE_LOOP ( 'NONE', ( #79, #136, #42, #169 ) ) ;
#229 = AXIS2_PLACEMENT_3D ( 'NONE', #323, #224, #21 ) ;
#230 = DIRECTION ( 'NONE',  ( -0.000000000000000000, -0.000000000000000000, -1.000000000000000000 ) ) ;
#231 = EDGE_LOOP ( 'NONE', ( #74, #304 ) ) ;
#232 = DIRECTION ( 'NONE',  ( -1.000000000000000000, 0.000000000000000000, 0.000000000000000000 ) ) ;
#233 = DIRECTION ( 'NONE',  ( 0.000000000000000000, 0.000000000000000000, -1.000000000000000000 ) ) ;
#234 = LOCAL_TIME ( 11, 13, 1.000000000000000000, #123 ) ;
#235 = EDGE_LOOP ( 'NONE', ( #139, #251 ) ) ;
#236 = APPROVAL_STATUS ( 'not_yet_approved' ) ;
#237 = CC_DESIGN_PERSON_AND_ORGANIZATION_ASSIGNMENT ( #11, #82, ( #283 ) ) ;
#238 = CALENDAR_DATE ( 2022, 10, 7 ) ;
#239 = APPROVAL_STATUS ( 'not_yet_approved' ) ;
#240 = EDGE_CURVE ( 'NONE', #96, #330, #52, .T. ) ;
#241 = LINE ( 'NONE', #151, #381 ) ;
#242 = DIRECTION ( 'NONE',  ( 0.000000000000000000, 0.000000000000000000, 1.000000000000000000 ) ) ;
#243 = CARTESIAN_POINT ( 'NONE',  ( 0.000000000000000000, 0.000000000000000000, 105.0000000000000142 ) ) ;
#244 = DIRECTION ( 'NONE',  ( 0.000000000000000000, 0.000000000000000000, 1.000000000000000000 ) ) ;
#245 = EDGE_CURVE ( 'NONE', #194, #68, #91, .T. ) ;
#246 = ORIENTED_EDGE ( 'NONE', *, *, #89, .T. ) ;
#247 = CARTESIAN_POINT ( 'NONE',  ( 0.000000000000000000, 0.000000000000000000, 5.000000000000000000 ) ) ;
#248 = CYLINDRICAL_SURFACE ( 'NONE', #211, 7.000000000000000000 ) ;
#249 = EDGE_LOOP ( 'NONE', ( #7, #305 ) ) ;
#250 = VERTEX_POINT ( 'NONE', #97 ) ;
#251 = ORIENTED_EDGE ( 'NONE', *, *, #321, .T. ) ;
#252 = AXIS2_PLACEMENT_3D ( 'NONE', #333, #16, #179 ) ;
#253 =( NAMED_UNIT ( * ) SI_UNIT ( $, .STERADIAN. ) SOLID_ANGLE_UNIT ( ) );
#254 = DIRECTION ( 'NONE',  ( 0.000000000000000000, 0.000000000000000000, -1.000000000000000000 ) ) ;
#255 = DIRECTION ( 'NONE',  ( 0.000000000000000000, 0.000000000000000000, -1.000000000000000000 ) ) ;
#256 = CARTESIAN_POINT ( 'NONE',  ( 0.000000000000000000, 0.000000000000000000, 105.0000000000000142 ) ) ;
#257 = VECTOR ( 'NONE', #188, 1000.000000000000000 ) ;
#258 = APPROVAL_PERSON_ORGANIZATION ( #348, #135, #377 ) ;
#259 = CARTESIAN_POINT ( 'NONE',  ( 4.000000000000000000, 4.898587196589412829E-16, 105.0000000000000142 ) ) ;
#260 = DATE_TIME_ROLE ( 'classification_date' ) ;
#261 = APPROVAL_PERSON_ORGANIZATION ( #59, #172, #26 ) ;
#262 = EDGE_CURVE ( 'NONE', #112, #141, #146, .T. ) ;
#263 = DIRECTION ( 'NONE',  ( 1.000000000000000000, 0.000000000000000000, 0.000000000000000000 ) ) ;
#264 = ORIENTED_EDGE ( 'NONE', *, *, #130, .F. ) ;
#265 = DIRECTION ( 'NONE',  ( 0.000000000000000000, 0.000000000000000000, 1.000000000000000000 ) ) ;
#266 = AXIS2_PLACEMENT_3D ( 'NONE', #247, #360, #128 ) ;
#267 = CIRCLE ( 'NONE', #28, 4.000000000000000000 ) ;
#268 = DIRECTION ( 'NONE',  ( 0.000000000000000000, 0.000000000000000000, 1.000000000000000000 ) ) ;
#269 = ORIENTED_EDGE ( 'NONE', *, *, #105, .F. ) ;
#270 = AXIS2_PLACEMENT_3D ( 'NONE', #115, #183, #311 ) ;
#271 = CARTESIAN_POINT ( 'NONE',  ( 0.000000000000000000, 0.000000000000000000, 0.000000000000000000 ) ) ;
#272 = ORIENTED_EDGE ( 'NONE', *, *, #212, .T. ) ;
#273 = CARTESIAN_POINT ( 'NONE',  ( -7.000000000000000000, 0.000000000000000000, 0.000000000000000000 ) ) ;
#274 = EDGE_LOOP ( 'NONE', ( #12, #352, #246, #101 ) ) ;
#275 = FACE_OUTER_BOUND ( 'NONE', #357, .T. ) ;
#276 = ORIENTED_EDGE ( 'NONE', *, *, #50, .F. ) ;
#277 = CARTESIAN_POINT ( 'NONE',  ( 0.000000000000000000, 0.000000000000000000, 105.0000000000000142 ) ) ;
#278 = ORIENTED_EDGE ( 'NONE', *, *, #301, .T. ) ;
#279 = AXIS2_PLACEMENT_3D ( 'NONE', #282, #20, #374 ) ;
#280 = CC_DESIGN_DATE_AND_TIME_ASSIGNMENT ( #209, #185, ( #38 ) ) ;
#281 = MECHANICAL_CONTEXT ( 'NONE', #127, 'mechanical' ) ;
#282 = CARTESIAN_POINT ( 'NONE',  ( 0.000000000000000000, 0.000000000000000000, 5.500000000000005329 ) ) ;
#283 = PRODUCT ( '84a7', '84a7', '', ( #281 ) ) ;
#284 = DIRECTION ( 'NONE',  ( -0.000000000000000000, -0.000000000000000000, -1.000000000000000000 ) ) ;
#285 = ORGANIZATION ( 'NEURÈENÝ', 'NEURÈENÝ', '' ) ;
#286 = FACE_OUTER_BOUND ( 'NONE', #274, .T. ) ;
#287 = PERSON_AND_ORGANIZATION_ROLE ( 'design_supplier' ) ;
#288 = VECTOR ( 'NONE', #17, 1000.000000000000000 ) ;
#289 = ADVANCED_FACE ( 'NONE', ( #353, #134 ), #70, .T. ) ;
#290 = PERSON_AND_ORGANIZATION ( #371, #285 ) ;
#291 = CC_DESIGN_APPROVAL ( #135, ( #85 ) ) ;
#292 = CARTESIAN_POINT ( 'NONE',  ( 2.100000000000000089, 2.571758278209441957E-16, 105.0000000000000142 ) ) ;
#293 = DIRECTION ( 'NONE',  ( 0.000000000000000000, 0.000000000000000000, 1.000000000000000000 ) ) ;
#294 = ORIENTED_EDGE ( 'NONE', *, *, #378, .F. ) ;
#295 = FACE_OUTER_BOUND ( 'NONE', #143, .T. ) ;
#296 = AXIS2_PLACEMENT_3D ( 'NONE', #243, #293, #98 ) ;
#297 = AXIS2_PLACEMENT_3D ( 'NONE', #320, #100, #358 ) ;
#298 = VERTEX_POINT ( 'NONE', #190 ) ;
#299 = DIRECTION ( 'NONE',  ( 1.000000000000000000, 0.000000000000000000, -0.000000000000000000 ) ) ;
#300 = ORIENTED_EDGE ( 'NONE', *, *, #240, .F. ) ;
#301 = EDGE_CURVE ( 'NONE', #196, #37, #309, .T. ) ;
#302 = DIRECTION ( 'NONE',  ( -1.000000000000000000, 0.000000000000000000, 0.000000000000000000 ) ) ;
#303 = ORIENTED_EDGE ( 'NONE', *, *, #89, .F. ) ;
#304 = ORIENTED_EDGE ( 'NONE', *, *, #378, .T. ) ;
#305 = ORIENTED_EDGE ( 'NONE', *, *, #337, .F. ) ;
#306 = PERSON_AND_ORGANIZATION ( #371, #285 ) ;
#307 = DIRECTION ( 'NONE',  ( -1.000000000000000000, 0.000000000000000000, 0.000000000000000000 ) ) ;
#308 = CARTESIAN_POINT ( 'NONE',  ( 2.100000000000000089, 2.571758278209441957E-16, 105.0000000000000142 ) ) ;
#309 = CIRCLE ( 'NONE', #324, 7.000000000000000000 ) ;
#310 = APPROVAL_DATE_TIME ( #140, #64 ) ;
#311 = DIRECTION ( 'NONE',  ( -1.000000000000000000, 1.224646799147351482E-16, 0.000000000000000000 ) ) ;
#312 = DATE_AND_TIME ( #238, #129 ) ;
#313 = CYLINDRICAL_SURFACE ( 'NONE', #329, 4.000000000000000000 ) ;
#314 = COORDINATED_UNIVERSAL_TIME_OFFSET ( 1, 0, .AHEAD. ) ;
#315 = AXIS2_PLACEMENT_3D ( 'NONE', #23, #153, #210 ) ;
#316 = SHAPE_DEFINITION_REPRESENTATION ( #142, #338 ) ;
#317 = COORDINATED_UNIVERSAL_TIME_OFFSET ( 1, 0, .AHEAD. ) ;
#318 = PLANE ( 'NONE',  #124 ) ;
#319 = VECTOR ( 'NONE', #346, 1000.000000000000000 ) ;
#320 = CARTESIAN_POINT ( 'NONE',  ( 0.000000000000000000, 0.000000000000000000, 5.000000000000000000 ) ) ;
#321 = EDGE_CURVE ( 'NONE', #199, #171, #379, .T. ) ;
#322 = CARTESIAN_POINT ( 'NONE',  ( 0.000000000000000000, 0.000000000000000000, 105.0000000000000142 ) ) ;
#323 = CARTESIAN_POINT ( 'NONE',  ( 0.000000000000000000, 0.000000000000000000, 5.000000000000000000 ) ) ;
#324 = AXIS2_PLACEMENT_3D ( 'NONE', #36, #268, #41 ) ;
#325 = CIRCLE ( 'NONE', #137, 2.100000000000000089 ) ;
#326 = ORIENTED_EDGE ( 'NONE', *, *, #152, .T. ) ;
#327 = EDGE_CURVE ( 'NONE', #332, #225, #325, .T. ) ;
#328 = CARTESIAN_POINT ( 'NONE',  ( -4.000000000000000000, 0.000000000000000000, 105.0000000000000142 ) ) ;
#329 = AXIS2_PLACEMENT_3D ( 'NONE', #86, #284, #232 ) ;
#330 = VERTEX_POINT ( 'NONE', #362 ) ;
#331 = APPLICATION_PROTOCOL_DEFINITION ( 'international standard', 'config_control_design', 1994, #168 ) ;
#332 = VERTEX_POINT ( 'NONE', #109 ) ;
#333 = CARTESIAN_POINT ( 'NONE',  ( 0.000000000000000000, 0.000000000000000000, 0.000000000000000000 ) ) ;
#334 = ORIENTED_EDGE ( 'NONE', *, *, #327, .F. ) ;
#335 = DIRECTION ( 'NONE',  ( 1.000000000000000000, 0.000000000000000000, 0.000000000000000000 ) ) ;
#336 = UNCERTAINTY_MEASURE_WITH_UNIT (LENGTH_MEASURE( 1.000000000000000082E-05 ), #113, 'distance_accuracy_value', 'NONE');
#337 = EDGE_CURVE ( 'NONE', #37, #196, #24, .T. ) ;
#338 = ADVANCED_BREP_SHAPE_REPRESENTATION ( '84a7', ( #69, #125 ), #4 ) ;
#339 = CLOSED_SHELL ( 'NONE', ( #99, #1, #364, #214, #163, #289, #204, #19, #144, #114, #356 ) ) ;
#340 = ORIENTED_EDGE ( 'NONE', *, *, #25, .F. ) ;
#341 = AXIS2_PLACEMENT_3D ( 'NONE', #147, #29, #254 ) ;
#342 = APPLICATION_PROTOCOL_DEFINITION ( 'international standard', 'config_control_design', 1994, #127 ) ;
#343 = CARTESIAN_POINT ( 'NONE',  ( 0.000000000000000000, 0.000000000000000000, 5.500000000000005329 ) ) ;
#344 = CC_DESIGN_PERSON_AND_ORGANIZATION_ASSIGNMENT ( #154, #380, ( #85 ) ) ;
#345 = CALENDAR_DATE ( 2022, 10, 7 ) ;
#346 = DIRECTION ( 'NONE',  ( -0.000000000000000000, -0.000000000000000000, -1.000000000000000000 ) ) ;
#347 = DATE_AND_TIME ( #345, #191 ) ;
#348 = PERSON_AND_ORGANIZATION ( #371, #285 ) ;
#349 = ORIENTED_EDGE ( 'NONE', *, *, #158, .T. ) ;
#350 = PERSON_AND_ORGANIZATION_ROLE ( 'creator' ) ;
#351 = CARTESIAN_POINT ( 'NONE',  ( 4.500000000000000888, 0.000000000000000000, 5.000000000000002665 ) ) ;
#352 = ORIENTED_EDGE ( 'NONE', *, *, #245, .F. ) ;
#353 = FACE_BOUND ( 'NONE', #165, .T. ) ;
#354 = CARTESIAN_POINT ( 'NONE',  ( 0.000000000000000000, 0.000000000000000000, 5.000000000000000000 ) ) ;
#355 = PLANE ( 'NONE',  #102 ) ;
#356 = ADVANCED_FACE ( 'NONE', ( #275 ), #150, .F. ) ;
#357 = EDGE_LOOP ( 'NONE', ( #48, #104, #349, #326 ) ) ;
#358 = DIRECTION ( 'NONE',  ( 1.000000000000000000, 0.000000000000000000, -0.000000000000000000 ) ) ;
#359 = ORIENTED_EDGE ( 'NONE', *, *, #321, .F. ) ;
#360 = DIRECTION ( 'NONE',  ( -0.000000000000000000, -0.000000000000000000, -1.000000000000000000 ) ) ;
#361 = ORIENTED_EDGE ( 'NONE', *, *, #373, .F. ) ;
#362 = CARTESIAN_POINT ( 'NONE',  ( -4.500000000000000888, 5.510910596163088569E-16, 5.000000000000002665 ) ) ;
#363 = ORIENTED_EDGE ( 'NONE', *, *, #71, .F. ) ;
#364 = ADVANCED_FACE ( 'NONE', ( #227 ), #51, .T. ) ;
#365 = CARTESIAN_POINT ( 'NONE',  ( 0.000000000000000000, 0.000000000000000000, 105.0000000000000142 ) ) ;
#366 = ORIENTED_EDGE ( 'NONE', *, *, #186, .F. ) ;
#367 = CARTESIAN_POINT ( 'NONE',  ( 0.000000000000000000, 0.000000000000000000, 5.000000000000000000 ) ) ;
#368 = CIRCLE ( 'NONE', #341, 0.5000000000000004441 ) ;
#369 = CARTESIAN_POINT ( 'NONE',  ( 7.000000000000000000, 8.572527594031473190E-16, 0.000000000000000000 ) ) ;
#370 = DIRECTION ( 'NONE',  ( 1.000000000000000000, 0.000000000000000000, 0.000000000000000000 ) ) ;
#371 = PERSON ( 'NEURÈENÝ', 'NEURÈENÝ', 'NEURÈENÝ', ('NEURÈENÝ'), ('NEURÈENÝ'), ('NEURÈENÝ') ) ;
#372 = DIRECTION ( 'NONE',  ( 0.000000000000000000, 0.000000000000000000, 1.000000000000000000 ) ) ;
#373 = EDGE_CURVE ( 'NONE', #171, #199, #72, .T. ) ;
#374 = DIRECTION ( 'NONE',  ( 1.000000000000000000, 0.000000000000000000, 0.000000000000000000 ) ) ;
#375 = DIRECTION ( 'NONE',  ( -0.000000000000000000, -0.000000000000000000, -1.000000000000000000 ) ) ;
#376 = AXIS2_PLACEMENT_3D ( 'NONE', #256, #88, #307 ) ;
#377 = APPROVAL_ROLE ( '' ) ;
#378 = EDGE_CURVE ( 'NONE', #68, #194, #267, .T. ) ;
#379 = CIRCLE ( 'NONE', #229, 7.000000000000000000 ) ;
#380 = PERSON_AND_ORGANIZATION_ROLE ( 'classification_officer' ) ;
#381 = VECTOR ( 'NONE', #375, 1000.000000000000000 ) ;
ENDSEC;
END-ISO-10303-21;
