ISO-10303-21;
HEADER;
FILE_DESCRIPTION (( 'STEP AP203' ),
    '1' );
FILE_NAME ('9833.STEP',
    '2022-07-10T09:17:04',
    ( '' ),
    ( '' ),
    'SwSTEP 2.0',
    'SolidWorks 2019',
    '' );
FILE_SCHEMA (( 'CONFIG_CONTROL_DESIGN' ));
ENDSEC;

DATA;
#1 = CARTESIAN_POINT ( 'NONE',  ( 0.000000000000000000, 0.000000000000000000, 178.0000000000000000 ) ) ;
#2 = EDGE_CURVE ( 'NONE', #193, #210, #76, .T. ) ;
#3 = ORIENTED_EDGE ( 'NONE', *, *, #295, .F. ) ;
#4 = AXIS2_PLACEMENT_3D ( 'NONE', #284, #21, #195 ) ;
#5 = MECHANICAL_CONTEXT ( 'NONE', #194, 'mechanical' ) ;
#6 = ORIENTED_EDGE ( 'NONE', *, *, #80, .F. ) ;
#7 = DIRECTION ( 'NONE',  ( 1.000000000000000000, 0.000000000000000000, 0.000000000000000000 ) ) ;
#8 = EDGE_LOOP ( 'NONE', ( #316, #331, #286, #381 ) ) ;
#9 = COORDINATED_UNIVERSAL_TIME_OFFSET ( 1, 0, .AHEAD. ) ;
#10 = TOROIDAL_SURFACE ( 'NONE', #347, 2.799999999999999822, 0.2999999999999999889 ) ;
#11 = CC_DESIGN_APPROVAL ( #155, ( #158 ) ) ;
#12 = ADVANCED_FACE ( 'NONE', ( #15 ), #102, .T. ) ;
#13 = VECTOR ( 'NONE', #106, 1000.000000000000000 ) ;
#14 = APPROVAL_ROLE ( '' ) ;
#15 = FACE_OUTER_BOUND ( 'NONE', #208, .T. ) ;
#16 = CARTESIAN_POINT ( 'NONE',  ( -5.000000000000000000, 0.000000000000000000, 3.000000000000000000 ) ) ;
#17 = CIRCLE ( 'NONE', #42, 2.500000000000000000 ) ;
#18 = APPROVAL ( #140, 'NEURÈENÝ' ) ;
#19 = PERSON_AND_ORGANIZATION ( #362, #226 ) ;
#20 = CARTESIAN_POINT ( 'NONE',  ( 0.000000000000000000, 0.000000000000000000, 3.299999999999997158 ) ) ;
#21 = DIRECTION ( 'NONE',  ( 0.000000000000000000, 0.000000000000000000, 1.000000000000000000 ) ) ;
#22 = DIRECTION ( 'NONE',  ( -1.000000000000000000, 0.000000000000000000, 0.000000000000000000 ) ) ;
#23 = AXIS2_PLACEMENT_3D ( 'NONE', #93, #120, #322 ) ;
#24 = CARTESIAN_POINT ( 'NONE',  ( 0.000000000000000000, 0.000000000000000000, 178.0000000000000000 ) ) ;
#25 = DIRECTION ( 'NONE',  ( -1.000000000000000000, 0.000000000000000000, 0.000000000000000000 ) ) ;
#26 = DIRECTION ( 'NONE',  ( 1.000000000000000000, 0.000000000000000000, 0.000000000000000000 ) ) ;
#27 = ORIENTED_EDGE ( 'NONE', *, *, #217, .F. ) ;
#28 = AXIS2_PLACEMENT_3D ( 'NONE', #24, #260, #25 ) ;
#29 = EDGE_CURVE ( 'NONE', #233, #41, #178, .T. ) ;
#30 = FACE_OUTER_BOUND ( 'NONE', #115, .T. ) ;
#31 = ORIENTED_EDGE ( 'NONE', *, *, #191, .F. ) ;
#32 = APPLICATION_CONTEXT ( 'configuration controlled 3d designs of mechanical parts and assemblies' ) ;
#33 = CARTESIAN_POINT ( 'NONE',  ( 0.000000000000000000, 0.000000000000000000, 0.000000000000000000 ) ) ;
#34 = ORIENTED_EDGE ( 'NONE', *, *, #51, .F. ) ;
#35 = AXIS2_PLACEMENT_3D ( 'NONE', #173, #318, #22 ) ;
#36 = APPROVAL_DATE_TIME ( #174, #155 ) ;
#37 = ORIENTED_EDGE ( 'NONE', *, *, #29, .F. ) ;
#38 = CARTESIAN_POINT ( 'NONE',  ( 0.000000000000000000, 0.000000000000000000, 3.299999999999997158 ) ) ;
#39 = ORIENTED_EDGE ( 'NONE', *, *, #283, .T. ) ;
#40 = CIRCLE ( 'NONE', #301, 0.2999999999999999334 ) ;
#41 = VERTEX_POINT ( 'NONE', #48 ) ;
#42 = AXIS2_PLACEMENT_3D ( 'NONE', #375, #114, #26 ) ;
#43 = PERSON_AND_ORGANIZATION ( #362, #226 ) ;
#44 = ORIENTED_EDGE ( 'NONE', *, *, #51, .T. ) ;
#45 = CARTESIAN_POINT ( 'NONE',  ( 2.799999999999999822, 0.000000000000000000, 3.299999999999997158 ) ) ;
#46 = VECTOR ( 'NONE', #287, 1000.000000000000000 ) ;
#47 = AXIS2_PLACEMENT_3D ( 'NONE', #209, #118, #67 ) ;
#48 = CARTESIAN_POINT ( 'NONE',  ( -5.000000000000000000, 0.000000000000000000, 0.000000000000000000 ) ) ;
#49 = DIRECTION ( 'NONE',  ( 0.000000000000000000, 0.000000000000000000, 1.000000000000000000 ) ) ;
#50 = MANIFOLD_SOLID_BREP ( 'Odebrat vysunutím3', #364 ) ;
#51 = EDGE_CURVE ( 'NONE', #296, #187, #276, .T. ) ;
#52 = CYLINDRICAL_SURFACE ( 'NONE', #225, 1.500000000000000222 ) ;
#53 = DIRECTION ( 'NONE',  ( -0.000000000000000000, -0.000000000000000000, -1.000000000000000000 ) ) ;
#54 = FACE_BOUND ( 'NONE', #92, .T. ) ;
#55 = AXIS2_PLACEMENT_3D ( 'NONE', #141, #334, #277 ) ;
#56 = ADVANCED_FACE ( 'NONE', ( #368, #134 ), #162, .T. ) ;
#57 = DIRECTION ( 'NONE',  ( 0.000000000000000000, 0.000000000000000000, 1.000000000000000000 ) ) ;
#58 = AXIS2_PLACEMENT_3D ( 'NONE', #348, #380, #289 ) ;
#59 = SECURITY_CLASSIFICATION ( '', '', #337 ) ;
#60 = PLANE ( 'NONE',  #23 ) ;
#61 = ORIENTED_EDGE ( 'NONE', *, *, #98, .F. ) ;
#62 = DIRECTION ( 'NONE',  ( 1.000000000000000000, 0.000000000000000000, 0.000000000000000000 ) ) ;
#63 = VERTEX_POINT ( 'NONE', #218 ) ;
#64 = AXIS2_PLACEMENT_3D ( 'NONE', #222, #280, #72 ) ;
#65 = APPROVAL_ROLE ( '' ) ;
#66 = EDGE_LOOP ( 'NONE', ( #357, #374 ) ) ;
#67 = DIRECTION ( 'NONE',  ( -1.000000000000000000, 0.000000000000000000, 0.000000000000000000 ) ) ;
#68 = ORIENTED_EDGE ( 'NONE', *, *, #2, .T. ) ;
#69 = ADVANCED_FACE ( 'NONE', ( #214 ), #163, .F. ) ;
#70 = PERSON_AND_ORGANIZATION ( #362, #226 ) ;
#71 = DIRECTION ( 'NONE',  ( -0.000000000000000000, -0.000000000000000000, -1.000000000000000000 ) ) ;
#72 = DIRECTION ( 'NONE',  ( 1.000000000000000000, 0.000000000000000000, 0.000000000000000000 ) ) ;
#73 = APPROVAL_STATUS ( 'not_yet_approved' ) ;
#74 = ORIENTED_EDGE ( 'NONE', *, *, #300, .T. ) ;
#75 = APPROVAL_DATE_TIME ( #252, #271 ) ;
#76 = LINE ( 'NONE', #190, #13 ) ;
#77 = FACE_OUTER_BOUND ( 'NONE', #8, .T. ) ;
#78 = APPROVAL_PERSON_ORGANIZATION ( #239, #155, #65 ) ;
#79 = CARTESIAN_POINT ( 'NONE',  ( -2.799999999999999822, 3.429011037612589276E-16, 2.999999999999998668 ) ) ;
#80 = EDGE_CURVE ( 'NONE', #210, #296, #40, .T. ) ;
#81 = CARTESIAN_POINT ( 'NONE',  ( -2.799999999999999822, 3.429011037612588783E-16, 3.299999999999997158 ) ) ;
#82 = LINE ( 'NONE', #112, #336 ) ;
#83 = CARTESIAN_POINT ( 'NONE',  ( -1.500000000000000222, 0.000000000000000000, 178.0000000000000000 ) ) ;
#84 = ADVANCED_FACE ( 'NONE', ( #338 ), #167, .T. ) ;
#85 = ORIENTED_EDGE ( 'NONE', *, *, #300, .F. ) ;
#86 = APPLICATION_PROTOCOL_DEFINITION ( 'international standard', 'config_control_design', 1994, #194 ) ;
#87 = ORIENTED_EDGE ( 'NONE', *, *, #142, .T. ) ;
#88 = CIRCLE ( 'NONE', #146, 5.000000000000000000 ) ;
#89 = DIRECTION ( 'NONE',  ( -0.000000000000000000, -0.000000000000000000, -1.000000000000000000 ) ) ;
#90 = VERTEX_POINT ( 'NONE', #16 ) ;
#91 = FACE_BOUND ( 'NONE', #66, .T. ) ;
#92 = EDGE_LOOP ( 'NONE', ( #85, #205 ) ) ;
#93 = CARTESIAN_POINT ( 'NONE',  ( 0.000000000000000000, 0.000000000000000000, 178.0000000000000000 ) ) ;
#94 = AXIS2_PLACEMENT_3D ( 'NONE', #313, #57, #281 ) ;
#95 = CC_DESIGN_APPROVAL ( #18, ( #342 ) ) ;
#96 =( LENGTH_UNIT ( ) NAMED_UNIT ( * ) SI_UNIT ( .MILLI., .METRE. ) );
#97 = ORIENTED_EDGE ( 'NONE', *, *, #249, .F. ) ;
#98 = EDGE_CURVE ( 'NONE', #210, #63, #246, .T. ) ;
#99 = COORDINATED_UNIVERSAL_TIME_OFFSET ( 1, 0, .AHEAD. ) ;
#100 = DIRECTION ( 'NONE',  ( -0.000000000000000000, -0.000000000000000000, -1.000000000000000000 ) ) ;
#101 = APPROVAL_ROLE ( '' ) ;
#102 = CYLINDRICAL_SURFACE ( 'NONE', #229, 5.000000000000000000 ) ;
#103 = PERSON_AND_ORGANIZATION_ROLE ( 'creator' ) ;
#104 = VERTEX_POINT ( 'NONE', #304 ) ;
#105 = CALENDAR_DATE ( 2022, 10, 7 ) ;
#106 = DIRECTION ( 'NONE',  ( -0.000000000000000000, -0.000000000000000000, -1.000000000000000000 ) ) ;
#107 = CARTESIAN_POINT ( 'NONE',  ( 2.500000000000000000, 3.061616997868383141E-16, 178.0000000000000000 ) ) ;
#108 = CC_DESIGN_SECURITY_CLASSIFICATION ( #59, ( #342 ) ) ;
#109 = EDGE_CURVE ( 'NONE', #263, #184, #282, .T. ) ;
#110 = CARTESIAN_POINT ( 'NONE',  ( 0.000000000000000000, 0.000000000000000000, 3.000000000000000000 ) ) ;
#111 = AXIS2_PLACEMENT_3D ( 'NONE', #165, #308, #189 ) ;
#112 = CARTESIAN_POINT ( 'NONE',  ( 1.500000000000000222, 1.836970198721030181E-16, 178.0000000000000000 ) ) ;
#113 = CC_DESIGN_DATE_AND_TIME_ASSIGNMENT ( #164, #221, ( #59 ) ) ;
#114 = DIRECTION ( 'NONE',  ( 0.000000000000000000, 0.000000000000000000, 1.000000000000000000 ) ) ;
#115 = EDGE_LOOP ( 'NONE', ( #302, #3, #157, #197 ) ) ;
#116 = AXIS2_PLACEMENT_3D ( 'NONE', #1, #127, #240 ) ;
#117 = CARTESIAN_POINT ( 'NONE',  ( 1.500000000000000222, 1.836970198721030181E-16, 0.000000000000000000 ) ) ;
#118 = DIRECTION ( 'NONE',  ( -0.000000000000000000, -0.000000000000000000, -1.000000000000000000 ) ) ;
#119 = ORIENTED_EDGE ( 'NONE', *, *, #80, .T. ) ;
#120 = DIRECTION ( 'NONE',  ( 0.000000000000000000, 0.000000000000000000, 1.000000000000000000 ) ) ;
#121 = EDGE_LOOP ( 'NONE', ( #241, #175, #126, #74 ) ) ;
#122 = AXIS2_PLACEMENT_3D ( 'NONE', #149, #49, #145 ) ;
#123 = EDGE_CURVE ( 'NONE', #90, #41, #340, .T. ) ;
#124 = CIRCLE ( 'NONE', #122, 5.000000000000000000 ) ;
#125 = PERSON_AND_ORGANIZATION ( #362, #226 ) ;
#126 = ORIENTED_EDGE ( 'NONE', *, *, #216, .T. ) ;
#127 = DIRECTION ( 'NONE',  ( 0.000000000000000000, 0.000000000000000000, 1.000000000000000000 ) ) ;
#128 = EDGE_LOOP ( 'NONE', ( #288, #61, #119, #371 ) ) ;
#129 = ADVANCED_FACE ( 'NONE', ( #77 ), #171, .F. ) ;
#130 = ORIENTED_EDGE ( 'NONE', *, *, #123, .F. ) ;
#131 = LOCAL_TIME ( 11, 17, 4.000000000000000000, #269 ) ;
#132 = LOCAL_TIME ( 11, 17, 4.000000000000000000, #133 ) ;
#133 = COORDINATED_UNIVERSAL_TIME_OFFSET ( 1, 0, .AHEAD. ) ;
#134 = FACE_OUTER_BOUND ( 'NONE', #180, .T. ) ;
#135 = DIRECTION ( 'NONE',  ( 1.000000000000000000, 0.000000000000000000, 0.000000000000000000 ) ) ;
#136 = PERSON_AND_ORGANIZATION ( #362, #226 ) ;
#137 = VERTEX_POINT ( 'NONE', #378 ) ;
#138 = AXIS2_PLACEMENT_3D ( 'NONE', #33, #355, #211 ) ;
#139 = DIRECTION ( 'NONE',  ( 0.000000000000000000, 0.000000000000000000, 1.000000000000000000 ) ) ;
#140 = APPROVAL_STATUS ( 'not_yet_approved' ) ;
#141 = CARTESIAN_POINT ( 'NONE',  ( 0.000000000000000000, 0.000000000000000000, 3.299999999999997158 ) ) ;
#142 = EDGE_CURVE ( 'NONE', #137, #90, #219, .T. ) ;
#143 = CARTESIAN_POINT ( 'NONE',  ( -1.500000000000000222, 0.000000000000000000, 0.000000000000000000 ) ) ;
#144 = EDGE_CURVE ( 'NONE', #41, #233, #124, .T. ) ;
#145 = DIRECTION ( 'NONE',  ( 1.000000000000000000, 0.000000000000000000, 0.000000000000000000 ) ) ;
#146 = AXIS2_PLACEMENT_3D ( 'NONE', #298, #153, #62 ) ;
#147 = ORIENTED_EDGE ( 'NONE', *, *, #144, .F. ) ;
#148 = DIRECTION ( 'NONE',  ( 1.000000000000000000, 0.000000000000000000, 0.000000000000000000 ) ) ;
#149 = CARTESIAN_POINT ( 'NONE',  ( 0.000000000000000000, 0.000000000000000000, 0.000000000000000000 ) ) ;
#150 = DIRECTION ( 'NONE',  ( 0.000000000000000000, 0.000000000000000000, 1.000000000000000000 ) ) ;
#151 = ORIENTED_EDGE ( 'NONE', *, *, #295, .T. ) ;
#152 =( GEOMETRIC_REPRESENTATION_CONTEXT ( 3 ) GLOBAL_UNCERTAINTY_ASSIGNED_CONTEXT ( ( #363 ) ) GLOBAL_UNIT_ASSIGNED_CONTEXT ( ( #96, #177, #266 ) ) REPRESENTATION_CONTEXT ( 'NONE', 'WORKASPACE' ) );
#153 = DIRECTION ( 'NONE',  ( 0.000000000000000000, 0.000000000000000000, 1.000000000000000000 ) ) ;
#154 = ADVANCED_FACE ( 'NONE', ( #259 ), #10, .F. ) ;
#155 = APPROVAL ( #330, 'NEURÈENÝ' ) ;
#156 = AXIS2_PLACEMENT_3D ( 'NONE', #232, #150, #172 ) ;
#157 = ORIENTED_EDGE ( 'NONE', *, *, #123, .T. ) ;
#158 = PRODUCT_DEFINITION ( 'NEZNÁMÝ', '', #342, #274 ) ;
#159 = ORIENTED_EDGE ( 'NONE', *, *, #366, .T. ) ;
#160 = CIRCLE ( 'NONE', #116, 1.500000000000000222 ) ;
#161 = DIRECTION ( 'NONE',  ( 0.000000000000000000, 0.000000000000000000, -1.000000000000000000 ) ) ;
#162 = PLANE ( 'NONE',  #324 ) ;
#163 = TOROIDAL_SURFACE ( 'NONE', #55, 2.799999999999999822, 0.2999999999999999889 ) ;
#164 = DATE_AND_TIME ( #370, #360 ) ;
#165 = CARTESIAN_POINT ( 'NONE',  ( 0.000000000000000000, 0.000000000000000000, 3.000000000000000000 ) ) ;
#166 = VECTOR ( 'NONE', #89, 1000.000000000000000 ) ;
#167 = CYLINDRICAL_SURFACE ( 'NONE', #345, 2.500000000000000000 ) ;
#168 = CC_DESIGN_PERSON_AND_ORGANIZATION_ASSIGNMENT ( #19, #103, ( #342 ) ) ;
#169 = CARTESIAN_POINT ( 'NONE',  ( 0.000000000000000000, 0.000000000000000000, 3.000000000000000000 ) ) ;
#170 = CARTESIAN_POINT ( 'NONE',  ( 0.000000000000000000, 0.000000000000000000, 178.0000000000000000 ) ) ;
#171 = CYLINDRICAL_SURFACE ( 'NONE', #28, 1.500000000000000222 ) ;
#172 = DIRECTION ( 'NONE',  ( 1.000000000000000000, 0.000000000000000000, 0.000000000000000000 ) ) ;
#173 = CARTESIAN_POINT ( 'NONE',  ( 0.000000000000000000, 0.000000000000000000, 178.0000000000000000 ) ) ;
#174 = DATE_AND_TIME ( #297, #131 ) ;
#175 = ORIENTED_EDGE ( 'NONE', *, *, #341, .T. ) ;
#176 = AXIS2_PLACEMENT_3D ( 'NONE', #38, #264, #179 ) ;
#177 =( NAMED_UNIT ( * ) PLANE_ANGLE_UNIT ( ) SI_UNIT ( $, .RADIAN. ) );
#178 = CIRCLE ( 'NONE', #64, 5.000000000000000000 ) ;
#179 = DIRECTION ( 'NONE',  ( 1.000000000000000000, 0.000000000000000000, 0.000000000000000000 ) ) ;
#180 = EDGE_LOOP ( 'NONE', ( #151, #87 ) ) ;
#181 = CC_DESIGN_PERSON_AND_ORGANIZATION_ASSIGNMENT ( #136, #372, ( #158 ) ) ;
#182 = ORIENTED_EDGE ( 'NONE', *, *, #98, .T. ) ;
#183 = CALENDAR_DATE ( 2022, 10, 7 ) ;
#184 = VERTEX_POINT ( 'NONE', #143 ) ;
#185 = DIRECTION ( 'NONE',  ( -1.000000000000000000, 0.000000000000000000, 0.000000000000000000 ) ) ;
#186 = CC_DESIGN_PERSON_AND_ORGANIZATION_ASSIGNMENT ( #43, #333, ( #59 ) ) ;
#187 = VERTEX_POINT ( 'NONE', #79 ) ;
#188 = SHAPE_DEFINITION_REPRESENTATION ( #278, #253 ) ;
#189 = DIRECTION ( 'NONE',  ( 1.000000000000000000, 0.000000000000000000, 0.000000000000000000 ) ) ;
#190 = CARTESIAN_POINT ( 'NONE',  ( 2.500000000000000000, 3.061616997868383141E-16, 178.0000000000000000 ) ) ;
#191 = EDGE_CURVE ( 'NONE', #104, #193, #17, .T. ) ;
#192 = CC_DESIGN_APPROVAL ( #271, ( #59 ) ) ;
#193 = VERTEX_POINT ( 'NONE', #107 ) ;
#194 = APPLICATION_CONTEXT ( 'configuration controlled 3d designs of mechanical parts and assemblies' ) ;
#195 = DIRECTION ( 'NONE',  ( 1.000000000000000000, 0.000000000000000000, -0.000000000000000000 ) ) ;
#196 = DIRECTION ( 'NONE',  ( 1.224646799147353207E-16, 1.000000000000000000, -0.000000000000000000 ) ) ;
#197 = ORIENTED_EDGE ( 'NONE', *, *, #144, .T. ) ;
#198 = CIRCLE ( 'NONE', #58, 2.799999999999999822 ) ;
#199 = CARTESIAN_POINT ( 'NONE',  ( 0.000000000000000000, 0.000000000000000000, 3.299999999999997158 ) ) ;
#200 = DIRECTION ( 'NONE',  ( 0.000000000000000000, 0.000000000000000000, -1.000000000000000000 ) ) ;
#201 = VERTEX_POINT ( 'NONE', #228 ) ;
#202 = DIRECTION ( 'NONE',  ( 1.000000000000000000, 0.000000000000000000, 0.000000000000000000 ) ) ;
#203 = LINE ( 'NONE', #359, #166 ) ;
#204 = AXIS2_PLACEMENT_3D ( 'NONE', #110, #343, #148 ) ;
#205 = ORIENTED_EDGE ( 'NONE', *, *, #109, .F. ) ;
#206 = PERSON_AND_ORGANIZATION_ROLE ( 'design_owner' ) ;
#207 = CYLINDRICAL_SURFACE ( 'NONE', #47, 5.000000000000000000 ) ;
#208 = EDGE_LOOP ( 'NONE', ( #245, #299, #290, #130 ) ) ;
#209 = CARTESIAN_POINT ( 'NONE',  ( 0.000000000000000000, 0.000000000000000000, 3.000000000000000000 ) ) ;
#210 = VERTEX_POINT ( 'NONE', #376 ) ;
#211 = DIRECTION ( 'NONE',  ( 1.000000000000000000, 0.000000000000000000, 0.000000000000000000 ) ) ;
#212 = ORIENTED_EDGE ( 'NONE', *, *, #2, .F. ) ;
#213 = PERSON_AND_ORGANIZATION ( #362, #226 ) ;
#214 = FACE_OUTER_BOUND ( 'NONE', #128, .T. ) ;
#215 = VECTOR ( 'NONE', #339, 1000.000000000000000 ) ;
#216 = EDGE_CURVE ( 'NONE', #201, #184, #257, .T. ) ;
#217 = EDGE_CURVE ( 'NONE', #104, #63, #344, .T. ) ;
#218 = CARTESIAN_POINT ( 'NONE',  ( -2.500000000000000000, 0.000000000000000000, 3.299999999999997158 ) ) ;
#219 = CIRCLE ( 'NONE', #204, 5.000000000000000000 ) ;
#220 = LOCAL_TIME ( 11, 17, 4.000000000000000000, #9 ) ;
#221 = DATE_TIME_ROLE ( 'classification_date' ) ;
#222 = CARTESIAN_POINT ( 'NONE',  ( 0.000000000000000000, 0.000000000000000000, 0.000000000000000000 ) ) ;
#223 = ADVANCED_FACE ( 'NONE', ( #54, #377 ), #255, .F. ) ;
#224 = CARTESIAN_POINT ( 'NONE',  ( -5.000000000000000000, 0.000000000000000000, 3.000000000000000000 ) ) ;
#225 = AXIS2_PLACEMENT_3D ( 'NONE', #170, #315, #262 ) ;
#226 = ORGANIZATION ( 'NEURÈENÝ', 'NEURÈENÝ', '' ) ;
#227 = CARTESIAN_POINT ( 'NONE',  ( 5.000000000000000000, 6.123233995736766282E-16, 0.000000000000000000 ) ) ;
#228 = CARTESIAN_POINT ( 'NONE',  ( -1.500000000000000222, 0.000000000000000000, 178.0000000000000000 ) ) ;
#229 = AXIS2_PLACEMENT_3D ( 'NONE', #361, #100, #305 ) ;
#230 = EDGE_CURVE ( 'NONE', #265, #263, #82, .T. ) ;
#231 = CARTESIAN_POINT ( 'NONE',  ( -2.500000000000000000, 0.000000000000000000, 178.0000000000000000 ) ) ;
#232 = CARTESIAN_POINT ( 'NONE',  ( 0.000000000000000000, 0.000000000000000000, 178.0000000000000000 ) ) ;
#233 = VERTEX_POINT ( 'NONE', #227 ) ;
#234 = CARTESIAN_POINT ( 'NONE',  ( 1.500000000000000222, 1.836970198721030181E-16, 178.0000000000000000 ) ) ;
#235 = ADVANCED_FACE ( 'NONE', ( #312 ), #52, .F. ) ;
#236 = EDGE_LOOP ( 'NONE', ( #97, #68, #182, #27 ) ) ;
#237 = EDGE_LOOP ( 'NONE', ( #212, #31, #352, #159 ) ) ;
#238 = EDGE_LOOP ( 'NONE', ( #349, #39, #34, #6 ) ) ;
#239 = PERSON_AND_ORGANIZATION ( #362, #226 ) ;
#240 = DIRECTION ( 'NONE',  ( 1.000000000000000000, 0.000000000000000000, 0.000000000000000000 ) ) ;
#241 = ORIENTED_EDGE ( 'NONE', *, *, #230, .F. ) ;
#242 = CIRCLE ( 'NONE', #94, 1.500000000000000222 ) ;
#243 = DIRECTION ( 'NONE',  ( 0.000000000000000000, 0.000000000000000000, 1.000000000000000000 ) ) ;
#244 = CALENDAR_DATE ( 2022, 10, 7 ) ;
#245 = ORIENTED_EDGE ( 'NONE', *, *, #142, .F. ) ;
#246 = CIRCLE ( 'NONE', #325, 2.500000000000000000 ) ;
#247 = DATE_TIME_ROLE ( 'creation_date' ) ;
#248 = CARTESIAN_POINT ( 'NONE',  ( 0.000000000000000000, 0.000000000000000000, 178.0000000000000000 ) ) ;
#249 = EDGE_CURVE ( 'NONE', #193, #104, #369, .T. ) ;
#250 = APPROVAL_DATE_TIME ( #303, #18 ) ;
#251 = CARTESIAN_POINT ( 'NONE',  ( 0.000000000000000000, 0.000000000000000000, 0.000000000000000000 ) ) ;
#252 = DATE_AND_TIME ( #183, #132 ) ;
#253 = ADVANCED_BREP_SHAPE_REPRESENTATION ( '9833', ( #50, #138 ), #152 ) ;
#254 = DIRECTION ( 'NONE',  ( 1.000000000000000000, 0.000000000000000000, 0.000000000000000000 ) ) ;
#255 = PLANE ( 'NONE',  #4 ) ;
#256 = CIRCLE ( 'NONE', #327, 0.2999999999999999334 ) ;
#257 = LINE ( 'NONE', #83, #46 ) ;
#258 = EDGE_CURVE ( 'NONE', #187, #296, #198, .T. ) ;
#259 = FACE_OUTER_BOUND ( 'NONE', #238, .T. ) ;
#260 = DIRECTION ( 'NONE',  ( 0.000000000000000000, 0.000000000000000000, -1.000000000000000000 ) ) ;
#261 = ADVANCED_FACE ( 'NONE', ( #317 ), #292, .T. ) ;
#262 = DIRECTION ( 'NONE',  ( -1.000000000000000000, 0.000000000000000000, 0.000000000000000000 ) ) ;
#263 = VERTEX_POINT ( 'NONE', #117 ) ;
#264 = DIRECTION ( 'NONE',  ( 0.000000000000000000, 0.000000000000000000, 1.000000000000000000 ) ) ;
#265 = VERTEX_POINT ( 'NONE', #234 ) ;
#266 =( NAMED_UNIT ( * ) SI_UNIT ( $, .STERADIAN. ) SOLID_ANGLE_UNIT ( ) );
#267 = ORIENTED_EDGE ( 'NONE', *, *, #258, .T. ) ;
#268 = FACE_OUTER_BOUND ( 'NONE', #326, .T. ) ;
#269 = COORDINATED_UNIVERSAL_TIME_OFFSET ( 1, 0, .AHEAD. ) ;
#270 = PERSON_AND_ORGANIZATION_ROLE ( 'design_supplier' ) ;
#271 = APPROVAL ( #73, 'NEURÈENÝ' ) ;
#272 = EDGE_LOOP ( 'NONE', ( #147, #37 ) ) ;
#273 = APPROVAL_PERSON_ORGANIZATION ( #70, #271, #14 ) ;
#274 = DESIGN_CONTEXT ( 'detailed design', #32, 'design' ) ;
#275 = DIRECTION ( 'NONE',  ( -0.000000000000000000, -0.000000000000000000, -1.000000000000000000 ) ) ;
#276 = CIRCLE ( 'NONE', #111, 2.799999999999999822 ) ;
#277 = DIRECTION ( 'NONE',  ( 1.000000000000000000, 0.000000000000000000, 0.000000000000000000 ) ) ;
#278 = PRODUCT_DEFINITION_SHAPE ( 'NONE', 'NONE',  #158 ) ;
#279 = DIRECTION ( 'NONE',  ( 1.000000000000000000, 0.000000000000000000, -0.000000000000000000 ) ) ;
#280 = DIRECTION ( 'NONE',  ( 0.000000000000000000, 0.000000000000000000, 1.000000000000000000 ) ) ;
#281 = DIRECTION ( 'NONE',  ( 1.000000000000000000, 0.000000000000000000, 0.000000000000000000 ) ) ;
#282 = CIRCLE ( 'NONE', #332, 1.500000000000000222 ) ;
#283 = EDGE_CURVE ( 'NONE', #63, #187, #256, .T. ) ;
#284 = CARTESIAN_POINT ( 'NONE',  ( 0.000000000000000000, 0.000000000000000000, 0.000000000000000000 ) ) ;
#285 = EDGE_CURVE ( 'NONE', #201, #265, #242, .T. ) ;
#286 = ORIENTED_EDGE ( 'NONE', *, *, #109, .T. ) ;
#287 = DIRECTION ( 'NONE',  ( 0.000000000000000000, 0.000000000000000000, -1.000000000000000000 ) ) ;
#288 = ORIENTED_EDGE ( 'NONE', *, *, #283, .F. ) ;
#289 = DIRECTION ( 'NONE',  ( 1.000000000000000000, 0.000000000000000000, 0.000000000000000000 ) ) ;
#290 = ORIENTED_EDGE ( 'NONE', *, *, #29, .T. ) ;
#291 = CC_DESIGN_PERSON_AND_ORGANIZATION_ASSIGNMENT ( #365, #270, ( #342 ) ) ;
#292 = CYLINDRICAL_SURFACE ( 'NONE', #35, 2.500000000000000000 ) ;
#293 = CARTESIAN_POINT ( 'NONE',  ( 0.000000000000000000, 0.000000000000000000, 0.000000000000000000 ) ) ;
#294 = CIRCLE ( 'NONE', #176, 2.500000000000000000 ) ;
#295 = EDGE_CURVE ( 'NONE', #90, #137, #88, .T. ) ;
#296 = VERTEX_POINT ( 'NONE', #356 ) ;
#297 = CALENDAR_DATE ( 2022, 10, 7 ) ;
#298 = CARTESIAN_POINT ( 'NONE',  ( 0.000000000000000000, 0.000000000000000000, 3.000000000000000000 ) ) ;
#299 = ORIENTED_EDGE ( 'NONE', *, *, #373, .T. ) ;
#300 = EDGE_CURVE ( 'NONE', #184, #263, #309, .T. ) ;
#301 = AXIS2_PLACEMENT_3D ( 'NONE', #45, #335, #161 ) ;
#302 = ORIENTED_EDGE ( 'NONE', *, *, #373, .F. ) ;
#303 = DATE_AND_TIME ( #105, #220 ) ;
#304 = CARTESIAN_POINT ( 'NONE',  ( -2.500000000000000000, 0.000000000000000000, 178.0000000000000000 ) ) ;
#305 = DIRECTION ( 'NONE',  ( -1.000000000000000000, 0.000000000000000000, 0.000000000000000000 ) ) ;
#306 = EDGE_LOOP ( 'NONE', ( #44, #267 ) ) ;
#307 = DATE_AND_TIME ( #244, #320 ) ;
#308 = DIRECTION ( 'NONE',  ( -0.000000000000000000, -0.000000000000000000, -1.000000000000000000 ) ) ;
#309 = CIRCLE ( 'NONE', #354, 1.500000000000000222 ) ;
#310 = ADVANCED_FACE ( 'NONE', ( #91, #268 ), #60, .T. ) ;
#311 = CC_DESIGN_PERSON_AND_ORGANIZATION_ASSIGNMENT ( #125, #206, ( #350 ) ) ;
#312 = FACE_OUTER_BOUND ( 'NONE', #121, .T. ) ;
#313 = CARTESIAN_POINT ( 'NONE',  ( 0.000000000000000000, 0.000000000000000000, 178.0000000000000000 ) ) ;
#314 = VECTOR ( 'NONE', #53, 1000.000000000000000 ) ;
#315 = DIRECTION ( 'NONE',  ( 0.000000000000000000, 0.000000000000000000, -1.000000000000000000 ) ) ;
#316 = ORIENTED_EDGE ( 'NONE', *, *, #285, .T. ) ;
#317 = FACE_OUTER_BOUND ( 'NONE', #236, .T. ) ;
#318 = DIRECTION ( 'NONE',  ( -0.000000000000000000, -0.000000000000000000, -1.000000000000000000 ) ) ;
#319 = DIRECTION ( 'NONE',  ( -0.000000000000000000, -0.000000000000000000, -1.000000000000000000 ) ) ;
#320 = LOCAL_TIME ( 11, 17, 4.000000000000000000, #99 ) ;
#321 = CC_DESIGN_DATE_AND_TIME_ASSIGNMENT ( #307, #247, ( #158 ) ) ;
#322 = DIRECTION ( 'NONE',  ( 1.000000000000000000, 0.000000000000000000, -0.000000000000000000 ) ) ;
#323 = ORIENTED_EDGE ( 'NONE', *, *, #249, .T. ) ;
#324 = AXIS2_PLACEMENT_3D ( 'NONE', #169, #243, #279 ) ;
#325 = AXIS2_PLACEMENT_3D ( 'NONE', #20, #139, #254 ) ;
#326 = EDGE_LOOP ( 'NONE', ( #379, #323 ) ) ;
#327 = AXIS2_PLACEMENT_3D ( 'NONE', #81, #196, #351 ) ;
#328 = APPROVAL_PERSON_ORGANIZATION ( #213, #18, #101 ) ;
#329 = PRODUCT_RELATED_PRODUCT_CATEGORY ( 'detail', '', ( #350 ) ) ;
#330 = APPROVAL_STATUS ( 'not_yet_approved' ) ;
#331 = ORIENTED_EDGE ( 'NONE', *, *, #230, .T. ) ;
#332 = AXIS2_PLACEMENT_3D ( 'NONE', #251, #275, #135 ) ;
#333 = PERSON_AND_ORGANIZATION_ROLE ( 'classification_officer' ) ;
#334 = DIRECTION ( 'NONE',  ( 0.000000000000000000, 0.000000000000000000, 1.000000000000000000 ) ) ;
#335 = DIRECTION ( 'NONE',  ( 0.000000000000000000, -1.000000000000000000, 0.000000000000000000 ) ) ;
#336 = VECTOR ( 'NONE', #200, 1000.000000000000000 ) ;
#337 = SECURITY_CLASSIFICATION_LEVEL ( 'unclassified' ) ;
#338 = FACE_OUTER_BOUND ( 'NONE', #237, .T. ) ;
#339 = DIRECTION ( 'NONE',  ( -0.000000000000000000, -0.000000000000000000, -1.000000000000000000 ) ) ;
#340 = LINE ( 'NONE', #224, #215 ) ;
#341 = EDGE_CURVE ( 'NONE', #265, #201, #160, .T. ) ;
#342 = PRODUCT_DEFINITION_FORMATION_WITH_SPECIFIED_SOURCE ( 'LIBOVOLNÝ', '', #350, .NOT_KNOWN. ) ;
#343 = DIRECTION ( 'NONE',  ( 0.000000000000000000, 0.000000000000000000, 1.000000000000000000 ) ) ;
#344 = LINE ( 'NONE', #231, #314 ) ;
#345 = AXIS2_PLACEMENT_3D ( 'NONE', #248, #71, #185 ) ;
#346 = DIRECTION ( 'NONE',  ( 0.000000000000000000, 0.000000000000000000, 1.000000000000000000 ) ) ;
#347 = AXIS2_PLACEMENT_3D ( 'NONE', #199, #346, #202 ) ;
#348 = CARTESIAN_POINT ( 'NONE',  ( 0.000000000000000000, 0.000000000000000000, 3.000000000000000000 ) ) ;
#349 = ORIENTED_EDGE ( 'NONE', *, *, #366, .F. ) ;
#350 = PRODUCT ( '9833', '9833', '', ( #5 ) ) ;
#351 = DIRECTION ( 'NONE',  ( -1.000000000000000000, 1.224646799147353207E-16, 0.000000000000000000 ) ) ;
#352 = ORIENTED_EDGE ( 'NONE', *, *, #217, .T. ) ;
#353 = ADVANCED_FACE ( 'NONE', ( #30 ), #207, .T. ) ;
#354 = AXIS2_PLACEMENT_3D ( 'NONE', #293, #319, #7 ) ;
#355 = DIRECTION ( 'NONE',  ( 0.000000000000000000, 0.000000000000000000, 1.000000000000000000 ) ) ;
#356 = CARTESIAN_POINT ( 'NONE',  ( 2.799999999999999822, 0.000000000000000000, 2.999999999999998668 ) ) ;
#357 = ORIENTED_EDGE ( 'NONE', *, *, #285, .F. ) ;
#358 = APPLICATION_PROTOCOL_DEFINITION ( 'international standard', 'config_control_design', 1994, #32 ) ;
#359 = CARTESIAN_POINT ( 'NONE',  ( 5.000000000000000000, 6.123233995736766282E-16, 3.000000000000000000 ) ) ;
#360 = LOCAL_TIME ( 11, 17, 4.000000000000000000, #367 ) ;
#361 = CARTESIAN_POINT ( 'NONE',  ( 0.000000000000000000, 0.000000000000000000, 3.000000000000000000 ) ) ;
#362 = PERSON ( 'NEURÈENÝ', 'NEURÈENÝ', 'NEURÈENÝ', ('NEURÈENÝ'), ('NEURÈENÝ'), ('NEURÈENÝ') ) ;
#363 = UNCERTAINTY_MEASURE_WITH_UNIT (LENGTH_MEASURE( 1.000000000000000082E-05 ), #96, 'distance_accuracy_value', 'NONE');
#364 = CLOSED_SHELL ( 'NONE', ( #129, #154, #261, #12, #353, #56, #223, #84, #310, #69, #235 ) ) ;
#365 = PERSON_AND_ORGANIZATION ( #362, #226 ) ;
#366 = EDGE_CURVE ( 'NONE', #63, #210, #294, .T. ) ;
#367 = COORDINATED_UNIVERSAL_TIME_OFFSET ( 1, 0, .AHEAD. ) ;
#368 = FACE_BOUND ( 'NONE', #306, .T. ) ;
#369 = CIRCLE ( 'NONE', #156, 2.500000000000000000 ) ;
#370 = CALENDAR_DATE ( 2022, 10, 7 ) ;
#371 = ORIENTED_EDGE ( 'NONE', *, *, #258, .F. ) ;
#372 = PERSON_AND_ORGANIZATION_ROLE ( 'creator' ) ;
#373 = EDGE_CURVE ( 'NONE', #137, #233, #203, .T. ) ;
#374 = ORIENTED_EDGE ( 'NONE', *, *, #341, .F. ) ;
#375 = CARTESIAN_POINT ( 'NONE',  ( 0.000000000000000000, 0.000000000000000000, 178.0000000000000000 ) ) ;
#376 = CARTESIAN_POINT ( 'NONE',  ( 2.500000000000000000, 3.061616997868383141E-16, 3.299999999999997158 ) ) ;
#377 = FACE_OUTER_BOUND ( 'NONE', #272, .T. ) ;
#378 = CARTESIAN_POINT ( 'NONE',  ( 5.000000000000000000, 6.123233995736766282E-16, 3.000000000000000000 ) ) ;
#379 = ORIENTED_EDGE ( 'NONE', *, *, #191, .T. ) ;
#380 = DIRECTION ( 'NONE',  ( -0.000000000000000000, -0.000000000000000000, -1.000000000000000000 ) ) ;
#381 = ORIENTED_EDGE ( 'NONE', *, *, #216, .F. ) ;
ENDSEC;
END-ISO-10303-21;
