ISO-10303-21;
HEADER;
FILE_DESCRIPTION (( 'STEP AP203' ),
    '1' );
FILE_NAME ('8701.STEP',
    '2022-07-10T09:00:05',
    ( '' ),
    ( '' ),
    'SwSTEP 2.0',
    'SolidWorks 2019',
    '' );
FILE_SCHEMA (( 'CONFIG_CONTROL_DESIGN' ));
ENDSEC;

DATA;
#1 = PERSON_AND_ORGANIZATION ( #318, #50 ) ;
#2 = DIRECTION ( 'NONE',  ( 1.000000000000000000, 0.000000000000000000, -0.000000000000000000 ) ) ;
#3 = DIRECTION ( 'NONE',  ( 0.000000000000000000, 0.000000000000000000, 1.000000000000000000 ) ) ;
#4 = CIRCLE ( 'NONE', #148, 11.00000000000000000 ) ;
#5 = CIRCLE ( 'NONE', #154, 11.00000000000000000 ) ;
#6 = CARTESIAN_POINT ( 'NONE',  ( 0.000000000000000000, 0.000000000000000000, 7.699999999999998401 ) ) ;
#7 = VERTEX_POINT ( 'NONE', #329 ) ;
#8 = EDGE_CURVE ( 'NONE', #19, #7, #374, .T. ) ;
#9 = DIRECTION ( 'NONE',  ( 1.224646799147353207E-16, 1.000000000000000000, -0.000000000000000000 ) ) ;
#10 = CALENDAR_DATE ( 2022, 10, 7 ) ;
#11 = DIRECTION ( 'NONE',  ( 0.000000000000000000, 0.000000000000000000, 1.000000000000000000 ) ) ;
#12 = DIRECTION ( 'NONE',  ( 1.000000000000000000, 0.000000000000000000, 0.000000000000000000 ) ) ;
#13 = APPROVAL_DATE_TIME ( #72, #287 ) ;
#14 = LINE ( 'NONE', #246, #332 ) ;
#15 = ORIENTED_EDGE ( 'NONE', *, *, #308, .T. ) ;
#16 = APPLICATION_CONTEXT ( 'configuration controlled 3d designs of mechanical parts and assemblies' ) ;
#17 =( NAMED_UNIT ( * ) PLANE_ANGLE_UNIT ( ) SI_UNIT ( $, .RADIAN. ) );
#18 = DESIGN_CONTEXT ( 'detailed design', #16, 'design' ) ;
#19 = VERTEX_POINT ( 'NONE', #22 ) ;
#20 = FACE_OUTER_BOUND ( 'NONE', #283, .T. ) ;
#21 = EDGE_CURVE ( 'NONE', #130, #197, #225, .T. ) ;
#22 = CARTESIAN_POINT ( 'NONE',  ( 8.699999999999999289, 0.000000000000000000, 6.999999999999999112 ) ) ;
#23 = DIRECTION ( 'NONE',  ( -0.000000000000000000, -0.000000000000000000, -1.000000000000000000 ) ) ;
#24 = DIRECTION ( 'NONE',  ( 0.000000000000000000, 0.000000000000000000, 1.000000000000000000 ) ) ;
#25 = AXIS2_PLACEMENT_3D ( 'NONE', #268, #9, #309 ) ;
#26 = EDGE_CURVE ( 'NONE', #47, #130, #131, .T. ) ;
#27 = CARTESIAN_POINT ( 'NONE',  ( 6.000000000000000888, 7.347880794884120722E-16, 132.0000000000000000 ) ) ;
#28 = ORIENTED_EDGE ( 'NONE', *, *, #77, .T. ) ;
#29 = DIRECTION ( 'NONE',  ( -0.000000000000000000, -0.000000000000000000, -1.000000000000000000 ) ) ;
#30 = ORIENTED_EDGE ( 'NONE', *, *, #217, .F. ) ;
#31 = VECTOR ( 'NONE', #23, 1000.000000000000000 ) ;
#32 = COORDINATED_UNIVERSAL_TIME_OFFSET ( 1, 0, .AHEAD. ) ;
#33 = ORIENTED_EDGE ( 'NONE', *, *, #117, .T. ) ;
#34 = CARTESIAN_POINT ( 'NONE',  ( 11.00000000000000000, 1.347111479062088405E-15, 7.000000000000000000 ) ) ;
#35 = AXIS2_PLACEMENT_3D ( 'NONE', #38, #310, #79 ) ;
#36 = CARTESIAN_POINT ( 'NONE',  ( 0.000000000000000000, 0.000000000000000000, 132.0000000000000000 ) ) ;
#37 = CIRCLE ( 'NONE', #238, 8.000000000000000000 ) ;
#38 = CARTESIAN_POINT ( 'NONE',  ( 0.000000000000000000, 0.000000000000000000, 7.000000000000000000 ) ) ;
#39 = CC_DESIGN_PERSON_AND_ORGANIZATION_ASSIGNMENT ( #1, #120, ( #362 ) ) ;
#40 = CIRCLE ( 'NONE', #366, 6.000000000000000888 ) ;
#41 = APPROVAL_STATUS ( 'not_yet_approved' ) ;
#42 = CIRCLE ( 'NONE', #288, 6.000000000000000888 ) ;
#43 = DIRECTION ( 'NONE',  ( 1.000000000000000000, 0.000000000000000000, 0.000000000000000000 ) ) ;
#44 = CARTESIAN_POINT ( 'NONE',  ( 6.000000000000000888, 7.347880794884120722E-16, 132.0000000000000000 ) ) ;
#45 = ORIENTED_EDGE ( 'NONE', *, *, #114, .F. ) ;
#46 = APPROVAL_STATUS ( 'not_yet_approved' ) ;
#47 = VERTEX_POINT ( 'NONE', #337 ) ;
#48 = FACE_OUTER_BOUND ( 'NONE', #248, .T. ) ;
#49 = AXIS2_PLACEMENT_3D ( 'NONE', #321, #370, #219 ) ;
#50 = ORGANIZATION ( 'NEURÈENÝ', 'NEURÈENÝ', '' ) ;
#51 = CC_DESIGN_PERSON_AND_ORGANIZATION_ASSIGNMENT ( #76, #359, ( #347 ) ) ;
#52 = ADVANCED_FACE ( 'NONE', ( #253 ), #372, .T. ) ;
#53 = CYLINDRICAL_SURFACE ( 'NONE', #237, 6.000000000000000888 ) ;
#54 = DIRECTION ( 'NONE',  ( 0.000000000000000000, 0.000000000000000000, -1.000000000000000000 ) ) ;
#55 = DIRECTION ( 'NONE',  ( 0.000000000000000000, 0.000000000000000000, 1.000000000000000000 ) ) ;
#56 = ADVANCED_FACE ( 'NONE', ( #161 ), #53, .F. ) ;
#57 = CIRCLE ( 'NONE', #119, 8.699999999999999289 ) ;
#58 = DIRECTION ( 'NONE',  ( 0.000000000000000000, 0.000000000000000000, 1.000000000000000000 ) ) ;
#59 = DIRECTION ( 'NONE',  ( 1.000000000000000000, 0.000000000000000000, 0.000000000000000000 ) ) ;
#60 = ORIENTED_EDGE ( 'NONE', *, *, #8, .T. ) ;
#61 =( GEOMETRIC_REPRESENTATION_CONTEXT ( 3 ) GLOBAL_UNCERTAINTY_ASSIGNED_CONTEXT ( ( #241 ) ) GLOBAL_UNIT_ASSIGNED_CONTEXT ( ( #107, #17, #299 ) ) REPRESENTATION_CONTEXT ( 'NONE', 'WORKASPACE' ) );
#62 = APPLICATION_PROTOCOL_DEFINITION ( 'international standard', 'config_control_design', 1994, #16 ) ;
#63 = PERSON_AND_ORGANIZATION ( #318, #50 ) ;
#64 = ORIENTED_EDGE ( 'NONE', *, *, #206, .F. ) ;
#65 = CIRCLE ( 'NONE', #271, 6.000000000000000888 ) ;
#66 = AXIS2_PLACEMENT_3D ( 'NONE', #78, #58, #215 ) ;
#67 = CARTESIAN_POINT ( 'NONE',  ( 0.000000000000000000, 0.000000000000000000, 132.0000000000000000 ) ) ;
#68 = FACE_OUTER_BOUND ( 'NONE', #247, .T. ) ;
#69 = ORIENTED_EDGE ( 'NONE', *, *, #81, .T. ) ;
#70 = AXIS2_PLACEMENT_3D ( 'NONE', #214, #190, #274 ) ;
#71 = ADVANCED_FACE ( 'NONE', ( #110, #82 ), #365, .T. ) ;
#72 = DATE_AND_TIME ( #323, #311 ) ;
#73 = AXIS2_PLACEMENT_3D ( 'NONE', #157, #145, #173 ) ;
#74 = APPROVAL_PERSON_ORGANIZATION ( #138, #135, #205 ) ;
#75 = AXIS2_PLACEMENT_3D ( 'NONE', #342, #282, #254 ) ;
#76 = PERSON_AND_ORGANIZATION ( #318, #50 ) ;
#77 = EDGE_CURVE ( 'NONE', #102, #358, #218, .T. ) ;
#78 = CARTESIAN_POINT ( 'NONE',  ( 0.000000000000000000, 0.000000000000000000, 7.000000000000000000 ) ) ;
#79 = DIRECTION ( 'NONE',  ( 1.000000000000000000, 0.000000000000000000, 0.000000000000000000 ) ) ;
#80 = ORIENTED_EDGE ( 'NONE', *, *, #367, .T. ) ;
#81 = EDGE_CURVE ( 'NONE', #102, #343, #84, .T. ) ;
#82 = FACE_OUTER_BOUND ( 'NONE', #234, .T. ) ;
#83 = DIRECTION ( 'NONE',  ( -1.000000000000000000, 0.000000000000000000, 0.000000000000000000 ) ) ;
#84 = CIRCLE ( 'NONE', #166, 6.000000000000000888 ) ;
#85 = PRODUCT_DEFINITION_FORMATION_WITH_SPECIFIED_SOURCE ( 'LIBOVOLNÝ', '', #87, .NOT_KNOWN. ) ;
#86 = CC_DESIGN_DATE_AND_TIME_ASSIGNMENT ( #345, #152, ( #362 ) ) ;
#87 = PRODUCT ( '8701', '8701', '', ( #126 ) ) ;
#88 = ORIENTED_EDGE ( 'NONE', *, *, #118, .F. ) ;
#89 = DIRECTION ( 'NONE',  ( -0.000000000000000000, -0.000000000000000000, -1.000000000000000000 ) ) ;
#90 = ORIENTED_EDGE ( 'NONE', *, *, #233, .F. ) ;
#91 = AXIS2_PLACEMENT_3D ( 'NONE', #171, #92, #2 ) ;
#92 = DIRECTION ( 'NONE',  ( 0.000000000000000000, 0.000000000000000000, 1.000000000000000000 ) ) ;
#93 = ADVANCED_FACE ( 'NONE', ( #192 ), #216, .T. ) ;
#94 = APPROVAL_DATE_TIME ( #153, #276 ) ;
#95 = CC_DESIGN_PERSON_AND_ORGANIZATION_ASSIGNMENT ( #307, #182, ( #85 ) ) ;
#96 = AXIS2_PLACEMENT_3D ( 'NONE', #121, #203, #54 ) ;
#97 = EDGE_LOOP ( 'NONE', ( #60, #201 ) ) ;
#98 = CARTESIAN_POINT ( 'NONE',  ( 0.000000000000000000, 0.000000000000000000, 132.0000000000000000 ) ) ;
#99 = DIRECTION ( 'NONE',  ( 0.000000000000000000, 0.000000000000000000, 1.000000000000000000 ) ) ;
#100 = CALENDAR_DATE ( 2022, 10, 7 ) ;
#101 = CARTESIAN_POINT ( 'NONE',  ( 0.000000000000000000, 0.000000000000000000, 0.000000000000000000 ) ) ;
#102 = VERTEX_POINT ( 'NONE', #194 ) ;
#103 = AXIS2_PLACEMENT_3D ( 'NONE', #98, #352, #364 ) ;
#104 = DIRECTION ( 'NONE',  ( 1.000000000000000000, 0.000000000000000000, 0.000000000000000000 ) ) ;
#105 = ORIENTED_EDGE ( 'NONE', *, *, #346, .F. ) ;
#106 = ORIENTED_EDGE ( 'NONE', *, *, #77, .F. ) ;
#107 =( LENGTH_UNIT ( ) NAMED_UNIT ( * ) SI_UNIT ( .MILLI., .METRE. ) );
#108 = AXIS2_PLACEMENT_3D ( 'NONE', #314, #112, #83 ) ;
#109 = DIRECTION ( 'NONE',  ( -1.000000000000000000, 0.000000000000000000, 0.000000000000000000 ) ) ;
#110 = FACE_BOUND ( 'NONE', #97, .T. ) ;
#111 = VERTEX_POINT ( 'NONE', #328 ) ;
#112 = DIRECTION ( 'NONE',  ( -0.000000000000000000, -0.000000000000000000, -1.000000000000000000 ) ) ;
#113 = VECTOR ( 'NONE', #185, 1000.000000000000000 ) ;
#114 = EDGE_CURVE ( 'NONE', #111, #150, #4, .T. ) ;
#115 = ORIENTED_EDGE ( 'NONE', *, *, #26, .F. ) ;
#116 = PLANE ( 'NONE',  #279 ) ;
#117 = EDGE_CURVE ( 'NONE', #343, #102, #40, .T. ) ;
#118 = EDGE_CURVE ( 'NONE', #358, #129, #65, .T. ) ;
#119 = AXIS2_PLACEMENT_3D ( 'NONE', #132, #29, #59 ) ;
#120 = PERSON_AND_ORGANIZATION_ROLE ( 'classification_officer' ) ;
#121 = CARTESIAN_POINT ( 'NONE',  ( 8.699999999999999289, 0.000000000000000000, 7.699999999999998401 ) ) ;
#122 = DIRECTION ( 'NONE',  ( 1.000000000000000000, 0.000000000000000000, 0.000000000000000000 ) ) ;
#123 = CC_DESIGN_PERSON_AND_ORGANIZATION_ASSIGNMENT ( #63, #324, ( #87 ) ) ;
#124 = VECTOR ( 'NONE', #139, 1000.000000000000000 ) ;
#125 = CARTESIAN_POINT ( 'NONE',  ( -8.000000000000000000, 0.000000000000000000, 132.0000000000000000 ) ) ;
#126 = MECHANICAL_CONTEXT ( 'NONE', #191, 'mechanical' ) ;
#127 = SHAPE_DEFINITION_REPRESENTATION ( #278, #163 ) ;
#128 = CC_DESIGN_APPROVAL ( #135, ( #362 ) ) ;
#129 = VERTEX_POINT ( 'NONE', #300 ) ;
#130 = VERTEX_POINT ( 'NONE', #266 ) ;
#131 = LINE ( 'NONE', #250, #207 ) ;
#132 = CARTESIAN_POINT ( 'NONE',  ( 0.000000000000000000, 0.000000000000000000, 7.000000000000000000 ) ) ;
#133 = LOCAL_TIME ( 11, 0, 5.000000000000000000, #32 ) ;
#134 = ORIENTED_EDGE ( 'NONE', *, *, #308, .F. ) ;
#135 = APPROVAL ( #269, 'NEURÈENÝ' ) ;
#136 = VERTEX_POINT ( 'NONE', #125 ) ;
#137 = CC_DESIGN_DATE_AND_TIME_ASSIGNMENT ( #293, #227, ( #347 ) ) ;
#138 = PERSON_AND_ORGANIZATION ( #318, #50 ) ;
#139 = DIRECTION ( 'NONE',  ( -0.000000000000000000, -0.000000000000000000, -1.000000000000000000 ) ) ;
#140 = APPROVAL_PERSON_ORGANIZATION ( #240, #287, #270 ) ;
#141 = DIRECTION ( 'NONE',  ( 0.000000000000000000, 0.000000000000000000, 1.000000000000000000 ) ) ;
#142 = CYLINDRICAL_SURFACE ( 'NONE', #208, 6.000000000000000888 ) ;
#143 = CYLINDRICAL_SURFACE ( 'NONE', #75, 8.000000000000000000 ) ;
#144 = ORIENTED_EDGE ( 'NONE', *, *, #117, .F. ) ;
#145 = DIRECTION ( 'NONE',  ( 0.000000000000000000, 0.000000000000000000, 1.000000000000000000 ) ) ;
#146 = ADVANCED_FACE ( 'NONE', ( #239 ), #229, .F. ) ;
#147 = FACE_BOUND ( 'NONE', #222, .T. ) ;
#148 = AXIS2_PLACEMENT_3D ( 'NONE', #175, #295, #122 ) ;
#149 = CIRCLE ( 'NONE', #66, 11.00000000000000000 ) ;
#150 = VERTEX_POINT ( 'NONE', #256 ) ;
#151 = EDGE_LOOP ( 'NONE', ( #30, #322, #186, #183 ) ) ;
#152 = DATE_TIME_ROLE ( 'classification_date' ) ;
#153 = DATE_AND_TIME ( #334, #195 ) ;
#154 = AXIS2_PLACEMENT_3D ( 'NONE', #298, #236, #156 ) ;
#155 = ORIENTED_EDGE ( 'NONE', *, *, #200, .T. ) ;
#156 = DIRECTION ( 'NONE',  ( 1.000000000000000000, 0.000000000000000000, 0.000000000000000000 ) ) ;
#157 = CARTESIAN_POINT ( 'NONE',  ( 0.000000000000000000, 0.000000000000000000, 7.699999999999998401 ) ) ;
#158 = CARTESIAN_POINT ( 'NONE',  ( -11.00000000000000000, 0.000000000000000000, 7.000000000000000000 ) ) ;
#159 = ADVANCED_FACE ( 'NONE', ( #147, #68 ), #116, .T. ) ;
#160 = CARTESIAN_POINT ( 'NONE',  ( 0.000000000000000000, 0.000000000000000000, 132.0000000000000000 ) ) ;
#161 = FACE_OUTER_BOUND ( 'NONE', #340, .T. ) ;
#162 = ADVANCED_FACE ( 'NONE', ( #169 ), #226, .T. ) ;
#163 = ADVANCED_BREP_SHAPE_REPRESENTATION ( '8701', ( #303, #264 ), #61 ) ;
#164 = CARTESIAN_POINT ( 'NONE',  ( 0.000000000000000000, 0.000000000000000000, 132.0000000000000000 ) ) ;
#165 = EDGE_CURVE ( 'NONE', #136, #197, #14, .T. ) ;
#166 = AXIS2_PLACEMENT_3D ( 'NONE', #160, #24, #251 ) ;
#167 = AXIS2_PLACEMENT_3D ( 'NONE', #350, #180, #242 ) ;
#168 = ORIENTED_EDGE ( 'NONE', *, *, #296, .F. ) ;
#169 = FACE_OUTER_BOUND ( 'NONE', #355, .T. ) ;
#170 = DATE_AND_TIME ( #10, #302 ) ;
#171 = CARTESIAN_POINT ( 'NONE',  ( 0.000000000000000000, 0.000000000000000000, 0.000000000000000000 ) ) ;
#172 = EDGE_LOOP ( 'NONE', ( #177, #33, #28, #255 ) ) ;
#173 = DIRECTION ( 'NONE',  ( 1.000000000000000000, 0.000000000000000000, 0.000000000000000000 ) ) ;
#174 = ORIENTED_EDGE ( 'NONE', *, *, #290, .F. ) ;
#175 = CARTESIAN_POINT ( 'NONE',  ( 0.000000000000000000, 0.000000000000000000, 0.000000000000000000 ) ) ;
#176 = DIRECTION ( 'NONE',  ( 1.000000000000000000, 0.000000000000000000, 0.000000000000000000 ) ) ;
#177 = ORIENTED_EDGE ( 'NONE', *, *, #223, .F. ) ;
#178 = ORIENTED_EDGE ( 'NONE', *, *, #371, .T. ) ;
#179 = CARTESIAN_POINT ( 'NONE',  ( 0.000000000000000000, 0.000000000000000000, 0.000000000000000000 ) ) ;
#180 = DIRECTION ( 'NONE',  ( -0.000000000000000000, -0.000000000000000000, -1.000000000000000000 ) ) ;
#181 = ORIENTED_EDGE ( 'NONE', *, *, #196, .T. ) ;
#182 = PERSON_AND_ORGANIZATION_ROLE ( 'creator' ) ;
#183 = ORIENTED_EDGE ( 'NONE', *, *, #367, .F. ) ;
#184 = CARTESIAN_POINT ( 'NONE',  ( 0.000000000000000000, 0.000000000000000000, 0.000000000000000000 ) ) ;
#185 = DIRECTION ( 'NONE',  ( 0.000000000000000000, 0.000000000000000000, -1.000000000000000000 ) ) ;
#186 = ORIENTED_EDGE ( 'NONE', *, *, #8, .F. ) ;
#187 = ORIENTED_EDGE ( 'NONE', *, *, #206, .T. ) ;
#188 = ORIENTED_EDGE ( 'NONE', *, *, #165, .F. ) ;
#189 = AXIS2_PLACEMENT_3D ( 'NONE', #265, #99, #335 ) ;
#190 = DIRECTION ( 'NONE',  ( 0.000000000000000000, 0.000000000000000000, 1.000000000000000000 ) ) ;
#191 = APPLICATION_CONTEXT ( 'configuration controlled 3d designs of mechanical parts and assemblies' ) ;
#192 = FACE_OUTER_BOUND ( 'NONE', #320, .T. ) ;
#193 = CLOSED_SHELL ( 'NONE', ( #56, #146, #319, #52, #162, #71, #363, #93, #159, #213, #275 ) ) ;
#194 = CARTESIAN_POINT ( 'NONE',  ( -6.000000000000000888, 0.000000000000000000, 132.0000000000000000 ) ) ;
#195 = LOCAL_TIME ( 11, 0, 5.000000000000000000, #351 ) ;
#196 = EDGE_CURVE ( 'NONE', #375, #379, #149, .T. ) ;
#197 = VERTEX_POINT ( 'NONE', #369 ) ;
#198 = DIRECTION ( 'NONE',  ( 0.000000000000000000, 0.000000000000000000, 1.000000000000000000 ) ) ;
#199 = CIRCLE ( 'NONE', #25, 0.6999999999999992895 ) ;
#200 = EDGE_CURVE ( 'NONE', #379, #375, #5, .T. ) ;
#201 = ORIENTED_EDGE ( 'NONE', *, *, #346, .T. ) ;
#202 = APPLICATION_PROTOCOL_DEFINITION ( 'international standard', 'config_control_design', 1994, #191 ) ;
#203 = DIRECTION ( 'NONE',  ( 0.000000000000000000, -1.000000000000000000, 0.000000000000000000 ) ) ;
#204 = CARTESIAN_POINT ( 'NONE',  ( 0.000000000000000000, 0.000000000000000000, 132.0000000000000000 ) ) ;
#205 = APPROVAL_ROLE ( '' ) ;
#206 = EDGE_CURVE ( 'NONE', #136, #47, #37, .T. ) ;
#207 = VECTOR ( 'NONE', #89, 1000.000000000000000 ) ;
#208 = AXIS2_PLACEMENT_3D ( 'NONE', #67, #235, #325 ) ;
#209 = ORIENTED_EDGE ( 'NONE', *, *, #196, .F. ) ;
#210 = DIRECTION ( 'NONE',  ( -0.000000000000000000, -0.000000000000000000, -1.000000000000000000 ) ) ;
#211 = LINE ( 'NONE', #44, #113 ) ;
#212 = EDGE_LOOP ( 'NONE', ( #209, #348, #178, #168 ) ) ;
#213 = ADVANCED_FACE ( 'NONE', ( #20 ), #376, .F. ) ;
#214 = CARTESIAN_POINT ( 'NONE',  ( 0.000000000000000000, 0.000000000000000000, 7.000000000000000000 ) ) ;
#215 = DIRECTION ( 'NONE',  ( 1.000000000000000000, 0.000000000000000000, 0.000000000000000000 ) ) ;
#216 = CYLINDRICAL_SURFACE ( 'NONE', #108, 8.000000000000000000 ) ;
#217 = EDGE_CURVE ( 'NONE', #197, #130, #333, .T. ) ;
#218 = LINE ( 'NONE', #313, #286 ) ;
#219 = DIRECTION ( 'NONE',  ( -1.000000000000000000, 0.000000000000000000, 0.000000000000000000 ) ) ;
#220 = AXIS2_PLACEMENT_3D ( 'NONE', #326, #3, #297 ) ;
#221 = FACE_OUTER_BOUND ( 'NONE', #341, .T. ) ;
#222 = EDGE_LOOP ( 'NONE', ( #354, #144 ) ) ;
#223 = EDGE_CURVE ( 'NONE', #343, #129, #211, .T. ) ;
#224 = ORIENTED_EDGE ( 'NONE', *, *, #26, .T. ) ;
#225 = CIRCLE ( 'NONE', #244, 8.000000000000000000 ) ;
#226 = CYLINDRICAL_SURFACE ( 'NONE', #167, 11.00000000000000000 ) ;
#227 = DATE_TIME_ROLE ( 'creation_date' ) ;
#228 = CC_DESIGN_PERSON_AND_ORGANIZATION_ASSIGNMENT ( #305, #267, ( #85 ) ) ;
#229 = TOROIDAL_SURFACE ( 'NONE', #73, 8.699999999999999289, 0.6999999999999999556 ) ;
#230 = CIRCLE ( 'NONE', #103, 8.000000000000000000 ) ;
#231 = APPROVAL_ROLE ( '' ) ;
#232 = FACE_OUTER_BOUND ( 'NONE', #172, .T. ) ;
#233 = EDGE_CURVE ( 'NONE', #197, #7, #199, .T. ) ;
#234 = EDGE_LOOP ( 'NONE', ( #155, #181 ) ) ;
#235 = DIRECTION ( 'NONE',  ( 0.000000000000000000, 0.000000000000000000, -1.000000000000000000 ) ) ;
#236 = DIRECTION ( 'NONE',  ( 0.000000000000000000, 0.000000000000000000, 1.000000000000000000 ) ) ;
#237 = AXIS2_PLACEMENT_3D ( 'NONE', #164, #339, #109 ) ;
#238 = AXIS2_PLACEMENT_3D ( 'NONE', #306, #11, #104 ) ;
#239 = FACE_OUTER_BOUND ( 'NONE', #151, .T. ) ;
#240 = PERSON_AND_ORGANIZATION ( #318, #50 ) ;
#241 = UNCERTAINTY_MEASURE_WITH_UNIT (LENGTH_MEASURE( 1.000000000000000082E-05 ), #107, 'distance_accuracy_value', 'NONE');
#242 = DIRECTION ( 'NONE',  ( -1.000000000000000000, 0.000000000000000000, 0.000000000000000000 ) ) ;
#243 = ORIENTED_EDGE ( 'NONE', *, *, #165, .T. ) ;
#244 = AXIS2_PLACEMENT_3D ( 'NONE', #338, #55, #317 ) ;
#245 = CC_DESIGN_APPROVAL ( #287, ( #85 ) ) ;
#246 = CARTESIAN_POINT ( 'NONE',  ( -8.000000000000000000, 0.000000000000000000, 132.0000000000000000 ) ) ;
#247 = EDGE_LOOP ( 'NONE', ( #187, #312 ) ) ;
#248 = EDGE_LOOP ( 'NONE', ( #174, #224, #277, #188 ) ) ;
#249 = DIRECTION ( 'NONE',  ( -0.000000000000000000, -0.000000000000000000, -1.000000000000000000 ) ) ;
#250 = CARTESIAN_POINT ( 'NONE',  ( 8.000000000000000000, 9.797174393178825657E-16, 132.0000000000000000 ) ) ;
#251 = DIRECTION ( 'NONE',  ( 1.000000000000000000, 0.000000000000000000, 0.000000000000000000 ) ) ;
#252 = CC_DESIGN_APPROVAL ( #276, ( #347 ) ) ;
#253 = FACE_OUTER_BOUND ( 'NONE', #212, .T. ) ;
#254 = DIRECTION ( 'NONE',  ( -1.000000000000000000, 0.000000000000000000, 0.000000000000000000 ) ) ;
#255 = ORIENTED_EDGE ( 'NONE', *, *, #118, .T. ) ;
#256 = CARTESIAN_POINT ( 'NONE',  ( 11.00000000000000000, 1.347111479062088405E-15, 0.000000000000000000 ) ) ;
#257 = PERSON_AND_ORGANIZATION ( #318, #50 ) ;
#258 = ORIENTED_EDGE ( 'NONE', *, *, #114, .T. ) ;
#259 = DIRECTION ( 'NONE',  ( 1.000000000000000000, 0.000000000000000000, -0.000000000000000000 ) ) ;
#260 = ORIENTED_EDGE ( 'NONE', *, *, #217, .T. ) ;
#261 = COORDINATED_UNIVERSAL_TIME_OFFSET ( 1, 0, .AHEAD. ) ;
#262 = DIRECTION ( 'NONE',  ( 1.000000000000000000, 0.000000000000000000, 0.000000000000000000 ) ) ;
#263 = CARTESIAN_POINT ( 'NONE',  ( 11.00000000000000000, 1.347111479062088405E-15, 7.000000000000000000 ) ) ;
#264 = AXIS2_PLACEMENT_3D ( 'NONE', #184, #198, #176 ) ;
#265 = CARTESIAN_POINT ( 'NONE',  ( 0.000000000000000000, 0.000000000000000000, 7.699999999999998401 ) ) ;
#266 = CARTESIAN_POINT ( 'NONE',  ( 8.000000000000000000, 9.797174393178825657E-16, 7.699999999999998401 ) ) ;
#267 = PERSON_AND_ORGANIZATION_ROLE ( 'design_supplier' ) ;
#268 = CARTESIAN_POINT ( 'NONE',  ( -8.699999999999999289, 1.065442715258197248E-15, 7.699999999999998401 ) ) ;
#269 = APPROVAL_STATUS ( 'not_yet_approved' ) ;
#270 = APPROVAL_ROLE ( '' ) ;
#271 = AXIS2_PLACEMENT_3D ( 'NONE', #179, #361, #12 ) ;
#272 = CC_DESIGN_SECURITY_CLASSIFICATION ( #362, ( #85 ) ) ;
#273 = ORIENTED_EDGE ( 'NONE', *, *, #371, .F. ) ;
#274 = DIRECTION ( 'NONE',  ( 1.000000000000000000, 0.000000000000000000, -0.000000000000000000 ) ) ;
#275 = ADVANCED_FACE ( 'NONE', ( #232 ), #142, .F. ) ;
#276 = APPROVAL ( #46, 'NEURÈENÝ' ) ;
#277 = ORIENTED_EDGE ( 'NONE', *, *, #21, .T. ) ;
#278 = PRODUCT_DEFINITION_SHAPE ( 'NONE', 'NONE',  #347 ) ;
#279 = AXIS2_PLACEMENT_3D ( 'NONE', #204, #378, #259 ) ;
#280 = DIRECTION ( 'NONE',  ( 0.000000000000000000, 0.000000000000000000, -1.000000000000000000 ) ) ;
#281 = CIRCLE ( 'NONE', #220, 11.00000000000000000 ) ;
#282 = DIRECTION ( 'NONE',  ( -0.000000000000000000, -0.000000000000000000, -1.000000000000000000 ) ) ;
#283 = EDGE_LOOP ( 'NONE', ( #90, #330, #80, #105 ) ) ;
#284 = PLANE ( 'NONE',  #91 ) ;
#285 = EDGE_CURVE ( 'NONE', #375, #150, #294, .T. ) ;
#286 = VECTOR ( 'NONE', #280, 1000.000000000000000 ) ;
#287 = APPROVAL ( #41, 'NEURÈENÝ' ) ;
#288 = AXIS2_PLACEMENT_3D ( 'NONE', #101, #210, #43 ) ;
#289 = CARTESIAN_POINT ( 'NONE',  ( -6.000000000000000888, 0.000000000000000000, 0.000000000000000000 ) ) ;
#290 = EDGE_CURVE ( 'NONE', #47, #136, #230, .T. ) ;
#291 = ORIENTED_EDGE ( 'NONE', *, *, #200, .F. ) ;
#292 = APPROVAL_DATE_TIME ( #170, #135 ) ;
#293 = DATE_AND_TIME ( #100, #356 ) ;
#294 = LINE ( 'NONE', #34, #124 ) ;
#295 = DIRECTION ( 'NONE',  ( 0.000000000000000000, 0.000000000000000000, 1.000000000000000000 ) ) ;
#296 = EDGE_CURVE ( 'NONE', #379, #111, #360, .T. ) ;
#297 = DIRECTION ( 'NONE',  ( 1.000000000000000000, 0.000000000000000000, 0.000000000000000000 ) ) ;
#298 = CARTESIAN_POINT ( 'NONE',  ( 0.000000000000000000, 0.000000000000000000, 7.000000000000000000 ) ) ;
#299 =( NAMED_UNIT ( * ) SI_UNIT ( $, .STERADIAN. ) SOLID_ANGLE_UNIT ( ) );
#300 = CARTESIAN_POINT ( 'NONE',  ( 6.000000000000000888, 7.347880794884120722E-16, 0.000000000000000000 ) ) ;
#301 = SECURITY_CLASSIFICATION_LEVEL ( 'unclassified' ) ;
#302 = LOCAL_TIME ( 11, 0, 5.000000000000000000, #327 ) ;
#303 = MANIFOLD_SOLID_BREP ( 'Odebrat vysunutím3', #193 ) ;
#304 = DIRECTION ( 'NONE',  ( 0.000000000000000000, 0.000000000000000000, 1.000000000000000000 ) ) ;
#305 = PERSON_AND_ORGANIZATION ( #318, #50 ) ;
#306 = CARTESIAN_POINT ( 'NONE',  ( 0.000000000000000000, 0.000000000000000000, 132.0000000000000000 ) ) ;
#307 = PERSON_AND_ORGANIZATION ( #318, #50 ) ;
#308 = EDGE_CURVE ( 'NONE', #129, #358, #42, .T. ) ;
#309 = DIRECTION ( 'NONE',  ( -1.000000000000000000, 1.224646799147353207E-16, 0.000000000000000000 ) ) ;
#310 = DIRECTION ( 'NONE',  ( -0.000000000000000000, -0.000000000000000000, -1.000000000000000000 ) ) ;
#311 = LOCAL_TIME ( 11, 0, 5.000000000000000000, #380 ) ;
#312 = ORIENTED_EDGE ( 'NONE', *, *, #290, .T. ) ;
#313 = CARTESIAN_POINT ( 'NONE',  ( -6.000000000000000888, 0.000000000000000000, 132.0000000000000000 ) ) ;
#314 = CARTESIAN_POINT ( 'NONE',  ( 0.000000000000000000, 0.000000000000000000, 132.0000000000000000 ) ) ;
#315 = PRODUCT_RELATED_PRODUCT_CATEGORY ( 'detail', '', ( #87 ) ) ;
#316 = CIRCLE ( 'NONE', #96, 0.7000000000000000666 ) ;
#317 = DIRECTION ( 'NONE',  ( 1.000000000000000000, 0.000000000000000000, 0.000000000000000000 ) ) ;
#318 = PERSON ( 'NEURÈENÝ', 'NEURÈENÝ', 'NEURÈENÝ', ('NEURÈENÝ'), ('NEURÈENÝ'), ('NEURÈENÝ') ) ;
#319 = ADVANCED_FACE ( 'NONE', ( #48 ), #143, .T. ) ;
#320 = EDGE_LOOP ( 'NONE', ( #115, #64, #243, #260 ) ) ;
#321 = CARTESIAN_POINT ( 'NONE',  ( 0.000000000000000000, 0.000000000000000000, 7.000000000000000000 ) ) ;
#322 = ORIENTED_EDGE ( 'NONE', *, *, #233, .T. ) ;
#323 = CALENDAR_DATE ( 2022, 10, 7 ) ;
#324 = PERSON_AND_ORGANIZATION_ROLE ( 'design_owner' ) ;
#325 = DIRECTION ( 'NONE',  ( -1.000000000000000000, 0.000000000000000000, 0.000000000000000000 ) ) ;
#326 = CARTESIAN_POINT ( 'NONE',  ( 0.000000000000000000, 0.000000000000000000, 0.000000000000000000 ) ) ;
#327 = COORDINATED_UNIVERSAL_TIME_OFFSET ( 1, 0, .AHEAD. ) ;
#328 = CARTESIAN_POINT ( 'NONE',  ( -11.00000000000000000, 0.000000000000000000, 0.000000000000000000 ) ) ;
#329 = CARTESIAN_POINT ( 'NONE',  ( -8.699999999999999289, 1.065442715258197248E-15, 6.999999999999999112 ) ) ;
#330 = ORIENTED_EDGE ( 'NONE', *, *, #21, .F. ) ;
#331 = ORIENTED_EDGE ( 'NONE', *, *, #296, .T. ) ;
#332 = VECTOR ( 'NONE', #249, 1000.000000000000000 ) ;
#333 = CIRCLE ( 'NONE', #189, 8.000000000000000000 ) ;
#334 = CALENDAR_DATE ( 2022, 10, 7 ) ;
#335 = DIRECTION ( 'NONE',  ( 1.000000000000000000, 0.000000000000000000, 0.000000000000000000 ) ) ;
#336 = APPROVAL_PERSON_ORGANIZATION ( #257, #276, #231 ) ;
#337 = CARTESIAN_POINT ( 'NONE',  ( 8.000000000000000000, 9.797174393178825657E-16, 132.0000000000000000 ) ) ;
#338 = CARTESIAN_POINT ( 'NONE',  ( 0.000000000000000000, 0.000000000000000000, 7.699999999999998401 ) ) ;
#339 = DIRECTION ( 'NONE',  ( 0.000000000000000000, 0.000000000000000000, -1.000000000000000000 ) ) ;
#340 = EDGE_LOOP ( 'NONE', ( #69, #344, #15, #106 ) ) ;
#341 = EDGE_LOOP ( 'NONE', ( #45, #273 ) ) ;
#342 = CARTESIAN_POINT ( 'NONE',  ( 0.000000000000000000, 0.000000000000000000, 132.0000000000000000 ) ) ;
#343 = VERTEX_POINT ( 'NONE', #27 ) ;
#344 = ORIENTED_EDGE ( 'NONE', *, *, #223, .T. ) ;
#345 = DATE_AND_TIME ( #349, #133 ) ;
#346 = EDGE_CURVE ( 'NONE', #7, #19, #57, .T. ) ;
#347 = PRODUCT_DEFINITION ( 'NEZNÁMÝ', '', #85, #18 ) ;
#348 = ORIENTED_EDGE ( 'NONE', *, *, #285, .T. ) ;
#349 = CALENDAR_DATE ( 2022, 10, 7 ) ;
#350 = CARTESIAN_POINT ( 'NONE',  ( 0.000000000000000000, 0.000000000000000000, 7.000000000000000000 ) ) ;
#351 = COORDINATED_UNIVERSAL_TIME_OFFSET ( 1, 0, .AHEAD. ) ;
#352 = DIRECTION ( 'NONE',  ( 0.000000000000000000, 0.000000000000000000, 1.000000000000000000 ) ) ;
#353 = CARTESIAN_POINT ( 'NONE',  ( -11.00000000000000000, 0.000000000000000000, 7.000000000000000000 ) ) ;
#354 = ORIENTED_EDGE ( 'NONE', *, *, #81, .F. ) ;
#355 = EDGE_LOOP ( 'NONE', ( #381, #291, #331, #258 ) ) ;
#356 = LOCAL_TIME ( 11, 0, 5.000000000000000000, #261 ) ;
#357 = DIRECTION ( 'NONE',  ( 1.000000000000000000, 0.000000000000000000, 0.000000000000000000 ) ) ;
#358 = VERTEX_POINT ( 'NONE', #289 ) ;
#359 = PERSON_AND_ORGANIZATION_ROLE ( 'creator' ) ;
#360 = LINE ( 'NONE', #158, #31 ) ;
#361 = DIRECTION ( 'NONE',  ( -0.000000000000000000, -0.000000000000000000, -1.000000000000000000 ) ) ;
#362 = SECURITY_CLASSIFICATION ( '', '', #301 ) ;
#363 = ADVANCED_FACE ( 'NONE', ( #377, #221 ), #284, .F. ) ;
#364 = DIRECTION ( 'NONE',  ( 1.000000000000000000, 0.000000000000000000, 0.000000000000000000 ) ) ;
#365 = PLANE ( 'NONE',  #70 ) ;
#366 = AXIS2_PLACEMENT_3D ( 'NONE', #36, #141, #262 ) ;
#367 = EDGE_CURVE ( 'NONE', #130, #19, #316, .T. ) ;
#368 = AXIS2_PLACEMENT_3D ( 'NONE', #6, #304, #357 ) ;
#369 = CARTESIAN_POINT ( 'NONE',  ( -8.000000000000000000, 0.000000000000000000, 7.699999999999998401 ) ) ;
#370 = DIRECTION ( 'NONE',  ( -0.000000000000000000, -0.000000000000000000, -1.000000000000000000 ) ) ;
#371 = EDGE_CURVE ( 'NONE', #150, #111, #281, .T. ) ;
#372 = CYLINDRICAL_SURFACE ( 'NONE', #49, 11.00000000000000000 ) ;
#373 = EDGE_LOOP ( 'NONE', ( #88, #134 ) ) ;
#374 = CIRCLE ( 'NONE', #35, 8.699999999999999289 ) ;
#375 = VERTEX_POINT ( 'NONE', #263 ) ;
#376 = TOROIDAL_SURFACE ( 'NONE', #368, 8.699999999999999289, 0.6999999999999999556 ) ;
#377 = FACE_BOUND ( 'NONE', #373, .T. ) ;
#378 = DIRECTION ( 'NONE',  ( 0.000000000000000000, 0.000000000000000000, 1.000000000000000000 ) ) ;
#379 = VERTEX_POINT ( 'NONE', #353 ) ;
#380 = COORDINATED_UNIVERSAL_TIME_OFFSET ( 1, 0, .AHEAD. ) ;
#381 = ORIENTED_EDGE ( 'NONE', *, *, #285, .F. ) ;
ENDSEC;
END-ISO-10303-21;
