ISO-10303-21;
HEADER;
FILE_DESCRIPTION (( 'STEP AP203' ),
    '1' );
FILE_NAME ('b6a5.STEP',
    '2022-07-10T09:18:06',
    ( '' ),
    ( '' ),
    'SwSTEP 2.0',
    'SolidWorks 2019',
    '' );
FILE_SCHEMA (( 'CONFIG_CONTROL_DESIGN' ));
ENDSEC;

DATA;
#1 = CARTESIAN_POINT ( 'NONE',  ( 0.000000000000000000, 0.000000000000000000, 3.000000000000000000 ) ) ;
#2 = EDGE_LOOP ( 'NONE', ( #103, #123 ) ) ;
#3 = ADVANCED_FACE ( 'NONE', ( #13 ), #42, .F. ) ;
#4 = CARTESIAN_POINT ( 'NONE',  ( 2.799999999999999822, 0.000000000000000000, 3.299999999999997158 ) ) ;
#5 = EDGE_CURVE ( 'NONE', #149, #44, #304, .T. ) ;
#6 = VERTEX_POINT ( 'NONE', #237 ) ;
#7 = DIRECTION ( 'NONE',  ( -0.000000000000000000, -0.000000000000000000, -1.000000000000000000 ) ) ;
#8 = ORIENTED_EDGE ( 'NONE', *, *, #252, .T. ) ;
#9 = PRODUCT_DEFINITION_FORMATION_WITH_SPECIFIED_SOURCE ( 'LIBOVOLNÝ', '', #351, .NOT_KNOWN. ) ;
#10 = DIRECTION ( 'NONE',  ( -0.000000000000000000, -0.000000000000000000, -1.000000000000000000 ) ) ;
#11 = PLANE ( 'NONE',  #99 ) ;
#12 = DIRECTION ( 'NONE',  ( -0.000000000000000000, -0.000000000000000000, -1.000000000000000000 ) ) ;
#13 = FACE_OUTER_BOUND ( 'NONE', #178, .T. ) ;
#14 = CIRCLE ( 'NONE', #101, 5.000000000000000000 ) ;
#15 = ADVANCED_FACE ( 'NONE', ( #137 ), #335, .F. ) ;
#16 = CARTESIAN_POINT ( 'NONE',  ( 0.000000000000000000, 0.000000000000000000, 3.000000000000000000 ) ) ;
#17 = DIRECTION ( 'NONE',  ( 0.000000000000000000, 0.000000000000000000, 1.000000000000000000 ) ) ;
#18 = AXIS2_PLACEMENT_3D ( 'NONE', #82, #76, #270 ) ;
#19 = DIRECTION ( 'NONE',  ( 0.000000000000000000, 0.000000000000000000, 1.000000000000000000 ) ) ;
#20 = AXIS2_PLACEMENT_3D ( 'NONE', #332, #100, #34 ) ;
#21 = LOCAL_TIME ( 11, 18, 6.000000000000000000, #346 ) ;
#22 = MANIFOLD_SOLID_BREP ( 'Odebrat vysunutím3', #272 ) ;
#23 = CARTESIAN_POINT ( 'NONE',  ( 2.500000000000000000, 3.061616997868383141E-16, 3.299999999999997158 ) ) ;
#24 = DIRECTION ( 'NONE',  ( 1.000000000000000000, 0.000000000000000000, 0.000000000000000000 ) ) ;
#25 = CALENDAR_DATE ( 2022, 10, 7 ) ;
#26 = DIRECTION ( 'NONE',  ( 0.000000000000000000, 0.000000000000000000, 1.000000000000000000 ) ) ;
#27 = APPROVAL_ROLE ( '' ) ;
#28 = DIRECTION ( 'NONE',  ( 0.000000000000000000, 0.000000000000000000, 1.000000000000000000 ) ) ;
#29 = FACE_BOUND ( 'NONE', #98, .T. ) ;
#30 = ORIENTED_EDGE ( 'NONE', *, *, #301, .F. ) ;
#31 = PERSON_AND_ORGANIZATION ( #186, #369 ) ;
#32 = CIRCLE ( 'NONE', #232, 2.500000000000000000 ) ;
#33 = ORIENTED_EDGE ( 'NONE', *, *, #256, .T. ) ;
#34 = DIRECTION ( 'NONE',  ( 1.000000000000000000, 0.000000000000000000, -0.000000000000000000 ) ) ;
#35 = ORIENTED_EDGE ( 'NONE', *, *, #87, .T. ) ;
#36 = LINE ( 'NONE', #148, #225 ) ;
#37 = ORIENTED_EDGE ( 'NONE', *, *, #188, .F. ) ;
#38 = CARTESIAN_POINT ( 'NONE',  ( -1.500000000000000222, 0.000000000000000000, 0.000000000000000000 ) ) ;
#39 = ORIENTED_EDGE ( 'NONE', *, *, #301, .T. ) ;
#40 = AXIS2_PLACEMENT_3D ( 'NONE', #132, #208, #155 ) ;
#41 = APPROVAL_PERSON_ORGANIZATION ( #313, #314, #27 ) ;
#42 = CYLINDRICAL_SURFACE ( 'NONE', #113, 1.500000000000000222 ) ;
#43 = AXIS2_PLACEMENT_3D ( 'NONE', #16, #10, #363 ) ;
#44 = VERTEX_POINT ( 'NONE', #239 ) ;
#45 = CARTESIAN_POINT ( 'NONE',  ( 0.000000000000000000, 0.000000000000000000, 0.000000000000000000 ) ) ;
#46 = CC_DESIGN_DATE_AND_TIME_ASSIGNMENT ( #90, #251, ( #299 ) ) ;
#47 = VECTOR ( 'NONE', #193, 1000.000000000000000 ) ;
#48 =( LENGTH_UNIT ( ) NAMED_UNIT ( * ) SI_UNIT ( .MILLI., .METRE. ) );
#49 = AXIS2_PLACEMENT_3D ( 'NONE', #316, #321, #60 ) ;
#50 = CARTESIAN_POINT ( 'NONE',  ( 0.000000000000000000, 0.000000000000000000, 103.0000000000000142 ) ) ;
#51 = ORIENTED_EDGE ( 'NONE', *, *, #58, .F. ) ;
#52 = CALENDAR_DATE ( 2022, 10, 7 ) ;
#53 = FACE_OUTER_BOUND ( 'NONE', #344, .T. ) ;
#54 = CIRCLE ( 'NONE', #115, 2.500000000000000000 ) ;
#55 = VERTEX_POINT ( 'NONE', #190 ) ;
#56 = APPROVAL_STATUS ( 'not_yet_approved' ) ;
#57 = DIRECTION ( 'NONE',  ( 1.000000000000000000, 0.000000000000000000, 0.000000000000000000 ) ) ;
#58 = EDGE_CURVE ( 'NONE', #381, #55, #161, .T. ) ;
#59 = EDGE_LOOP ( 'NONE', ( #323, #328 ) ) ;
#60 = DIRECTION ( 'NONE',  ( 1.000000000000000000, 0.000000000000000000, 0.000000000000000000 ) ) ;
#61 = APPROVAL ( #342, 'NEURÈENÝ' ) ;
#62 = AXIS2_PLACEMENT_3D ( 'NONE', #268, #17, #216 ) ;
#63 = CC_DESIGN_APPROVAL ( #314, ( #246 ) ) ;
#64 = VERTEX_POINT ( 'NONE', #134 ) ;
#65 = CARTESIAN_POINT ( 'NONE',  ( 0.000000000000000000, 0.000000000000000000, 0.000000000000000000 ) ) ;
#66 = ORIENTED_EDGE ( 'NONE', *, *, #138, .T. ) ;
#67 = EDGE_CURVE ( 'NONE', #149, #293, #243, .T. ) ;
#68 = DIRECTION ( 'NONE',  ( -1.000000000000000000, 0.000000000000000000, 0.000000000000000000 ) ) ;
#69 = EDGE_LOOP ( 'NONE', ( #96, #51, #357, #319 ) ) ;
#70 = DIRECTION ( 'NONE',  ( 0.000000000000000000, 0.000000000000000000, 1.000000000000000000 ) ) ;
#71 = DIRECTION ( 'NONE',  ( -0.000000000000000000, -0.000000000000000000, -1.000000000000000000 ) ) ;
#72 = AXIS2_PLACEMENT_3D ( 'NONE', #91, #379, #221 ) ;
#73 = DIRECTION ( 'NONE',  ( 0.000000000000000000, 0.000000000000000000, 1.000000000000000000 ) ) ;
#74 = DIRECTION ( 'NONE',  ( 0.000000000000000000, 0.000000000000000000, 1.000000000000000000 ) ) ;
#75 = LINE ( 'NONE', #187, #331 ) ;
#76 = DIRECTION ( 'NONE',  ( 0.000000000000000000, 0.000000000000000000, -1.000000000000000000 ) ) ;
#77 = AXIS2_PLACEMENT_3D ( 'NONE', #45, #305, #189 ) ;
#78 = CC_DESIGN_SECURITY_CLASSIFICATION ( #246, ( #9 ) ) ;
#79 = DESIGN_CONTEXT ( 'detailed design', #302, 'design' ) ;
#80 = EDGE_CURVE ( 'NONE', #296, #64, #201, .T. ) ;
#81 = CYLINDRICAL_SURFACE ( 'NONE', #306, 2.500000000000000000 ) ;
#82 = CARTESIAN_POINT ( 'NONE',  ( 0.000000000000000000, 0.000000000000000000, 103.0000000000000142 ) ) ;
#83 = APPROVAL_ROLE ( '' ) ;
#84 = CIRCLE ( 'NONE', #269, 2.500000000000000000 ) ;
#85 = AXIS2_PLACEMENT_3D ( 'NONE', #362, #174, #334 ) ;
#86 = ORIENTED_EDGE ( 'NONE', *, *, #252, .F. ) ;
#87 = EDGE_CURVE ( 'NONE', #202, #296, #254, .T. ) ;
#88 = CALENDAR_DATE ( 2022, 10, 7 ) ;
#89 = EDGE_CURVE ( 'NONE', #55, #359, #209, .T. ) ;
#90 = DATE_AND_TIME ( #219, #168 ) ;
#91 = CARTESIAN_POINT ( 'NONE',  ( 0.000000000000000000, 0.000000000000000000, 3.000000000000000000 ) ) ;
#92 = APPROVAL_DATE_TIME ( #140, #61 ) ;
#93 = CYLINDRICAL_SURFACE ( 'NONE', #291, 5.000000000000000000 ) ;
#94 = COORDINATED_UNIVERSAL_TIME_OFFSET ( 1, 0, .AHEAD. ) ;
#95 = CARTESIAN_POINT ( 'NONE',  ( 0.000000000000000000, 0.000000000000000000, 103.0000000000000142 ) ) ;
#96 = ORIENTED_EDGE ( 'NONE', *, *, #89, .F. ) ;
#97 = CARTESIAN_POINT ( 'NONE',  ( -5.000000000000000000, 0.000000000000000000, 3.000000000000000000 ) ) ;
#98 = EDGE_LOOP ( 'NONE', ( #86, #129 ) ) ;
#99 = AXIS2_PLACEMENT_3D ( 'NONE', #367, #74, #283 ) ;
#100 = DIRECTION ( 'NONE',  ( 0.000000000000000000, 0.000000000000000000, 1.000000000000000000 ) ) ;
#101 = AXIS2_PLACEMENT_3D ( 'NONE', #233, #292, #366 ) ;
#102 = ORIENTED_EDGE ( 'NONE', *, *, #80, .F. ) ;
#103 = ORIENTED_EDGE ( 'NONE', *, *, #58, .T. ) ;
#104 = CARTESIAN_POINT ( 'NONE',  ( 0.000000000000000000, 0.000000000000000000, 103.0000000000000142 ) ) ;
#105 = DIRECTION ( 'NONE',  ( -1.000000000000000000, 1.224646799147353207E-16, 0.000000000000000000 ) ) ;
#106 = CC_DESIGN_PERSON_AND_ORGANIZATION_ASSIGNMENT ( #350, #378, ( #351 ) ) ;
#107 = LINE ( 'NONE', #241, #122 ) ;
#108 = TOROIDAL_SURFACE ( 'NONE', #62, 2.799999999999999822, 0.2999999999999999889 ) ;
#109 = DIRECTION ( 'NONE',  ( -0.000000000000000000, -0.000000000000000000, -1.000000000000000000 ) ) ;
#110 = CARTESIAN_POINT ( 'NONE',  ( 0.000000000000000000, 0.000000000000000000, 103.0000000000000142 ) ) ;
#111 = LOCAL_TIME ( 11, 18, 6.000000000000000000, #167 ) ;
#112 = DIRECTION ( 'NONE',  ( 0.000000000000000000, 0.000000000000000000, 1.000000000000000000 ) ) ;
#113 = AXIS2_PLACEMENT_3D ( 'NONE', #110, #213, #341 ) ;
#114 = COORDINATED_UNIVERSAL_TIME_OFFSET ( 1, 0, .AHEAD. ) ;
#115 = AXIS2_PLACEMENT_3D ( 'NONE', #300, #19, #135 ) ;
#116 = ADVANCED_FACE ( 'NONE', ( #154, #266 ), #11, .T. ) ;
#117 = CYLINDRICAL_SURFACE ( 'NONE', #215, 2.500000000000000000 ) ;
#118 = DATE_AND_TIME ( #377, #205 ) ;
#119 = PRODUCT_RELATED_PRODUCT_CATEGORY ( 'detail', '', ( #351 ) ) ;
#120 = DIRECTION ( 'NONE',  ( 1.000000000000000000, 0.000000000000000000, 0.000000000000000000 ) ) ;
#121 = FACE_OUTER_BOUND ( 'NONE', #160, .T. ) ;
#122 = VECTOR ( 'NONE', #109, 1000.000000000000000 ) ;
#123 = ORIENTED_EDGE ( 'NONE', *, *, #339, .T. ) ;
#124 = DIRECTION ( 'NONE',  ( -0.000000000000000000, -0.000000000000000000, -1.000000000000000000 ) ) ;
#125 = EDGE_LOOP ( 'NONE', ( #145, #199, #229, #102 ) ) ;
#126 = ORIENTED_EDGE ( 'NONE', *, *, #364, .T. ) ;
#127 = FACE_OUTER_BOUND ( 'NONE', #197, .T. ) ;
#128 = LOCAL_TIME ( 11, 18, 6.000000000000000000, #114 ) ;
#129 = ORIENTED_EDGE ( 'NONE', *, *, #349, .F. ) ;
#130 = APPLICATION_CONTEXT ( 'configuration controlled 3d designs of mechanical parts and assemblies' ) ;
#131 = ORIENTED_EDGE ( 'NONE', *, *, #200, .F. ) ;
#132 = CARTESIAN_POINT ( 'NONE',  ( 0.000000000000000000, 0.000000000000000000, 3.000000000000000000 ) ) ;
#133 = DIRECTION ( 'NONE',  ( 1.000000000000000000, 0.000000000000000000, 0.000000000000000000 ) ) ;
#134 = CARTESIAN_POINT ( 'NONE',  ( 2.799999999999999822, 0.000000000000000000, 2.999999999999998668 ) ) ;
#135 = DIRECTION ( 'NONE',  ( 1.000000000000000000, 0.000000000000000000, 0.000000000000000000 ) ) ;
#136 = AXIS2_PLACEMENT_3D ( 'NONE', #267, #12, #183 ) ;
#137 = FACE_OUTER_BOUND ( 'NONE', #361, .T. ) ;
#138 = EDGE_CURVE ( 'NONE', #206, #286, #262, .T. ) ;
#139 = AXIS2_PLACEMENT_3D ( 'NONE', #95, #26, #57 ) ;
#140 = DATE_AND_TIME ( #25, #128 ) ;
#141 = PERSON_AND_ORGANIZATION ( #186, #369 ) ;
#142 = PLANE ( 'NONE',  #192 ) ;
#143 = PERSON_AND_ORGANIZATION_ROLE ( 'design_supplier' ) ;
#144 = DIRECTION ( 'NONE',  ( 0.000000000000000000, 0.000000000000000000, 1.000000000000000000 ) ) ;
#145 = ORIENTED_EDGE ( 'NONE', *, *, #87, .F. ) ;
#146 = CARTESIAN_POINT ( 'NONE',  ( -1.500000000000000222, 0.000000000000000000, 103.0000000000000142 ) ) ;
#147 = ORIENTED_EDGE ( 'NONE', *, *, #297, .T. ) ;
#148 = CARTESIAN_POINT ( 'NONE',  ( -2.500000000000000000, 0.000000000000000000, 103.0000000000000142 ) ) ;
#149 = VERTEX_POINT ( 'NONE', #97 ) ;
#150 = DIRECTION ( 'NONE',  ( 1.000000000000000000, 0.000000000000000000, 0.000000000000000000 ) ) ;
#151 = CC_DESIGN_APPROVAL ( #61, ( #299 ) ) ;
#152 = EDGE_LOOP ( 'NONE', ( #231, #172 ) ) ;
#153 = ADVANCED_FACE ( 'NONE', ( #121 ), #375, .T. ) ;
#154 = FACE_BOUND ( 'NONE', #227, .T. ) ;
#155 = DIRECTION ( 'NONE',  ( 1.000000000000000000, 0.000000000000000000, 0.000000000000000000 ) ) ;
#156 = ADVANCED_FACE ( 'NONE', ( #198 ), #315, .F. ) ;
#157 = EDGE_LOOP ( 'NONE', ( #181, #263, #223, #355 ) ) ;
#158 =( NAMED_UNIT ( * ) SI_UNIT ( $, .STERADIAN. ) SOLID_ANGLE_UNIT ( ) );
#159 = CIRCLE ( 'NONE', #77, 1.500000000000000222 ) ;
#160 = EDGE_LOOP ( 'NONE', ( #184, #247, #33, #309 ) ) ;
#161 = CIRCLE ( 'NONE', #373, 2.500000000000000000 ) ;
#162 =( NAMED_UNIT ( * ) PLANE_ANGLE_UNIT ( ) SI_UNIT ( $, .RADIAN. ) );
#163 = DIRECTION ( 'NONE',  ( 1.224646799147353207E-16, 1.000000000000000000, -0.000000000000000000 ) ) ;
#164 = PERSON_AND_ORGANIZATION ( #186, #369 ) ;
#165 = APPROVAL_STATUS ( 'not_yet_approved' ) ;
#166 = CARTESIAN_POINT ( 'NONE',  ( 0.000000000000000000, 0.000000000000000000, 103.0000000000000142 ) ) ;
#167 = COORDINATED_UNIVERSAL_TIME_OFFSET ( 1, 0, .AHEAD. ) ;
#168 = LOCAL_TIME ( 11, 18, 6.000000000000000000, #94 ) ;
#169 = DIRECTION ( 'NONE',  ( 0.000000000000000000, 0.000000000000000000, 1.000000000000000000 ) ) ;
#170 = ORIENTED_EDGE ( 'NONE', *, *, #200, .T. ) ;
#171 = ADVANCED_FACE ( 'NONE', ( #29, #288 ), #142, .F. ) ;
#172 = ORIENTED_EDGE ( 'NONE', *, *, #256, .F. ) ;
#173 = AXIS2_PLACEMENT_3D ( 'NONE', #4, #235, #368 ) ;
#174 = DIRECTION ( 'NONE',  ( 0.000000000000000000, 0.000000000000000000, 1.000000000000000000 ) ) ;
#175 = ADVANCED_FACE ( 'NONE', ( #53 ), #93, .T. ) ;
#176 = ORIENTED_EDGE ( 'NONE', *, *, #67, .T. ) ;
#177 = DIRECTION ( 'NONE',  ( 1.000000000000000000, 0.000000000000000000, 0.000000000000000000 ) ) ;
#178 = EDGE_LOOP ( 'NONE', ( #207, #66, #353, #8 ) ) ;
#179 = CC_DESIGN_PERSON_AND_ORGANIZATION_ASSIGNMENT ( #164, #275, ( #246 ) ) ;
#180 = CARTESIAN_POINT ( 'NONE',  ( 5.000000000000000000, 6.123233995736766282E-16, 0.000000000000000000 ) ) ;
#181 = ORIENTED_EDGE ( 'NONE', *, *, #339, .F. ) ;
#182 = AXIS2_PLACEMENT_3D ( 'NONE', #333, #372, #24 ) ;
#183 = DIRECTION ( 'NONE',  ( 1.000000000000000000, 0.000000000000000000, 0.000000000000000000 ) ) ;
#184 = ORIENTED_EDGE ( 'NONE', *, *, #236, .F. ) ;
#185 = DIRECTION ( 'NONE',  ( 0.000000000000000000, 0.000000000000000000, 1.000000000000000000 ) ) ;
#186 = PERSON ( 'NEURÈENÝ', 'NEURÈENÝ', 'NEURÈENÝ', ('NEURÈENÝ'), ('NEURÈENÝ'), ('NEURÈENÝ') ) ;
#187 = CARTESIAN_POINT ( 'NONE',  ( 1.500000000000000222, 1.836970198721030181E-16, 103.0000000000000142 ) ) ;
#188 = EDGE_CURVE ( 'NONE', #202, #359, #32, .T. ) ;
#189 = DIRECTION ( 'NONE',  ( 1.000000000000000000, 0.000000000000000000, 0.000000000000000000 ) ) ;
#190 = CARTESIAN_POINT ( 'NONE',  ( 2.500000000000000000, 3.061616997868383141E-16, 103.0000000000000142 ) ) ;
#191 = ADVANCED_FACE ( 'NONE', ( #248 ), #117, .T. ) ;
#192 = AXIS2_PLACEMENT_3D ( 'NONE', #195, #144, #356 ) ;
#193 = DIRECTION ( 'NONE',  ( -0.000000000000000000, -0.000000000000000000, -1.000000000000000000 ) ) ;
#194 = DATE_TIME_ROLE ( 'classification_date' ) ;
#195 = CARTESIAN_POINT ( 'NONE',  ( 0.000000000000000000, 0.000000000000000000, 0.000000000000000000 ) ) ;
#196 = CC_DESIGN_APPROVAL ( #290, ( #9 ) ) ;
#197 = EDGE_LOOP ( 'NONE', ( #37, #35, #131, #265 ) ) ;
#198 = FACE_OUTER_BOUND ( 'NONE', #125, .T. ) ;
#199 = ORIENTED_EDGE ( 'NONE', *, *, #250, .F. ) ;
#200 = EDGE_CURVE ( 'NONE', #64, #296, #345, .T. ) ;
#201 = CIRCLE ( 'NONE', #43, 2.799999999999999822 ) ;
#202 = VERTEX_POINT ( 'NONE', #238 ) ;
#203 = VECTOR ( 'NONE', #308, 1000.000000000000000 ) ;
#204 = CARTESIAN_POINT ( 'NONE',  ( -5.000000000000000000, 0.000000000000000000, 0.000000000000000000 ) ) ;
#205 = LOCAL_TIME ( 11, 18, 6.000000000000000000, #249 ) ;
#206 = VERTEX_POINT ( 'NONE', #294 ) ;
#207 = ORIENTED_EDGE ( 'NONE', *, *, #364, .F. ) ;
#208 = DIRECTION ( 'NONE',  ( -0.000000000000000000, -0.000000000000000000, -1.000000000000000000 ) ) ;
#209 = LINE ( 'NONE', #329, #214 ) ;
#210 = APPROVAL_PERSON_ORGANIZATION ( #374, #61, #83 ) ;
#211 = FACE_OUTER_BOUND ( 'NONE', #59, .T. ) ;
#212 = APPLICATION_PROTOCOL_DEFINITION ( 'international standard', 'config_control_design', 1994, #130 ) ;
#213 = DIRECTION ( 'NONE',  ( 0.000000000000000000, 0.000000000000000000, -1.000000000000000000 ) ) ;
#214 = VECTOR ( 'NONE', #71, 1000.000000000000000 ) ;
#215 = AXIS2_PLACEMENT_3D ( 'NONE', #166, #279, #68 ) ;
#216 = DIRECTION ( 'NONE',  ( 1.000000000000000000, 0.000000000000000000, 0.000000000000000000 ) ) ;
#217 = CARTESIAN_POINT ( 'NONE',  ( -5.000000000000000000, 0.000000000000000000, 3.000000000000000000 ) ) ;
#218 = AXIS2_PLACEMENT_3D ( 'NONE', #104, #73, #177 ) ;
#219 = CALENDAR_DATE ( 2022, 10, 7 ) ;
#220 = EDGE_CURVE ( 'NONE', #359, #64, #258, .T. ) ;
#221 = DIRECTION ( 'NONE',  ( -1.000000000000000000, 0.000000000000000000, 0.000000000000000000 ) ) ;
#222 = CC_DESIGN_PERSON_AND_ORGANIZATION_ASSIGNMENT ( #31, #143, ( #9 ) ) ;
#223 = ORIENTED_EDGE ( 'NONE', *, *, #250, .T. ) ;
#224 = APPROVAL_ROLE ( '' ) ;
#225 = VECTOR ( 'NONE', #7, 1000.000000000000000 ) ;
#226 = CARTESIAN_POINT ( 'NONE',  ( 0.000000000000000000, 0.000000000000000000, 3.299999999999997158 ) ) ;
#227 = EDGE_LOOP ( 'NONE', ( #30, #298 ) ) ;
#228 = DIRECTION ( 'NONE',  ( 1.000000000000000000, 0.000000000000000000, 0.000000000000000000 ) ) ;
#229 = ORIENTED_EDGE ( 'NONE', *, *, #220, .T. ) ;
#230 = CC_DESIGN_PERSON_AND_ORGANIZATION_ASSIGNMENT ( #281, #310, ( #299 ) ) ;
#231 = ORIENTED_EDGE ( 'NONE', *, *, #297, .F. ) ;
#232 = AXIS2_PLACEMENT_3D ( 'NONE', #226, #169, #228 ) ;
#233 = CARTESIAN_POINT ( 'NONE',  ( 0.000000000000000000, 0.000000000000000000, 3.000000000000000000 ) ) ;
#234 = VERTEX_POINT ( 'NONE', #38 ) ;
#235 = DIRECTION ( 'NONE',  ( 0.000000000000000000, -1.000000000000000000, 0.000000000000000000 ) ) ;
#236 = EDGE_CURVE ( 'NONE', #44, #149, #14, .T. ) ;
#237 = CARTESIAN_POINT ( 'NONE',  ( 1.500000000000000222, 1.836970198721030181E-16, 0.000000000000000000 ) ) ;
#238 = CARTESIAN_POINT ( 'NONE',  ( -2.500000000000000000, 0.000000000000000000, 3.299999999999997158 ) ) ;
#239 = CARTESIAN_POINT ( 'NONE',  ( 5.000000000000000000, 6.123233995736766282E-16, 3.000000000000000000 ) ) ;
#240 = CC_DESIGN_PERSON_AND_ORGANIZATION_ASSIGNMENT ( #354, #287, ( #9 ) ) ;
#241 = CARTESIAN_POINT ( 'NONE',  ( 5.000000000000000000, 6.123233995736766282E-16, 3.000000000000000000 ) ) ;
#242 = CIRCLE ( 'NONE', #85, 5.000000000000000000 ) ;
#243 = LINE ( 'NONE', #217, #47 ) ;
#244 = DIRECTION ( 'NONE',  ( 0.000000000000000000, 0.000000000000000000, -1.000000000000000000 ) ) ;
#245 = LINE ( 'NONE', #370, #203 ) ;
#246 = SECURITY_CLASSIFICATION ( '', '', #257 ) ;
#247 = ORIENTED_EDGE ( 'NONE', *, *, #284, .T. ) ;
#248 = FACE_OUTER_BOUND ( 'NONE', #69, .T. ) ;
#249 = COORDINATED_UNIVERSAL_TIME_OFFSET ( 1, 0, .AHEAD. ) ;
#250 = EDGE_CURVE ( 'NONE', #359, #202, #84, .T. ) ;
#251 = DATE_TIME_ROLE ( 'creation_date' ) ;
#252 = EDGE_CURVE ( 'NONE', #234, #6, #376, .T. ) ;
#253 = DATE_AND_TIME ( #52, #111 ) ;
#254 = CIRCLE ( 'NONE', #289, 0.2999999999999999334 ) ;
#255 = VERTEX_POINT ( 'NONE', #180 ) ;
#256 = EDGE_CURVE ( 'NONE', #255, #293, #242, .T. ) ;
#257 = SECURITY_CLASSIFICATION_LEVEL ( 'unclassified' ) ;
#258 = CIRCLE ( 'NONE', #173, 0.2999999999999999334 ) ;
#259 = ORIENTED_EDGE ( 'NONE', *, *, #80, .T. ) ;
#260 = ORIENTED_EDGE ( 'NONE', *, *, #5, .F. ) ;
#261 = PLANE ( 'NONE',  #20 ) ;
#262 = CIRCLE ( 'NONE', #139, 1.500000000000000222 ) ;
#263 = ORIENTED_EDGE ( 'NONE', *, *, #89, .T. ) ;
#264 = APPROVAL_PERSON_ORGANIZATION ( #141, #290, #224 ) ;
#265 = ORIENTED_EDGE ( 'NONE', *, *, #220, .F. ) ;
#266 = FACE_OUTER_BOUND ( 'NONE', #2, .T. ) ;
#267 = CARTESIAN_POINT ( 'NONE',  ( 0.000000000000000000, 0.000000000000000000, 0.000000000000000000 ) ) ;
#268 = CARTESIAN_POINT ( 'NONE',  ( 0.000000000000000000, 0.000000000000000000, 3.299999999999997158 ) ) ;
#269 = AXIS2_PLACEMENT_3D ( 'NONE', #358, #70, #360 ) ;
#270 = DIRECTION ( 'NONE',  ( -1.000000000000000000, 0.000000000000000000, 0.000000000000000000 ) ) ;
#271 = FACE_OUTER_BOUND ( 'NONE', #157, .T. ) ;
#272 = CLOSED_SHELL ( 'NONE', ( #15, #336, #371, #153, #175, #285, #171, #191, #116, #156, #3 ) ) ;
#273 = DIRECTION ( 'NONE',  ( -0.000000000000000000, -0.000000000000000000, -1.000000000000000000 ) ) ;
#274 = CARTESIAN_POINT ( 'NONE',  ( 0.000000000000000000, 0.000000000000000000, 103.0000000000000142 ) ) ;
#275 = PERSON_AND_ORGANIZATION_ROLE ( 'classification_officer' ) ;
#276 = DIRECTION ( 'NONE',  ( -1.000000000000000000, 0.000000000000000000, 0.000000000000000000 ) ) ;
#277 = ORIENTED_EDGE ( 'NONE', *, *, #349, .T. ) ;
#278 = DATE_AND_TIME ( #88, #21 ) ;
#279 = DIRECTION ( 'NONE',  ( -0.000000000000000000, -0.000000000000000000, -1.000000000000000000 ) ) ;
#280 =( GEOMETRIC_REPRESENTATION_CONTEXT ( 3 ) GLOBAL_UNCERTAINTY_ASSIGNED_CONTEXT ( ( #295 ) ) GLOBAL_UNIT_ASSIGNED_CONTEXT ( ( #48, #162, #158 ) ) REPRESENTATION_CONTEXT ( 'NONE', 'WORKASPACE' ) );
#281 = PERSON_AND_ORGANIZATION ( #186, #369 ) ;
#282 = PRODUCT_DEFINITION_SHAPE ( 'NONE', 'NONE',  #299 ) ;
#283 = DIRECTION ( 'NONE',  ( 1.000000000000000000, 0.000000000000000000, -0.000000000000000000 ) ) ;
#284 = EDGE_CURVE ( 'NONE', #44, #255, #107, .T. ) ;
#285 = ADVANCED_FACE ( 'NONE', ( #327, #211 ), #261, .T. ) ;
#286 = VERTEX_POINT ( 'NONE', #146 ) ;
#287 = PERSON_AND_ORGANIZATION_ROLE ( 'creator' ) ;
#288 = FACE_OUTER_BOUND ( 'NONE', #152, .T. ) ;
#289 = AXIS2_PLACEMENT_3D ( 'NONE', #311, #163, #105 ) ;
#290 = APPROVAL ( #56, 'NEURÈENÝ' ) ;
#291 = AXIS2_PLACEMENT_3D ( 'NONE', #1, #124, #276 ) ;
#292 = DIRECTION ( 'NONE',  ( 0.000000000000000000, 0.000000000000000000, 1.000000000000000000 ) ) ;
#293 = VERTEX_POINT ( 'NONE', #204 ) ;
#294 = CARTESIAN_POINT ( 'NONE',  ( 1.500000000000000222, 1.836970198721030181E-16, 103.0000000000000142 ) ) ;
#295 = UNCERTAINTY_MEASURE_WITH_UNIT (LENGTH_MEASURE( 1.000000000000000082E-05 ), #48, 'distance_accuracy_value', 'NONE');
#296 = VERTEX_POINT ( 'NONE', #325 ) ;
#297 = EDGE_CURVE ( 'NONE', #293, #255, #324, .T. ) ;
#298 = ORIENTED_EDGE ( 'NONE', *, *, #138, .F. ) ;
#299 = PRODUCT_DEFINITION ( 'NEZNÁMÝ', '', #9, #79 ) ;
#300 = CARTESIAN_POINT ( 'NONE',  ( 0.000000000000000000, 0.000000000000000000, 103.0000000000000142 ) ) ;
#301 = EDGE_CURVE ( 'NONE', #286, #206, #352, .T. ) ;
#302 = APPLICATION_CONTEXT ( 'configuration controlled 3d designs of mechanical parts and assemblies' ) ;
#303 = ORIENTED_EDGE ( 'NONE', *, *, #284, .F. ) ;
#304 = CIRCLE ( 'NONE', #182, 5.000000000000000000 ) ;
#305 = DIRECTION ( 'NONE',  ( -0.000000000000000000, -0.000000000000000000, -1.000000000000000000 ) ) ;
#306 = AXIS2_PLACEMENT_3D ( 'NONE', #274, #273, #340 ) ;
#307 = CARTESIAN_POINT ( 'NONE',  ( 0.000000000000000000, 0.000000000000000000, 0.000000000000000000 ) ) ;
#308 = DIRECTION ( 'NONE',  ( 0.000000000000000000, 0.000000000000000000, -1.000000000000000000 ) ) ;
#309 = ORIENTED_EDGE ( 'NONE', *, *, #67, .F. ) ;
#310 = PERSON_AND_ORGANIZATION_ROLE ( 'creator' ) ;
#311 = CARTESIAN_POINT ( 'NONE',  ( -2.799999999999999822, 3.429011037612588783E-16, 3.299999999999997158 ) ) ;
#312 = EDGE_CURVE ( 'NONE', #381, #202, #36, .T. ) ;
#313 = PERSON_AND_ORGANIZATION ( #186, #369 ) ;
#314 = APPROVAL ( #165, 'NEURÈENÝ' ) ;
#315 = TOROIDAL_SURFACE ( 'NONE', #49, 2.799999999999999822, 0.2999999999999999889 ) ;
#316 = CARTESIAN_POINT ( 'NONE',  ( 0.000000000000000000, 0.000000000000000000, 3.299999999999997158 ) ) ;
#317 = AXIS2_PLACEMENT_3D ( 'NONE', #65, #185, #150 ) ;
#318 = MECHANICAL_CONTEXT ( 'NONE', #130, 'mechanical' ) ;
#319 = ORIENTED_EDGE ( 'NONE', *, *, #188, .T. ) ;
#320 = APPLICATION_PROTOCOL_DEFINITION ( 'international standard', 'config_control_design', 1994, #302 ) ;
#321 = DIRECTION ( 'NONE',  ( 0.000000000000000000, 0.000000000000000000, 1.000000000000000000 ) ) ;
#322 = EDGE_LOOP ( 'NONE', ( #170, #259 ) ) ;
#323 = ORIENTED_EDGE ( 'NONE', *, *, #5, .T. ) ;
#324 = CIRCLE ( 'NONE', #317, 5.000000000000000000 ) ;
#325 = CARTESIAN_POINT ( 'NONE',  ( -2.799999999999999822, 3.429011037612589276E-16, 2.999999999999998668 ) ) ;
#326 = ORIENTED_EDGE ( 'NONE', *, *, #365, .F. ) ;
#327 = FACE_BOUND ( 'NONE', #322, .T. ) ;
#328 = ORIENTED_EDGE ( 'NONE', *, *, #236, .T. ) ;
#329 = CARTESIAN_POINT ( 'NONE',  ( 2.500000000000000000, 3.061616997868383141E-16, 103.0000000000000142 ) ) ;
#330 = SHAPE_DEFINITION_REPRESENTATION ( #282, #343 ) ;
#331 = VECTOR ( 'NONE', #244, 1000.000000000000000 ) ;
#332 = CARTESIAN_POINT ( 'NONE',  ( 0.000000000000000000, 0.000000000000000000, 3.000000000000000000 ) ) ;
#333 = CARTESIAN_POINT ( 'NONE',  ( 0.000000000000000000, 0.000000000000000000, 3.000000000000000000 ) ) ;
#334 = DIRECTION ( 'NONE',  ( 1.000000000000000000, 0.000000000000000000, 0.000000000000000000 ) ) ;
#335 = CYLINDRICAL_SURFACE ( 'NONE', #18, 1.500000000000000222 ) ;
#336 = ADVANCED_FACE ( 'NONE', ( #127 ), #108, .F. ) ;
#337 = CARTESIAN_POINT ( 'NONE',  ( -2.500000000000000000, 0.000000000000000000, 103.0000000000000142 ) ) ;
#338 = AXIS2_PLACEMENT_3D ( 'NONE', #307, #28, #120 ) ;
#339 = EDGE_CURVE ( 'NONE', #55, #381, #54, .T. ) ;
#340 = DIRECTION ( 'NONE',  ( -1.000000000000000000, 0.000000000000000000, 0.000000000000000000 ) ) ;
#341 = DIRECTION ( 'NONE',  ( -1.000000000000000000, 0.000000000000000000, 0.000000000000000000 ) ) ;
#342 = APPROVAL_STATUS ( 'not_yet_approved' ) ;
#343 = ADVANCED_BREP_SHAPE_REPRESENTATION ( 'b6a5', ( #22, #338 ), #280 ) ;
#344 = EDGE_LOOP ( 'NONE', ( #303, #260, #176, #147 ) ) ;
#345 = CIRCLE ( 'NONE', #40, 2.799999999999999822 ) ;
#346 = COORDINATED_UNIVERSAL_TIME_OFFSET ( 1, 0, .AHEAD. ) ;
#347 = CC_DESIGN_DATE_AND_TIME_ASSIGNMENT ( #278, #194, ( #246 ) ) ;
#348 = APPROVAL_DATE_TIME ( #118, #314 ) ;
#349 = EDGE_CURVE ( 'NONE', #6, #234, #159, .T. ) ;
#350 = PERSON_AND_ORGANIZATION ( #186, #369 ) ;
#351 = PRODUCT ( 'b6a5', 'b6a5', '', ( #318 ) ) ;
#352 = CIRCLE ( 'NONE', #218, 1.500000000000000222 ) ;
#353 = ORIENTED_EDGE ( 'NONE', *, *, #365, .T. ) ;
#354 = PERSON_AND_ORGANIZATION ( #186, #369 ) ;
#355 = ORIENTED_EDGE ( 'NONE', *, *, #312, .F. ) ;
#356 = DIRECTION ( 'NONE',  ( 1.000000000000000000, 0.000000000000000000, -0.000000000000000000 ) ) ;
#357 = ORIENTED_EDGE ( 'NONE', *, *, #312, .T. ) ;
#358 = CARTESIAN_POINT ( 'NONE',  ( 0.000000000000000000, 0.000000000000000000, 3.299999999999997158 ) ) ;
#359 = VERTEX_POINT ( 'NONE', #23 ) ;
#360 = DIRECTION ( 'NONE',  ( 1.000000000000000000, 0.000000000000000000, 0.000000000000000000 ) ) ;
#361 = EDGE_LOOP ( 'NONE', ( #39, #126, #277, #326 ) ) ;
#362 = CARTESIAN_POINT ( 'NONE',  ( 0.000000000000000000, 0.000000000000000000, 0.000000000000000000 ) ) ;
#363 = DIRECTION ( 'NONE',  ( 1.000000000000000000, 0.000000000000000000, 0.000000000000000000 ) ) ;
#364 = EDGE_CURVE ( 'NONE', #206, #6, #75, .T. ) ;
#365 = EDGE_CURVE ( 'NONE', #286, #234, #245, .T. ) ;
#366 = DIRECTION ( 'NONE',  ( 1.000000000000000000, 0.000000000000000000, 0.000000000000000000 ) ) ;
#367 = CARTESIAN_POINT ( 'NONE',  ( 0.000000000000000000, 0.000000000000000000, 103.0000000000000142 ) ) ;
#368 = DIRECTION ( 'NONE',  ( 0.000000000000000000, 0.000000000000000000, -1.000000000000000000 ) ) ;
#369 = ORGANIZATION ( 'NEURÈENÝ', 'NEURÈENÝ', '' ) ;
#370 = CARTESIAN_POINT ( 'NONE',  ( -1.500000000000000222, 0.000000000000000000, 103.0000000000000142 ) ) ;
#371 = ADVANCED_FACE ( 'NONE', ( #271 ), #81, .T. ) ;
#372 = DIRECTION ( 'NONE',  ( 0.000000000000000000, 0.000000000000000000, 1.000000000000000000 ) ) ;
#373 = AXIS2_PLACEMENT_3D ( 'NONE', #50, #112, #133 ) ;
#374 = PERSON_AND_ORGANIZATION ( #186, #369 ) ;
#375 = CYLINDRICAL_SURFACE ( 'NONE', #72, 5.000000000000000000 ) ;
#376 = CIRCLE ( 'NONE', #136, 1.500000000000000222 ) ;
#377 = CALENDAR_DATE ( 2022, 10, 7 ) ;
#378 = PERSON_AND_ORGANIZATION_ROLE ( 'design_owner' ) ;
#379 = DIRECTION ( 'NONE',  ( -0.000000000000000000, -0.000000000000000000, -1.000000000000000000 ) ) ;
#380 = APPROVAL_DATE_TIME ( #253, #290 ) ;
#381 = VERTEX_POINT ( 'NONE', #337 ) ;
ENDSEC;
END-ISO-10303-21;
