ISO-10303-21;
HEADER;
FILE_DESCRIPTION (( 'STEP AP203' ),
    '1' );
FILE_NAME ('dd09.STEP',
    '2022-07-10T09:16:37',
    ( '' ),
    ( '' ),
    'SwSTEP 2.0',
    'SolidWorks 2019',
    '' );
FILE_SCHEMA (( 'CONFIG_CONTROL_DESIGN' ));
ENDSEC;

DATA;
#1 = PRODUCT_DEFINITION ( 'NEZNÁMÝ', '', #181, #273 ) ;
#2 = CARTESIAN_POINT ( 'NONE',  ( 0.000000000000000000, 0.000000000000000000, 3.000000000000000000 ) ) ;
#3 = AXIS2_PLACEMENT_3D ( 'NONE', #216, #362, #160 ) ;
#4 = DIRECTION ( 'NONE',  ( -0.000000000000000000, -0.000000000000000000, -1.000000000000000000 ) ) ;
#5 = DIRECTION ( 'NONE',  ( 1.000000000000000000, 0.000000000000000000, -0.000000000000000000 ) ) ;
#6 = ORIENTED_EDGE ( 'NONE', *, *, #248, .F. ) ;
#7 = CARTESIAN_POINT ( 'NONE',  ( -2.799999999999999822, 3.429011037612588783E-16, 3.299999999999997158 ) ) ;
#8 = CC_DESIGN_APPROVAL ( #270, ( #232 ) ) ;
#9 = DIRECTION ( 'NONE',  ( 1.000000000000000000, 0.000000000000000000, 0.000000000000000000 ) ) ;
#10 = ADVANCED_FACE ( 'NONE', ( #381 ), #222, .T. ) ;
#11 = CYLINDRICAL_SURFACE ( 'NONE', #3, 2.500000000000000000 ) ;
#12 = LOCAL_TIME ( 11, 16, 37.00000000000000000, #78 ) ;
#13 = DIRECTION ( 'NONE',  ( -0.000000000000000000, -0.000000000000000000, -1.000000000000000000 ) ) ;
#14 = EDGE_CURVE ( 'NONE', #256, #21, #94, .T. ) ;
#15 = EDGE_CURVE ( 'NONE', #198, #69, #140, .T. ) ;
#16 = DIRECTION ( 'NONE',  ( -0.000000000000000000, -0.000000000000000000, -1.000000000000000000 ) ) ;
#17 = PERSON_AND_ORGANIZATION ( #103, #74 ) ;
#18 = AXIS2_PLACEMENT_3D ( 'NONE', #320, #4, #323 ) ;
#19 = ORIENTED_EDGE ( 'NONE', *, *, #215, .T. ) ;
#20 = SECURITY_CLASSIFICATION_LEVEL ( 'unclassified' ) ;
#21 = VERTEX_POINT ( 'NONE', #111 ) ;
#22 = CIRCLE ( 'NONE', #366, 1.600000000000000089 ) ;
#23 = PERSON_AND_ORGANIZATION ( #103, #74 ) ;
#24 = DIRECTION ( 'NONE',  ( -0.000000000000000000, -0.000000000000000000, -1.000000000000000000 ) ) ;
#25 = COORDINATED_UNIVERSAL_TIME_OFFSET ( 1, 0, .AHEAD. ) ;
#26 = VERTEX_POINT ( 'NONE', #315 ) ;
#27 = AXIS2_PLACEMENT_3D ( 'NONE', #361, #299, #278 ) ;
#28 = EDGE_CURVE ( 'NONE', #107, #32, #22, .T. ) ;
#29 = CALENDAR_DATE ( 2022, 10, 7 ) ;
#30 = CARTESIAN_POINT ( 'NONE',  ( -2.799999999999999822, 3.429011037612589276E-16, 2.999999999999998668 ) ) ;
#31 = CIRCLE ( 'NONE', #241, 1.600000000000000089 ) ;
#32 = VERTEX_POINT ( 'NONE', #116 ) ;
#33 = DIRECTION ( 'NONE',  ( -1.000000000000000000, 1.224646799147353207E-16, 0.000000000000000000 ) ) ;
#34 = DIRECTION ( 'NONE',  ( 0.000000000000000000, 0.000000000000000000, 1.000000000000000000 ) ) ;
#35 = DIRECTION ( 'NONE',  ( 0.000000000000000000, 0.000000000000000000, 1.000000000000000000 ) ) ;
#36 = ORIENTED_EDGE ( 'NONE', *, *, #267, .T. ) ;
#37 = DIRECTION ( 'NONE',  ( 1.224646799147353207E-16, 1.000000000000000000, -0.000000000000000000 ) ) ;
#38 = APPROVAL ( #343, 'NEURÈENÝ' ) ;
#39 = FACE_BOUND ( 'NONE', #45, .T. ) ;
#40 = ORIENTED_EDGE ( 'NONE', *, *, #337, .T. ) ;
#41 = PRODUCT_DEFINITION_SHAPE ( 'NONE', 'NONE',  #1 ) ;
#42 = CYLINDRICAL_SURFACE ( 'NONE', #167, 5.000000000000000000 ) ;
#43 = CIRCLE ( 'NONE', #322, 2.799999999999999822 ) ;
#44 = CARTESIAN_POINT ( 'NONE',  ( -2.500000000000000000, 0.000000000000000000, 103.0000000000000142 ) ) ;
#45 = EDGE_LOOP ( 'NONE', ( #310, #254 ) ) ;
#46 = CARTESIAN_POINT ( 'NONE',  ( 0.000000000000000000, 0.000000000000000000, 0.000000000000000000 ) ) ;
#47 = EDGE_CURVE ( 'NONE', #281, #263, #296, .T. ) ;
#48 = DIRECTION ( 'NONE',  ( 0.000000000000000000, 0.000000000000000000, 1.000000000000000000 ) ) ;
#49 = AXIS2_PLACEMENT_3D ( 'NONE', #240, #360, #292 ) ;
#50 = CARTESIAN_POINT ( 'NONE',  ( 0.000000000000000000, 0.000000000000000000, 3.000000000000000000 ) ) ;
#51 = PERSON_AND_ORGANIZATION ( #103, #74 ) ;
#52 = VERTEX_POINT ( 'NONE', #30 ) ;
#53 = APPROVAL_STATUS ( 'not_yet_approved' ) ;
#54 = ORIENTED_EDGE ( 'NONE', *, *, #235, .F. ) ;
#55 = DIRECTION ( 'NONE',  ( 0.000000000000000000, 0.000000000000000000, 1.000000000000000000 ) ) ;
#56 = CC_DESIGN_DATE_AND_TIME_ASSIGNMENT ( #223, #110, ( #1 ) ) ;
#57 = VECTOR ( 'NONE', #210, 1000.000000000000000 ) ;
#58 = VERTEX_POINT ( 'NONE', #147 ) ;
#59 = FACE_OUTER_BOUND ( 'NONE', #165, .T. ) ;
#60 = DIRECTION ( 'NONE',  ( 0.000000000000000000, 0.000000000000000000, 1.000000000000000000 ) ) ;
#61 = CC_DESIGN_SECURITY_CLASSIFICATION ( #232, ( #181 ) ) ;
#62 = CARTESIAN_POINT ( 'NONE',  ( 0.000000000000000000, 0.000000000000000000, 3.000000000000000000 ) ) ;
#63 = CIRCLE ( 'NONE', #277, 2.500000000000000000 ) ;
#64 = DIRECTION ( 'NONE',  ( 1.000000000000000000, 0.000000000000000000, 0.000000000000000000 ) ) ;
#65 = DIRECTION ( 'NONE',  ( 0.000000000000000000, 0.000000000000000000, 1.000000000000000000 ) ) ;
#66 = CC_DESIGN_PERSON_AND_ORGANIZATION_ASSIGNMENT ( #288, #258, ( #232 ) ) ;
#67 = AXIS2_PLACEMENT_3D ( 'NONE', #208, #326, #64 ) ;
#68 = FACE_OUTER_BOUND ( 'NONE', #142, .T. ) ;
#69 = VERTEX_POINT ( 'NONE', #118 ) ;
#70 = FACE_OUTER_BOUND ( 'NONE', #170, .T. ) ;
#71 = ORIENTED_EDGE ( 'NONE', *, *, #280, .F. ) ;
#72 = CARTESIAN_POINT ( 'NONE',  ( -5.000000000000000000, 0.000000000000000000, 3.000000000000000000 ) ) ;
#73 = ORIENTED_EDGE ( 'NONE', *, *, #28, .T. ) ;
#74 = ORGANIZATION ( 'NEURÈENÝ', 'NEURÈENÝ', '' ) ;
#75 = CARTESIAN_POINT ( 'NONE',  ( 0.000000000000000000, 0.000000000000000000, 0.000000000000000000 ) ) ;
#76 = DIRECTION ( 'NONE',  ( -0.000000000000000000, -0.000000000000000000, -1.000000000000000000 ) ) ;
#77 = ORIENTED_EDGE ( 'NONE', *, *, #280, .T. ) ;
#78 = COORDINATED_UNIVERSAL_TIME_OFFSET ( 1, 0, .AHEAD. ) ;
#79 = ORIENTED_EDGE ( 'NONE', *, *, #154, .T. ) ;
#80 = APPROVAL_DATE_TIME ( #171, #137 ) ;
#81 = CIRCLE ( 'NONE', #174, 0.2999999999999999334 ) ;
#82 = ORIENTED_EDGE ( 'NONE', *, *, #15, .T. ) ;
#83 = DATE_AND_TIME ( #169, #136 ) ;
#84 = ORIENTED_EDGE ( 'NONE', *, *, #114, .T. ) ;
#85 = AXIS2_PLACEMENT_3D ( 'NONE', #50, #24, #109 ) ;
#86 = CARTESIAN_POINT ( 'NONE',  ( 0.000000000000000000, 0.000000000000000000, 0.000000000000000000 ) ) ;
#87 = PLANE ( 'NONE',  #349 ) ;
#88 = VECTOR ( 'NONE', #16, 1000.000000000000000 ) ;
#89 = FACE_BOUND ( 'NONE', #300, .T. ) ;
#90 = CARTESIAN_POINT ( 'NONE',  ( -1.600000000000000089, 0.000000000000000000, 0.000000000000000000 ) ) ;
#91 = CIRCLE ( 'NONE', #329, 5.000000000000000000 ) ;
#92 = DIRECTION ( 'NONE',  ( 1.000000000000000000, 0.000000000000000000, 0.000000000000000000 ) ) ;
#93 = PLANE ( 'NONE',  #49 ) ;
#94 = CIRCLE ( 'NONE', #301, 1.600000000000000089 ) ;
#95 = DIRECTION ( 'NONE',  ( 0.000000000000000000, 0.000000000000000000, 1.000000000000000000 ) ) ;
#96 = UNCERTAINTY_MEASURE_WITH_UNIT (LENGTH_MEASURE( 1.000000000000000082E-05 ), #102, 'distance_accuracy_value', 'NONE');
#97 = CARTESIAN_POINT ( 'NONE',  ( 0.000000000000000000, 0.000000000000000000, 0.000000000000000000 ) ) ;
#98 = APPROVAL_PERSON_ORGANIZATION ( #195, #270, #309 ) ;
#99 = ORIENTED_EDGE ( 'NONE', *, *, #114, .F. ) ;
#100 = DIRECTION ( 'NONE',  ( 0.000000000000000000, 0.000000000000000000, 1.000000000000000000 ) ) ;
#101 = ORIENTED_EDGE ( 'NONE', *, *, #28, .F. ) ;
#102 =( LENGTH_UNIT ( ) NAMED_UNIT ( * ) SI_UNIT ( .MILLI., .METRE. ) );
#103 = PERSON ( 'NEURÈENÝ', 'NEURÈENÝ', 'NEURÈENÝ', ('NEURÈENÝ'), ('NEURÈENÝ'), ('NEURÈENÝ') ) ;
#104 = CIRCLE ( 'NONE', #67, 2.500000000000000000 ) ;
#105 = ADVANCED_FACE ( 'NONE', ( #231, #352 ), #87, .T. ) ;
#106 = CARTESIAN_POINT ( 'NONE',  ( 2.500000000000000000, 3.061616997868383141E-16, 3.299999999999997158 ) ) ;
#107 = VERTEX_POINT ( 'NONE', #260 ) ;
#108 = APPROVAL_ROLE ( '' ) ;
#109 = DIRECTION ( 'NONE',  ( -1.000000000000000000, 0.000000000000000000, 0.000000000000000000 ) ) ;
#110 = DATE_TIME_ROLE ( 'creation_date' ) ;
#111 = CARTESIAN_POINT ( 'NONE',  ( 1.600000000000000089, 1.959434878635765230E-16, 0.000000000000000000 ) ) ;
#112 = APPLICATION_PROTOCOL_DEFINITION ( 'international standard', 'config_control_design', 1994, #332 ) ;
#113 = EDGE_LOOP ( 'NONE', ( #190, #246, #272, #157 ) ) ;
#114 = EDGE_CURVE ( 'NONE', #32, #256, #206, .T. ) ;
#115 = PERSON_AND_ORGANIZATION_ROLE ( 'creator' ) ;
#116 = CARTESIAN_POINT ( 'NONE',  ( -1.600000000000000089, 0.000000000000000000, 103.0000000000000142 ) ) ;
#117 = DATE_AND_TIME ( #29, #12 ) ;
#118 = CARTESIAN_POINT ( 'NONE',  ( 2.500000000000000000, 3.061616997868383141E-16, 103.0000000000000142 ) ) ;
#119 = EDGE_CURVE ( 'NONE', #281, #26, #63, .T. ) ;
#120 = CARTESIAN_POINT ( 'NONE',  ( 0.000000000000000000, 0.000000000000000000, 0.000000000000000000 ) ) ;
#121 = VECTOR ( 'NONE', #356, 1000.000000000000000 ) ;
#122 = APPLICATION_CONTEXT ( 'configuration controlled 3d designs of mechanical parts and assemblies' ) ;
#123 = CARTESIAN_POINT ( 'NONE',  ( 0.000000000000000000, 0.000000000000000000, 0.000000000000000000 ) ) ;
#124 = FACE_OUTER_BOUND ( 'NONE', #237, .T. ) ;
#125 = ADVANCED_FACE ( 'NONE', ( #59 ), #211, .F. ) ;
#126 = DIRECTION ( 'NONE',  ( 1.000000000000000000, 0.000000000000000000, 0.000000000000000000 ) ) ;
#127 = APPROVAL_PERSON_ORGANIZATION ( #17, #137, #146 ) ;
#128 = CC_DESIGN_PERSON_AND_ORGANIZATION_ASSIGNMENT ( #173, #225, ( #181 ) ) ;
#129 = DIRECTION ( 'NONE',  ( 0.000000000000000000, 0.000000000000000000, 1.000000000000000000 ) ) ;
#130 = LINE ( 'NONE', #72, #88 ) ;
#131 = LOCAL_TIME ( 11, 16, 37.00000000000000000, #251 ) ;
#132 = DIRECTION ( 'NONE',  ( 1.000000000000000000, 0.000000000000000000, 0.000000000000000000 ) ) ;
#133 = CARTESIAN_POINT ( 'NONE',  ( 0.000000000000000000, 0.000000000000000000, 103.0000000000000142 ) ) ;
#134 = AXIS2_PLACEMENT_3D ( 'NONE', #175, #289, #259 ) ;
#135 = EDGE_CURVE ( 'NONE', #32, #107, #31, .T. ) ;
#136 = LOCAL_TIME ( 11, 16, 37.00000000000000000, #25 ) ;
#137 = APPROVAL ( #53, 'NEURÈENÝ' ) ;
#138 = DATE_TIME_ROLE ( 'classification_date' ) ;
#139 = ORIENTED_EDGE ( 'NONE', *, *, #15, .F. ) ;
#140 = CIRCLE ( 'NONE', #313, 2.500000000000000000 ) ;
#141 = COORDINATED_UNIVERSAL_TIME_OFFSET ( 1, 0, .AHEAD. ) ;
#142 = EDGE_LOOP ( 'NONE', ( #166, #228, #19, #99 ) ) ;
#143 = PERSON_AND_ORGANIZATION ( #103, #74 ) ;
#144 = CIRCLE ( 'NONE', #377, 5.000000000000000000 ) ;
#145 = DIRECTION ( 'NONE',  ( 1.000000000000000000, 0.000000000000000000, 0.000000000000000000 ) ) ;
#146 = APPROVAL_ROLE ( '' ) ;
#147 = CARTESIAN_POINT ( 'NONE',  ( -5.000000000000000000, 0.000000000000000000, 0.000000000000000000 ) ) ;
#148 = AXIS2_PLACEMENT_3D ( 'NONE', #321, #60, #264 ) ;
#149 = ORIENTED_EDGE ( 'NONE', *, *, #14, .T. ) ;
#150 = DIRECTION ( 'NONE',  ( -0.000000000000000000, -0.000000000000000000, -1.000000000000000000 ) ) ;
#151 = AXIS2_PLACEMENT_3D ( 'NONE', #62, #295, #126 ) ;
#152 = ORIENTED_EDGE ( 'NONE', *, *, #380, .F. ) ;
#153 = CARTESIAN_POINT ( 'NONE',  ( 2.799999999999999822, 0.000000000000000000, 2.999999999999998668 ) ) ;
#154 = EDGE_CURVE ( 'NONE', #340, #344, #91, .T. ) ;
#155 = LINE ( 'NONE', #183, #311 ) ;
#156 = DIRECTION ( 'NONE',  ( 1.000000000000000000, 0.000000000000000000, 0.000000000000000000 ) ) ;
#157 = ORIENTED_EDGE ( 'NONE', *, *, #204, .T. ) ;
#158 = CIRCLE ( 'NONE', #269, 1.600000000000000089 ) ;
#159 = DIRECTION ( 'NONE',  ( 1.000000000000000000, 0.000000000000000000, 0.000000000000000000 ) ) ;
#160 = DIRECTION ( 'NONE',  ( -1.000000000000000000, 0.000000000000000000, 0.000000000000000000 ) ) ;
#161 = PRODUCT ( 'dd09', 'dd09', '', ( #314 ) ) ;
#162 = CARTESIAN_POINT ( 'NONE',  ( 0.000000000000000000, 0.000000000000000000, 103.0000000000000142 ) ) ;
#163 = APPROVAL_PERSON_ORGANIZATION ( #51, #38, #108 ) ;
#164 = CARTESIAN_POINT ( 'NONE',  ( -5.000000000000000000, 0.000000000000000000, 3.000000000000000000 ) ) ;
#165 = EDGE_LOOP ( 'NONE', ( #279, #286, #214, #317 ) ) ;
#166 = ORIENTED_EDGE ( 'NONE', *, *, #135, .T. ) ;
#167 = AXIS2_PLACEMENT_3D ( 'NONE', #271, #305, #192 ) ;
#168 = ORIENTED_EDGE ( 'NONE', *, *, #47, .F. ) ;
#169 = CALENDAR_DATE ( 2022, 10, 7 ) ;
#170 = EDGE_LOOP ( 'NONE', ( #71, #330, #306, #168 ) ) ;
#171 = DATE_AND_TIME ( #341, #131 ) ;
#172 = ORIENTED_EDGE ( 'NONE', *, *, #337, .F. ) ;
#173 = PERSON_AND_ORGANIZATION ( #103, #74 ) ;
#174 = AXIS2_PLACEMENT_3D ( 'NONE', #7, #37, #33 ) ;
#175 = CARTESIAN_POINT ( 'NONE',  ( 2.799999999999999822, 0.000000000000000000, 3.299999999999997158 ) ) ;
#176 = ADVANCED_FACE ( 'NONE', ( #89, #124 ), #93, .T. ) ;
#177 = ORIENTED_EDGE ( 'NONE', *, *, #319, .T. ) ;
#178 = CC_DESIGN_PERSON_AND_ORGANIZATION_ASSIGNMENT ( #143, #227, ( #1 ) ) ;
#179 = DIRECTION ( 'NONE',  ( -0.000000000000000000, -0.000000000000000000, -1.000000000000000000 ) ) ;
#180 = DIRECTION ( 'NONE',  ( 1.000000000000000000, 0.000000000000000000, 0.000000000000000000 ) ) ;
#181 = PRODUCT_DEFINITION_FORMATION_WITH_SPECIFIED_SOURCE ( 'LIBOVOLNÝ', '', #161, .NOT_KNOWN. ) ;
#182 = CC_DESIGN_PERSON_AND_ORGANIZATION_ASSIGNMENT ( #23, #115, ( #181 ) ) ;
#183 = CARTESIAN_POINT ( 'NONE',  ( 2.500000000000000000, 3.061616997868383141E-16, 103.0000000000000142 ) ) ;
#184 = DIRECTION ( 'NONE',  ( -0.000000000000000000, -0.000000000000000000, -1.000000000000000000 ) ) ;
#185 = CARTESIAN_POINT ( 'NONE',  ( 1.600000000000000089, 1.959434878635765230E-16, 103.0000000000000142 ) ) ;
#186 = ORIENTED_EDGE ( 'NONE', *, *, #248, .T. ) ;
#187 =( GEOMETRIC_REPRESENTATION_CONTEXT ( 3 ) GLOBAL_UNCERTAINTY_ASSIGNED_CONTEXT ( ( #96 ) ) GLOBAL_UNIT_ASSIGNED_CONTEXT ( ( #102, #339, #369 ) ) REPRESENTATION_CONTEXT ( 'NONE', 'WORKASPACE' ) );
#188 = EDGE_CURVE ( 'NONE', #107, #21, #327, .T. ) ;
#189 = DIRECTION ( 'NONE',  ( 0.000000000000000000, 0.000000000000000000, -1.000000000000000000 ) ) ;
#190 = ORIENTED_EDGE ( 'NONE', *, *, #239, .F. ) ;
#191 = CARTESIAN_POINT ( 'NONE',  ( 5.000000000000000000, 6.123233995736766282E-16, 3.000000000000000000 ) ) ;
#192 = DIRECTION ( 'NONE',  ( -1.000000000000000000, 0.000000000000000000, 0.000000000000000000 ) ) ;
#193 = CC_DESIGN_APPROVAL ( #38, ( #181 ) ) ;
#194 = FACE_OUTER_BOUND ( 'NONE', #376, .T. ) ;
#195 = PERSON_AND_ORGANIZATION ( #103, #74 ) ;
#196 = ORIENTED_EDGE ( 'NONE', *, *, #119, .T. ) ;
#197 = CIRCLE ( 'NONE', #151, 5.000000000000000000 ) ;
#198 = VERTEX_POINT ( 'NONE', #212 ) ;
#199 = CARTESIAN_POINT ( 'NONE',  ( 0.000000000000000000, 0.000000000000000000, 103.0000000000000142 ) ) ;
#200 = PERSON_AND_ORGANIZATION ( #103, #74 ) ;
#201 = DIRECTION ( 'NONE',  ( 1.000000000000000000, 0.000000000000000000, 0.000000000000000000 ) ) ;
#202 = AXIS2_PLACEMENT_3D ( 'NONE', #133, #189, #335 ) ;
#203 = CARTESIAN_POINT ( 'NONE',  ( 0.000000000000000000, 0.000000000000000000, 103.0000000000000142 ) ) ;
#204 = EDGE_CURVE ( 'NONE', #58, #252, #304, .T. ) ;
#205 = CARTESIAN_POINT ( 'NONE',  ( -1.600000000000000089, 0.000000000000000000, 103.0000000000000142 ) ) ;
#206 = LINE ( 'NONE', #205, #229 ) ;
#207 = EDGE_CURVE ( 'NONE', #52, #263, #293, .T. ) ;
#208 = CARTESIAN_POINT ( 'NONE',  ( 0.000000000000000000, 0.000000000000000000, 103.0000000000000142 ) ) ;
#209 = VECTOR ( 'NONE', #76, 1000.000000000000000 ) ;
#210 = DIRECTION ( 'NONE',  ( -0.000000000000000000, -0.000000000000000000, -1.000000000000000000 ) ) ;
#211 = TOROIDAL_SURFACE ( 'NONE', #148, 2.799999999999999822, 0.2999999999999999889 ) ;
#212 = CARTESIAN_POINT ( 'NONE',  ( -2.500000000000000000, 0.000000000000000000, 103.0000000000000142 ) ) ;
#213 = CYLINDRICAL_SURFACE ( 'NONE', #255, 1.600000000000000089 ) ;
#214 = ORIENTED_EDGE ( 'NONE', *, *, #47, .T. ) ;
#215 = EDGE_CURVE ( 'NONE', #21, #256, #158, .T. ) ;
#216 = CARTESIAN_POINT ( 'NONE',  ( 0.000000000000000000, 0.000000000000000000, 103.0000000000000142 ) ) ;
#217 = EDGE_LOOP ( 'NONE', ( #276, #336, #177, #152 ) ) ;
#218 = EDGE_CURVE ( 'NONE', #26, #52, #81, .T. ) ;
#219 = CIRCLE ( 'NONE', #353, 2.500000000000000000 ) ;
#220 = PLANE ( 'NONE',  #345 ) ;
#221 = PERSON_AND_ORGANIZATION_ROLE ( 'design_owner' ) ;
#222 = CYLINDRICAL_SURFACE ( 'NONE', #85, 5.000000000000000000 ) ;
#223 = DATE_AND_TIME ( #371, #261 ) ;
#224 = CARTESIAN_POINT ( 'NONE',  ( 0.000000000000000000, 0.000000000000000000, 103.0000000000000142 ) ) ;
#225 = PERSON_AND_ORGANIZATION_ROLE ( 'design_supplier' ) ;
#226 = DIRECTION ( 'NONE',  ( -0.000000000000000000, -0.000000000000000000, -1.000000000000000000 ) ) ;
#227 = PERSON_AND_ORGANIZATION_ROLE ( 'creator' ) ;
#228 = ORIENTED_EDGE ( 'NONE', *, *, #188, .T. ) ;
#229 = VECTOR ( 'NONE', #266, 1000.000000000000000 ) ;
#230 = ADVANCED_FACE ( 'NONE', ( #355 ), #354, .T. ) ;
#231 = FACE_BOUND ( 'NONE', #370, .T. ) ;
#232 = SECURITY_CLASSIFICATION ( '', '', #20 ) ;
#233 = DIRECTION ( 'NONE',  ( 1.000000000000000000, 0.000000000000000000, 0.000000000000000000 ) ) ;
#234 = CARTESIAN_POINT ( 'NONE',  ( 5.000000000000000000, 6.123233995736766282E-16, 0.000000000000000000 ) ) ;
#235 = EDGE_CURVE ( 'NONE', #69, #281, #155, .T. ) ;
#236 = LINE ( 'NONE', #262, #57 ) ;
#237 = EDGE_LOOP ( 'NONE', ( #79, #36 ) ) ;
#238 = DIRECTION ( 'NONE',  ( 0.000000000000000000, 0.000000000000000000, 1.000000000000000000 ) ) ;
#239 = EDGE_CURVE ( 'NONE', #344, #252, #236, .T. ) ;
#240 = CARTESIAN_POINT ( 'NONE',  ( 0.000000000000000000, 0.000000000000000000, 3.000000000000000000 ) ) ;
#241 = AXIS2_PLACEMENT_3D ( 'NONE', #359, #95, #9 ) ;
#242 = FACE_OUTER_BOUND ( 'NONE', #379, .T. ) ;
#243 = AXIS2_PLACEMENT_3D ( 'NONE', #120, #238, #92 ) ;
#244 = DIRECTION ( 'NONE',  ( 1.000000000000000000, 0.000000000000000000, 0.000000000000000000 ) ) ;
#245 = LINE ( 'NONE', #44, #209 ) ;
#246 = ORIENTED_EDGE ( 'NONE', *, *, #154, .F. ) ;
#247 = CC_DESIGN_APPROVAL ( #137, ( #1 ) ) ;
#248 = EDGE_CURVE ( 'NONE', #69, #198, #104, .T. ) ;
#249 = APPLICATION_PROTOCOL_DEFINITION ( 'international standard', 'config_control_design', 1994, #122 ) ;
#250 = CLOSED_SHELL ( 'NONE', ( #285, #302, #230, #334, #10, #176, #346, #374, #105, #125, #307 ) ) ;
#251 = COORDINATED_UNIVERSAL_TIME_OFFSET ( 1, 0, .AHEAD. ) ;
#252 = VERTEX_POINT ( 'NONE', #234 ) ;
#253 = CALENDAR_DATE ( 2022, 10, 7 ) ;
#254 = ORIENTED_EDGE ( 'NONE', *, *, #215, .F. ) ;
#255 = AXIS2_PLACEMENT_3D ( 'NONE', #162, #328, #274 ) ;
#256 = VERTEX_POINT ( 'NONE', #90 ) ;
#257 = ADVANCED_BREP_SHAPE_REPRESENTATION ( 'dd09', ( #325, #358 ), #187 ) ;
#258 = PERSON_AND_ORGANIZATION_ROLE ( 'classification_officer' ) ;
#259 = DIRECTION ( 'NONE',  ( 0.000000000000000000, 0.000000000000000000, -1.000000000000000000 ) ) ;
#260 = CARTESIAN_POINT ( 'NONE',  ( 1.600000000000000089, 1.959434878635765230E-16, 103.0000000000000142 ) ) ;
#261 = LOCAL_TIME ( 11, 16, 37.00000000000000000, #316 ) ;
#262 = CARTESIAN_POINT ( 'NONE',  ( 5.000000000000000000, 6.123233995736766282E-16, 3.000000000000000000 ) ) ;
#263 = VERTEX_POINT ( 'NONE', #153 ) ;
#264 = DIRECTION ( 'NONE',  ( 1.000000000000000000, 0.000000000000000000, 0.000000000000000000 ) ) ;
#265 = APPROVAL_DATE_TIME ( #347, #270 ) ;
#266 = DIRECTION ( 'NONE',  ( 0.000000000000000000, 0.000000000000000000, -1.000000000000000000 ) ) ;
#267 = EDGE_CURVE ( 'NONE', #344, #340, #197, .T. ) ;
#268 = CARTESIAN_POINT ( 'NONE',  ( 0.000000000000000000, 0.000000000000000000, 3.299999999999997158 ) ) ;
#269 = AXIS2_PLACEMENT_3D ( 'NONE', #123, #179, #233 ) ;
#270 = APPROVAL ( #284, 'NEURÈENÝ' ) ;
#271 = CARTESIAN_POINT ( 'NONE',  ( 0.000000000000000000, 0.000000000000000000, 3.000000000000000000 ) ) ;
#272 = ORIENTED_EDGE ( 'NONE', *, *, #380, .T. ) ;
#273 = DESIGN_CONTEXT ( 'detailed design', #122, 'design' ) ;
#274 = DIRECTION ( 'NONE',  ( -1.000000000000000000, 0.000000000000000000, 0.000000000000000000 ) ) ;
#275 = DIRECTION ( 'NONE',  ( 1.000000000000000000, 0.000000000000000000, -0.000000000000000000 ) ) ;
#276 = ORIENTED_EDGE ( 'NONE', *, *, #267, .F. ) ;
#277 = AXIS2_PLACEMENT_3D ( 'NONE', #268, #34, #156 ) ;
#278 = DIRECTION ( 'NONE',  ( 1.000000000000000000, 0.000000000000000000, 0.000000000000000000 ) ) ;
#279 = ORIENTED_EDGE ( 'NONE', *, *, #218, .F. ) ;
#280 = EDGE_CURVE ( 'NONE', #26, #281, #219, .T. ) ;
#281 = VERTEX_POINT ( 'NONE', #106 ) ;
#282 = AXIS2_PLACEMENT_3D ( 'NONE', #298, #184, #294 ) ;
#283 = EDGE_LOOP ( 'NONE', ( #318, #333 ) ) ;
#284 = APPROVAL_STATUS ( 'not_yet_approved' ) ;
#285 = ADVANCED_FACE ( 'NONE', ( #68 ), #365, .F. ) ;
#286 = ORIENTED_EDGE ( 'NONE', *, *, #119, .F. ) ;
#287 = ORIENTED_EDGE ( 'NONE', *, *, #135, .F. ) ;
#288 = PERSON_AND_ORGANIZATION ( #103, #74 ) ;
#289 = DIRECTION ( 'NONE',  ( 0.000000000000000000, -1.000000000000000000, 0.000000000000000000 ) ) ;
#290 = ORIENTED_EDGE ( 'NONE', *, *, #188, .F. ) ;
#291 = SHAPE_DEFINITION_REPRESENTATION ( #41, #257 ) ;
#292 = DIRECTION ( 'NONE',  ( 1.000000000000000000, 0.000000000000000000, -0.000000000000000000 ) ) ;
#293 = CIRCLE ( 'NONE', #282, 2.799999999999999822 ) ;
#294 = DIRECTION ( 'NONE',  ( 1.000000000000000000, 0.000000000000000000, 0.000000000000000000 ) ) ;
#295 = DIRECTION ( 'NONE',  ( 0.000000000000000000, 0.000000000000000000, 1.000000000000000000 ) ) ;
#296 = CIRCLE ( 'NONE', #134, 0.2999999999999999334 ) ;
#297 = CARTESIAN_POINT ( 'NONE',  ( 0.000000000000000000, 0.000000000000000000, 3.299999999999997158 ) ) ;
#298 = CARTESIAN_POINT ( 'NONE',  ( 0.000000000000000000, 0.000000000000000000, 3.000000000000000000 ) ) ;
#299 = DIRECTION ( 'NONE',  ( 0.000000000000000000, 0.000000000000000000, 1.000000000000000000 ) ) ;
#300 = EDGE_LOOP ( 'NONE', ( #350, #312 ) ) ;
#301 = AXIS2_PLACEMENT_3D ( 'NONE', #86, #226, #348 ) ;
#302 = ADVANCED_FACE ( 'NONE', ( #70 ), #363, .F. ) ;
#303 = FACE_OUTER_BOUND ( 'NONE', #217, .T. ) ;
#304 = CIRCLE ( 'NONE', #243, 5.000000000000000000 ) ;
#305 = DIRECTION ( 'NONE',  ( -0.000000000000000000, -0.000000000000000000, -1.000000000000000000 ) ) ;
#306 = ORIENTED_EDGE ( 'NONE', *, *, #351, .F. ) ;
#307 = ADVANCED_FACE ( 'NONE', ( #194 ), #213, .F. ) ;
#308 = DIRECTION ( 'NONE',  ( 0.000000000000000000, 0.000000000000000000, 1.000000000000000000 ) ) ;
#309 = APPROVAL_ROLE ( '' ) ;
#310 = ORIENTED_EDGE ( 'NONE', *, *, #14, .F. ) ;
#311 = VECTOR ( 'NONE', #150, 1000.000000000000000 ) ;
#312 = ORIENTED_EDGE ( 'NONE', *, *, #207, .T. ) ;
#313 = AXIS2_PLACEMENT_3D ( 'NONE', #199, #373, #201 ) ;
#314 = MECHANICAL_CONTEXT ( 'NONE', #332, 'mechanical' ) ;
#315 = CARTESIAN_POINT ( 'NONE',  ( -2.500000000000000000, 0.000000000000000000, 3.299999999999997158 ) ) ;
#316 = COORDINATED_UNIVERSAL_TIME_OFFSET ( 1, 0, .AHEAD. ) ;
#317 = ORIENTED_EDGE ( 'NONE', *, *, #207, .F. ) ;
#318 = ORIENTED_EDGE ( 'NONE', *, *, #204, .F. ) ;
#319 = EDGE_CURVE ( 'NONE', #252, #58, #144, .T. ) ;
#320 = CARTESIAN_POINT ( 'NONE',  ( 0.000000000000000000, 0.000000000000000000, 103.0000000000000142 ) ) ;
#321 = CARTESIAN_POINT ( 'NONE',  ( 0.000000000000000000, 0.000000000000000000, 3.299999999999997158 ) ) ;
#322 = AXIS2_PLACEMENT_3D ( 'NONE', #331, #13, #132 ) ;
#323 = DIRECTION ( 'NONE',  ( -1.000000000000000000, 0.000000000000000000, 0.000000000000000000 ) ) ;
#324 = EDGE_LOOP ( 'NONE', ( #82, #186 ) ) ;
#325 = MANIFOLD_SOLID_BREP ( 'Odebrat vysunutím3', #250 ) ;
#326 = DIRECTION ( 'NONE',  ( 0.000000000000000000, 0.000000000000000000, 1.000000000000000000 ) ) ;
#327 = LINE ( 'NONE', #185, #121 ) ;
#328 = DIRECTION ( 'NONE',  ( 0.000000000000000000, 0.000000000000000000, -1.000000000000000000 ) ) ;
#329 = AXIS2_PLACEMENT_3D ( 'NONE', #2, #129, #180 ) ;
#330 = ORIENTED_EDGE ( 'NONE', *, *, #218, .T. ) ;
#331 = CARTESIAN_POINT ( 'NONE',  ( 0.000000000000000000, 0.000000000000000000, 3.000000000000000000 ) ) ;
#332 = APPLICATION_CONTEXT ( 'configuration controlled 3d designs of mechanical parts and assemblies' ) ;
#333 = ORIENTED_EDGE ( 'NONE', *, *, #319, .F. ) ;
#334 = ADVANCED_FACE ( 'NONE', ( #303 ), #42, .T. ) ;
#335 = DIRECTION ( 'NONE',  ( -1.000000000000000000, 0.000000000000000000, 0.000000000000000000 ) ) ;
#336 = ORIENTED_EDGE ( 'NONE', *, *, #239, .T. ) ;
#337 = EDGE_CURVE ( 'NONE', #198, #26, #245, .T. ) ;
#338 = LOCAL_TIME ( 11, 16, 37.00000000000000000, #141 ) ;
#339 =( NAMED_UNIT ( * ) PLANE_ANGLE_UNIT ( ) SI_UNIT ( $, .RADIAN. ) );
#340 = VERTEX_POINT ( 'NONE', #164 ) ;
#341 = CALENDAR_DATE ( 2022, 10, 7 ) ;
#342 = ORIENTED_EDGE ( 'NONE', *, *, #235, .T. ) ;
#343 = APPROVAL_STATUS ( 'not_yet_approved' ) ;
#344 = VERTEX_POINT ( 'NONE', #191 ) ;
#345 = AXIS2_PLACEMENT_3D ( 'NONE', #97, #100, #275 ) ;
#346 = ADVANCED_FACE ( 'NONE', ( #39, #367 ), #220, .F. ) ;
#347 = DATE_AND_TIME ( #253, #338 ) ;
#348 = DIRECTION ( 'NONE',  ( 1.000000000000000000, 0.000000000000000000, 0.000000000000000000 ) ) ;
#349 = AXIS2_PLACEMENT_3D ( 'NONE', #203, #65, #5 ) ;
#350 = ORIENTED_EDGE ( 'NONE', *, *, #351, .T. ) ;
#351 = EDGE_CURVE ( 'NONE', #263, #52, #43, .T. ) ;
#352 = FACE_OUTER_BOUND ( 'NONE', #324, .T. ) ;
#353 = AXIS2_PLACEMENT_3D ( 'NONE', #297, #35, #244 ) ;
#354 = CYLINDRICAL_SURFACE ( 'NONE', #18, 2.500000000000000000 ) ;
#355 = FACE_OUTER_BOUND ( 'NONE', #372, .T. ) ;
#356 = DIRECTION ( 'NONE',  ( 0.000000000000000000, 0.000000000000000000, -1.000000000000000000 ) ) ;
#357 = PRODUCT_RELATED_PRODUCT_CATEGORY ( 'detail', '', ( #161 ) ) ;
#358 = AXIS2_PLACEMENT_3D ( 'NONE', #46, #48, #375 ) ;
#359 = CARTESIAN_POINT ( 'NONE',  ( 0.000000000000000000, 0.000000000000000000, 103.0000000000000142 ) ) ;
#360 = DIRECTION ( 'NONE',  ( 0.000000000000000000, 0.000000000000000000, 1.000000000000000000 ) ) ;
#361 = CARTESIAN_POINT ( 'NONE',  ( 0.000000000000000000, 0.000000000000000000, 3.299999999999997158 ) ) ;
#362 = DIRECTION ( 'NONE',  ( -0.000000000000000000, -0.000000000000000000, -1.000000000000000000 ) ) ;
#363 = TOROIDAL_SURFACE ( 'NONE', #27, 2.799999999999999822, 0.2999999999999999889 ) ;
#364 = CC_DESIGN_PERSON_AND_ORGANIZATION_ASSIGNMENT ( #200, #221, ( #161 ) ) ;
#365 = CYLINDRICAL_SURFACE ( 'NONE', #202, 1.600000000000000089 ) ;
#366 = AXIS2_PLACEMENT_3D ( 'NONE', #224, #55, #145 ) ;
#367 = FACE_OUTER_BOUND ( 'NONE', #283, .T. ) ;
#368 = CC_DESIGN_DATE_AND_TIME_ASSIGNMENT ( #117, #138, ( #232 ) ) ;
#369 =( NAMED_UNIT ( * ) SI_UNIT ( $, .STERADIAN. ) SOLID_ANGLE_UNIT ( ) );
#370 = EDGE_LOOP ( 'NONE', ( #287, #101 ) ) ;
#371 = CALENDAR_DATE ( 2022, 10, 7 ) ;
#372 = EDGE_LOOP ( 'NONE', ( #6, #342, #196, #172 ) ) ;
#373 = DIRECTION ( 'NONE',  ( 0.000000000000000000, 0.000000000000000000, 1.000000000000000000 ) ) ;
#374 = ADVANCED_FACE ( 'NONE', ( #242 ), #11, .T. ) ;
#375 = DIRECTION ( 'NONE',  ( 1.000000000000000000, 0.000000000000000000, 0.000000000000000000 ) ) ;
#376 = EDGE_LOOP ( 'NONE', ( #290, #73, #84, #149 ) ) ;
#377 = AXIS2_PLACEMENT_3D ( 'NONE', #75, #308, #159 ) ;
#378 = APPROVAL_DATE_TIME ( #83, #38 ) ;
#379 = EDGE_LOOP ( 'NONE', ( #54, #139, #40, #77 ) ) ;
#380 = EDGE_CURVE ( 'NONE', #340, #58, #130, .T. ) ;
#381 = FACE_OUTER_BOUND ( 'NONE', #113, .T. ) ;
ENDSEC;
END-ISO-10303-21;
